  0
SECTION
  2
HEADER
  9
$ACADVER
  1
AC1015
  9
$ACADMAINTVER
 70
     6
  9
$DWGCODEPAGE
  3
ANSI_932
  9
$INSBASE
 10
0.0
 20
0.0
 30
0.0
  9
$EXTMIN
 10
0.0
 20
0.0
 30
0.0
  9
$EXTMAX
 10
420.0
 20
297.0
 30
0.0
  9
$LIMMIN
 10
0.0
 20
0.0
  9
$LIMMAX
 10
420.0
 20
297.0
  9
$ORTHOMODE
 70
     0
  9
$REGENMODE
 70
     1
  9
$FILLMODE
 70
     1
  9
$QTEXTMODE
 70
     0
  9
$MIRRTEXT
 70
     1
  9
$LTSCALE
 40
1.0
  9
$ATTMODE
 70
     1
  9
$TEXTSIZE
 40
2.5
  9
$TRACEWID
 40
1.0
  9
$TEXTSTYLE
  7
Standard
  9
$CLAYER
  8
画層4
  9
$CELTYPE
  6
ByLayer
  9
$CECOLOR
 62
   256
  9
$CELTSCALE
 40
1.0
  9
$DISPSILH
 70
     0
  9
$DIMSCALE
 40
1.0
  9
$DIMASZ
 40
2.5
  9
$DIMEXO
 40
0.625
  9
$DIMDLI
 40
3.75
  9
$DIMRND
 40
0.0
  9
$DIMDLE
 40
0.0
  9
$DIMEXE
 40
1.25
  9
$DIMTP
 40
0.0
  9
$DIMTM
 40
0.0
  9
$DIMTXT
 40
2.5
  9
$DIMCEN
 40
2.5
  9
$DIMTSZ
 40
0.0
  9
$DIMTOL
 70
     0
  9
$DIMLIM
 70
     0
  9
$DIMTIH
 70
     0
  9
$DIMTOH
 70
     0
  9
$DIMSE1
 70
     0
  9
$DIMSE2
 70
     0
  9
$DIMTAD
 70
     1
  9
$DIMZIN
 70
     8
  9
$DIMBLK
  1

  9
$DIMASO
 70
     1
  9
$DIMSHO
 70
     1
  9
$DIMPOST
  1

  9
$DIMAPOST
  1

  9
$DIMALT
 70
     0
  9
$DIMALTD
 70
     3
  9
$DIMALTF
 40
0.03937007874016
  9
$DIMLFAC
 40
1.0
  9
$DIMTOFL
 70
     1
  9
$DIMTVP
 40
0.0
  9
$DIMTIX
 70
     0
  9
$DIMSOXD
 70
     0
  9
$DIMSAH
 70
     0
  9
$DIMBLK1
  1

  9
$DIMBLK2
  1

  9
$DIMSTYLE
  2
ISO-25
  9
$DIMCLRD
 70
     0
  9
$DIMCLRE
 70
     0
  9
$DIMCLRT
 70
     0
  9
$DIMTFAC
 40
1.0
  9
$DIMGAP
 40
0.625
  9
$DIMJUST
 70
     0
  9
$DIMSD1
 70
     0
  9
$DIMSD2
 70
     0
  9
$DIMTOLJ
 70
     0
  9
$DIMTZIN
 70
     8
  9
$DIMALTZ
 70
     0
  9
$DIMALTTZ
 70
     0
  9
$DIMUPT
 70
     0
  9
$DIMDEC
 70
     2
  9
$DIMTDEC
 70
     2
  9
$DIMALTU
 70
     2
  9
$DIMALTTD
 70
     3
  9
$DIMTXSTY
  7
Standard
  9
$DIMAUNIT
 70
     0
  9
$DIMADEC
 70
     0
  9
$DIMALTRND
 40
0.0
  9
$DIMAZIN
 70
     0
  9
$DIMDSEP
 70
    44
  9
$DIMATFIT
 70
     3
  9
$DIMFRAC
 70
     0
  9
$DIMLDRBLK
  1

  9
$DIMLUNIT
 70
     2
  9
$DIMLWD
 70
    -2
  9
$DIMLWE
 70
    -2
  9
$DIMTMOVE
 70
     0
  9
$LUNITS
 70
     2
  9
$LUPREC
 70
     4
  9
$SKETCHINC
 40
1.0
  9
$FILLETRAD
 40
2.0
  9
$AUNITS
 70
     0
  9
$AUPREC
 70
     0
  9
$MENU
  1
.
  9
$ELEVATION
 40
0.0
  9
$PELEVATION
 40
0.0
  9
$THICKNESS
 40
0.0
  9
$LIMCHECK
 70
     0
  9
$CHAMFERA
 40
10.0
  9
$CHAMFERB
 40
10.0
  9
$CHAMFERC
 40
20.0
  9
$CHAMFERD
 40
0.0
  9
$SKPOLY
 70
     0
  9
$TDCREATE
 40
2454644.675939305
  9
$TDUCREATE
 40
2454644.300939305
  9
$TDUPDATE
 40
2457191.495393576
  9
$TDUUPDATE
 40
2457191.120393576
  9
$TDINDWG
 40
0.2408894097
  9
$TDUSRTIMER
 40
0.2408889352
  9
$USRTIMER
 70
     1
  9
$ANGBASE
 50
0.0
  9
$ANGDIR
 70
     0
  9
$PDMODE
 70
     0
  9
$PDSIZE
 40
0.0
  9
$PLINEWID
 40
0.0
  9
$SPLFRAME
 70
     0
  9
$SPLINETYPE
 70
     6
  9
$SPLINESEGS
 70
     8
  9
$HANDSEED
  5
2BD
  9
$SURFTAB1
 70
     6
  9
$SURFTAB2
 70
     6
  9
$SURFTYPE
 70
     6
  9
$SURFU
 70
     6
  9
$SURFV
 70
     6
  9
$UCSBASE
  2

  9
$UCSNAME
  2

  9
$UCSORG
 10
0.0
 20
0.0
 30
0.0
  9
$UCSXDIR
 10
1.0
 20
0.0
 30
0.0
  9
$UCSYDIR
 10
0.0
 20
1.0
 30
0.0
  9
$UCSORTHOREF
  2

  9
$UCSORTHOVIEW
 70
     0
  9
$UCSORGTOP
 10
0.0
 20
0.0
 30
0.0
  9
$UCSORGBOTTOM
 10
0.0
 20
0.0
 30
0.0
  9
$UCSORGLEFT
 10
0.0
 20
0.0
 30
0.0
  9
$UCSORGRIGHT
 10
0.0
 20
0.0
 30
0.0
  9
$UCSORGFRONT
 10
0.0
 20
0.0
 30
0.0
  9
$UCSORGBACK
 10
0.0
 20
0.0
 30
0.0
  9
$PUCSBASE
  2

  9
$PUCSNAME
  2

  9
$PUCSORG
 10
0.0
 20
0.0
 30
0.0
  9
$PUCSXDIR
 10
1.0
 20
0.0
 30
0.0
  9
$PUCSYDIR
 10
0.0
 20
1.0
 30
0.0
  9
$PUCSORTHOREF
  2

  9
$PUCSORTHOVIEW
 70
     0
  9
$PUCSORGTOP
 10
0.0
 20
0.0
 30
0.0
  9
$PUCSORGBOTTOM
 10
0.0
 20
0.0
 30
0.0
  9
$PUCSORGLEFT
 10
0.0
 20
0.0
 30
0.0
  9
$PUCSORGRIGHT
 10
0.0
 20
0.0
 30
0.0
  9
$PUCSORGFRONT
 10
0.0
 20
0.0
 30
0.0
  9
$PUCSORGBACK
 10
0.0
 20
0.0
 30
0.0
  9
$USERI1
 70
     0
  9
$USERI2
 70
     0
  9
$USERI3
 70
     0
  9
$USERI4
 70
     0
  9
$USERI5
 70
     0
  9
$USERR1
 40
0.0
  9
$USERR2
 40
0.0
  9
$USERR3
 40
0.0
  9
$USERR4
 40
0.0
  9
$USERR5
 40
0.0
  9
$WORLDVIEW
 70
     1
  9
$SHADEDGE
 70
     3
  9
$SHADEDIF
 70
    70
  9
$TILEMODE
 70
     1
  9
$MAXACTVP
 70
    64
  9
$PINSBASE
 10
0.0
 20
0.0
 30
0.0
  9
$PLIMCHECK
 70
     0
  9
$PEXTMIN
 10
1.000000000000000E+20
 20
1.000000000000000E+20
 30
1.000000000000000E+20
  9
$PEXTMAX
 10
-1.000000000000000E+20
 20
-1.000000000000000E+20
 30
-1.000000000000000E+20
  9
$PLIMMIN
 10
0.0
 20
0.0
  9
$PLIMMAX
 10
420.0
 20
297.0
  9
$UNITMODE
 70
     0
  9
$VISRETAIN
 70
     1
  9
$PLINEGEN
 70
     0
  9
$PSLTSCALE
 70
     1
  9
$TREEDEPTH
 70
  3020
  9
$CMLSTYLE
  2
Standard
  9
$CMLJUST
 70
     0
  9
$CMLSCALE
 40
20.0
  9
$PROXYGRAPHICS
 70
     1
  9
$MEASUREMENT
 70
     1
  9
$CELWEIGHT
370
    -1
  9
$ENDCAPS
280
     0
  9
$JOINSTYLE
280
     0
  9
$LWDISPLAY
290
     0
  9
$INSUNITS
 70
     4
  9
$HYPERLINKBASE
  1

  9
$STYLESHEET
  1

  9
$XEDIT
290
     1
  9
$CEPSNTYPE
380
     0
  9
$PSTYLEMODE
290
     1
  9
$FINGERPRINTGUID
  2
{FDEAD578-A652-11D2-9A35-0060089B3A3F}
  9
$VERSIONGUID
  2
{DC3FEC79-222C-4E38-BBD0-4893548759D0}
  9
$EXTNAMES
290
     1
  9
$PSVPSCALE
 40
0.0
  9
$OLESTARTUP
290
     0
  0
ENDSEC
  0
SECTION
  2
CLASSES
  0
CLASS
  1
ACDBDICTIONARYWDFLT
  2
AcDbDictionaryWithDefault
  3
AutoCAD 2000
 90
        0
280
     0
281
     0
  0
CLASS
  1
ACDBPLACEHOLDER
  2
AcDbPlaceHolder
  3
AutoCAD 2000
 90
        0
280
     0
281
     0
  0
CLASS
  1
LAYOUT
  2
AcDbLayout
  3
AutoCAD 2000
 90
        0
280
     0
281
     0
  0
CLASS
  1
DICTIONARYVAR
  2
AcDbDictionaryVar
  3
AutoCAD 2000
 90
        0
280
     0
281
     0
  0
ENDSEC
  0
SECTION
  2
TABLES
  0
TABLE
  2
VPORT
  5
8
330
0
100
AcDbSymbolTable
 70
     2
  0
VPORT
  5
2BC
330
8
100
AcDbSymbolTableRecord
100
AcDbViewportTableRecord
  2
*Active
 70
     0
 10
0.0
 20
0.0
 11
1.0
 21
1.0
 12
166.2892523449824
 22
67.49205506470815
 13
0.0
 23
0.0
 14
10.0
 24
10.0
 15
10.0
 25
10.0
 16
0.0
 26
0.0
 36
1.0
 17
0.0
 27
0.0
 37
0.0
 40
531.0680848136248
 41
1.791666666666666
 42
50.0
 43
0.0
 44
0.0
 50
0.0
 51
0.0
 71
     0
 72
   100
 73
     1
 74
     3
 75
     0
 76
     0
 77
     0
 78
     0
281
     0
 65
     1
110
0.0
120
0.0
130
0.0
111
1.0
121
0.0
131
0.0
112
0.0
122
1.0
132
0.0
 79
     0
146
0.0
  0
ENDTAB
  0
TABLE
  2
LTYPE
  5
5
330
0
100
AcDbSymbolTable
 70
     1
  0
LTYPE
  5
14
330
5
100
AcDbSymbolTableRecord
100
AcDbLinetypeTableRecord
  2
ByBlock
 70
     0
  3

 72
    65
 73
     0
 40
0.0
  0
LTYPE
  5
15
330
5
100
AcDbSymbolTableRecord
100
AcDbLinetypeTableRecord
  2
ByLayer
 70
     0
  3

 72
    65
 73
     0
 40
0.0
  0
LTYPE
  5
16
330
5
100
AcDbSymbolTableRecord
100
AcDbLinetypeTableRecord
  2
Continuous
 70
     0
  3
Solid line
 72
    65
 73
     0
 40
0.0
  0
ENDTAB
  0
TABLE
  2
LAYER
  5
2
330
0
100
AcDbSymbolTable
 70
     8
  0
LAYER
  5
10
330
2
100
AcDbSymbolTableRecord
100
AcDbLayerTableRecord
  2
0
 70
     0
 62
     7
  6
Continuous
370
    -3
390
F
  0
LAYER
  5
44
330
2
100
AcDbSymbolTableRecord
100
AcDbLayerTableRecord
  2
画層1
 70
     0
 62
     5
  6
Continuous
370
    -3
390
F
  0
LAYER
  5
45
330
2
100
AcDbSymbolTableRecord
100
AcDbLayerTableRecord
  2
画層2
 70
     0
 62
     7
  6
Continuous
370
    -3
390
F
  0
LAYER
  5
46
330
2
100
AcDbSymbolTableRecord
100
AcDbLayerTableRecord
  2
画層3
 70
     0
 62
     3
  6
Continuous
370
    -3
390
F
  0
LAYER
  5
47
330
2
100
AcDbSymbolTableRecord
100
AcDbLayerTableRecord
  2
画層4
 70
     0
 62
     2
  6
Continuous
370
    -3
390
F
  0
LAYER
  5
48
330
2
100
AcDbSymbolTableRecord
100
AcDbLayerTableRecord
  2
画層5
 70
     0
 62
    -1
  6
Continuous
370
    -3
390
F
  0
LAYER
  5
49
330
2
100
AcDbSymbolTableRecord
100
AcDbLayerTableRecord
  2
画層6
 70
     0
 62
    -4
  6
Continuous
370
    -3
390
F
  0
LAYER
  5
4A
330
2
100
AcDbSymbolTableRecord
100
AcDbLayerTableRecord
  2
画層7
 70
     0
 62
     6
  6
Continuous
370
    -3
390
F
  0
ENDTAB
  0
TABLE
  2
STYLE
  5
3
330
0
100
AcDbSymbolTable
 70
     1
  0
STYLE
  5
11
330
3
100
AcDbSymbolTableRecord
100
AcDbTextStyleTableRecord
  2
Standard
 70
     0
 40
0.0
 41
1.0
 50
0.0
 71
     0
 42
2.5
  3
txt
  4

  0
ENDTAB
  0
TABLE
  2
VIEW
  5
6
330
0
100
AcDbSymbolTable
 70
     0
  0
ENDTAB
  0
TABLE
  2
UCS
  5
7
330
0
100
AcDbSymbolTable
 70
     0
  0
ENDTAB
  0
TABLE
  2
APPID
  5
9
330
0
100
AcDbSymbolTable
 70
     1
  0
APPID
  5
12
330
9
100
AcDbSymbolTableRecord
100
AcDbRegAppTableRecord
  2
ACAD
 70
     0
  0
ENDTAB
  0
TABLE
  2
DIMSTYLE
  5
A
330
0
100
AcDbSymbolTable
 70
     1
100
AcDbDimStyleTable
 71
     1
340
27
  0
DIMSTYLE
105
27
330
A
100
AcDbSymbolTableRecord
100
AcDbDimStyleTableRecord
  2
ISO-25
 70
     0
 41
2.5
 42
0.625
 43
3.75
 44
1.25
 73
     0
 74
     0
 77
     1
 78
     8
140
2.5
141
2.5
143
0.03937007874016
147
0.625
171
     3
172
     1
271
     2
272
     2
274
     3
278
    44
283
     0
284
     8
340
11
  0
ENDTAB
  0
TABLE
  2
BLOCK_RECORD
  5
1
330
0
100
AcDbSymbolTable
 70
     1
  0
BLOCK_RECORD
  5
1F
330
1
100
AcDbSymbolTableRecord
100
AcDbBlockTableRecord
  2
*Model_Space
340
22
  0
BLOCK_RECORD
  5
1B
330
1
100
AcDbSymbolTableRecord
100
AcDbBlockTableRecord
  2
*Paper_Space
340
1E
  0
BLOCK_RECORD
  5
23
330
1
100
AcDbSymbolTableRecord
100
AcDbBlockTableRecord
  2
*Paper_Space0
340
26
  0
ENDTAB
  0
ENDSEC
  0
SECTION
  2
BLOCKS
  0
BLOCK
  5
20
330
1F
100
AcDbEntity
  8
0
100
AcDbBlockBegin
  2
*Model_Space
 70
     0
 10
0.0
 20
0.0
 30
0.0
  3
*Model_Space
  1

  0
ENDBLK
  5
21
330
1F
100
AcDbEntity
  8
0
100
AcDbBlockEnd
  0
BLOCK
  5
1C
330
1B
100
AcDbEntity
 67
     1
  8
0
100
AcDbBlockBegin
  2
*Paper_Space
 70
     0
 10
0.0
 20
0.0
 30
0.0
  3
*Paper_Space
  1

  0
ENDBLK
  5
1D
330
1B
100
AcDbEntity
 67
     1
  8
0
100
AcDbBlockEnd
  0
BLOCK
  5
24
330
23
100
AcDbEntity
  8
0
100
AcDbBlockBegin
  2
*Paper_Space0
 70
     0
 10
0.0
 20
0.0
 30
0.0
  3
*Paper_Space0
  1

  0
ENDBLK
  5
25
330
23
100
AcDbEntity
  8
0
100
AcDbBlockEnd
  0
ENDSEC
  0
SECTION
  2
ENTITIES
  0
LWPOLYLINE
  5
4D
330
1F
100
AcDbEntity
  8
画層5
100
AcDbPolyline
 90
        4
 70
     1
 43
0.0
 10
41.94824054245144
 20
153.027757547793
 10
141.9482405424514
 20
153.027757547793
 10
141.9482405424514
 20
253.027757547793
 10
41.94824054245144
 20
253.027757547793
  0
LINE
  5
50
330
1F
100
AcDbEntity
  8
画層5
100
AcDbLine
 10
91.94824054245144
 20
203.027757547793
 30
0.0
 11
91.94824054245142
 21
48.17584788057684
 31
0.0
  0
LINE
  5
51
330
1F
100
AcDbEntity
  8
画層5
100
AcDbLine
 10
91.94824054245144
 20
203.027757547793
 30
0.0
 11
189.4176319189423
 21
203.027757547793
 31
0.0
  0
LINE
  5
52
330
1F
100
AcDbEntity
  8
画層5
100
AcDbLine
 10
91.94824054245144
 20
203.027757547793
 30
0.0
 11
8.625829429612393
 21
203.027757547793
 31
0.0
  0
LINE
  5
53
330
1F
100
AcDbEntity
  8
画層5
100
AcDbLine
 10
91.94824054245144
 20
203.027757547793
 30
0.0
 11
91.94824054245144
 21
290.4687720591951
 31
0.0
  0
LINE
  5
54
330
1F
100
AcDbEntity
  8
画層5
100
AcDbLine
 10
41.94824054245144
 20
153.027757547793
 30
0.0
 11
41.94824054245144
 21
48.17584788057684
 31
0.0
  0
LINE
  5
55
330
1F
100
AcDbEntity
  8
画層5
100
AcDbLine
 10
141.9482405424514
 20
153.027757547793
 30
0.0
 11
141.9482405424514
 21
48.17584788057683
 31
0.0
  0
LINE
  5
57
330
1F
100
AcDbEntity
  8
画層5
100
AcDbLine
 10
91.94824054245144
 20
203.027757547793
 30
0.0
 11
91.94824054245144
 21
233.027757547793
 31
0.0
  0
LINE
  5
58
330
1F
100
AcDbEntity
  8
画層5
100
AcDbLine
 10
91.94824054245144
 20
203.027757547793
 30
0.0
 11
91.94824054245144
 21
173.027757547793
 31
0.0
  0
LINE
  5
59
330
1F
100
AcDbEntity
  8
画層5
100
AcDbLine
 10
91.94824054245144
 20
173.027757547793
 30
0.0
 11
112.4482405424513
 21
173.027757547793
 31
0.0
  0
LINE
  5
5A
330
1F
100
AcDbEntity
  8
画層5
100
AcDbLine
 10
112.4482405424513
 20
173.027757547793
 30
0.0
 11
112.4482405424513
 21
233.027757547793
 31
0.0
  0
LINE
  5
5B
330
1F
100
AcDbEntity
  8
画層5
100
AcDbLine
 10
112.4482405424513
 20
233.027757547793
 30
0.0
 11
91.94824054245144
 21
233.027757547793
 31
0.0
  0
LINE
  5
5C
330
1F
100
AcDbEntity
  8
画層5
100
AcDbLine
 10
91.94824054245144
 20
233.027757547793
 30
0.0
 11
71.44824054245145
 21
233.027757547793
 31
0.0
  0
LINE
  5
5D
330
1F
100
AcDbEntity
  8
画層5
100
AcDbLine
 10
71.44824054245145
 20
233.027757547793
 30
0.0
 11
71.44824054245145
 21
173.027757547793
 31
0.0
  0
LINE
  5
5E
330
1F
100
AcDbEntity
  8
画層5
100
AcDbLine
 10
71.44824054245145
 20
173.027757547793
 30
0.0
 11
91.94824054245144
 21
173.027757547793
 31
0.0
  0
LINE
  5
63
330
1F
100
AcDbEntity
  8
画層3
 62
     0
100
AcDbLine
 10
71.44824054245145
 20
233.027757547793
 30
0.0
 11
71.44824054245145
 21
173.027757547793
 31
0.0
  0
LINE
  5
64
330
1F
100
AcDbEntity
  8
画層3
 62
     0
100
AcDbLine
 10
71.44824054245145
 20
173.027757547793
 30
0.0
 11
112.4482405424513
 21
173.027757547793
 31
0.0
  0
LINE
  5
66
330
1F
100
AcDbEntity
  8
画層3
 62
     0
100
AcDbLine
 10
112.4482405424513
 20
233.027757547793
 30
0.0
 11
71.44824054245145
 21
233.027757547793
 31
0.0
  0
LINE
  5
68
330
1F
100
AcDbEntity
  8
画層5
100
AcDbLine
 10
91.94824054245144
 20
203.027757547793
 30
0.0
 11
91.94824054245144
 21
226.527757547793
 31
0.0
  0
LINE
  5
69
330
1F
100
AcDbEntity
  8
画層5
100
AcDbLine
 10
91.94824054245144
 20
203.027757547793
 30
0.0
 11
91.94824054245144
 21
179.527757547793
 31
0.0
  0
LINE
  5
6C
330
1F
100
AcDbEntity
  8
画層5
100
AcDbLine
 10
91.94824054245144
 20
226.527757547793
 30
0.0
 11
112.4482405424513
 21
226.527757547793
 31
0.0
  0
LINE
  5
6D
330
1F
100
AcDbEntity
  8
画層5
100
AcDbLine
 10
91.94824054245144
 20
226.527757547793
 30
0.0
 11
71.44824054245145
 21
226.527757547793
 31
0.0
  0
LINE
  5
6E
330
1F
100
AcDbEntity
  8
画層5
100
AcDbLine
 10
91.94824054245144
 20
179.527757547793
 30
0.0
 11
112.4482405424513
 21
179.527757547793
 31
0.0
  0
LINE
  5
6F
330
1F
100
AcDbEntity
  8
画層5
100
AcDbLine
 10
91.94824054245144
 20
179.527757547793
 30
0.0
 11
71.44824054245145
 21
179.527757547793
 31
0.0
  0
LINE
  5
71
330
1F
100
AcDbEntity
  8
画層5
100
AcDbLine
 10
91.94824054245144
 20
226.527757547793
 30
0.0
 11
104.4482405424514
 21
226.527757547793
 31
0.0
  0
LINE
  5
72
330
1F
100
AcDbEntity
  8
画層5
100
AcDbLine
 10
91.94824054245144
 20
226.527757547793
 30
0.0
 11
79.39824054245145
 21
226.527757547793
 31
0.0
  0
LINE
  5
73
330
1F
100
AcDbEntity
  8
画層5
100
AcDbLine
 10
91.94824054245144
 20
179.527757547793
 30
0.0
 11
104.4482405424514
 21
179.527757547793
 31
0.0
  0
LINE
  5
74
330
1F
100
AcDbEntity
  8
画層5
100
AcDbLine
 10
91.94824054245144
 20
179.527757547793
 30
0.0
 11
79.44824054245144
 21
179.527757547793
 31
0.0
  0
CIRCLE
  5
75
330
1F
100
AcDbEntity
  8
画層5
100
AcDbCircle
 10
79.44824054245144
 20
226.527757547793
 30
0.0
 40
3.5
  0
CIRCLE
  5
76
330
1F
100
AcDbEntity
  8
画層5
100
AcDbCircle
 10
104.4482405424514
 20
226.527757547793
 30
0.0
 40
3.5
  0
CIRCLE
  5
77
330
1F
100
AcDbEntity
  8
画層5
100
AcDbCircle
 10
79.44824054245144
 20
179.527757547793
 30
0.0
 40
3.5
  0
CIRCLE
  5
78
330
1F
100
AcDbEntity
  8
画層5
100
AcDbCircle
 10
104.4482405424514
 20
179.527757547793
 30
0.0
 40
3.5
  0
LINE
  5
79
330
1F
100
AcDbEntity
  8
画層5
100
AcDbLine
 10
91.94824054245144
 20
173.027757547793
 30
0.0
 11
91.94824054245144
 21
220.527757547793
 31
0.0
  0
LINE
  5
7A
330
1F
100
AcDbEntity
  8
画層5
100
AcDbLine
 10
91.94824054245144
 20
203.027757547793
 30
0.0
 11
91.94824054245144
 21
226.777757547793
 31
0.0
  0
CIRCLE
  5
7B
330
1F
100
AcDbEntity
  8
画層5
100
AcDbCircle
 10
91.94824054245144
 20
226.777757547793
 30
0.0
 40
2.299999999999998
  0
LINE
  5
7C
330
1F
100
AcDbEntity
  8
画層5
100
AcDbLine
 10
91.94824054245144
 20
203.027757547793
 30
0.0
 11
91.94824054245144
 21
179.277757547793
 31
0.0
  0
LINE
  5
80
330
1F
100
AcDbEntity
  8
画層5
100
AcDbLine
 10
79.44824054245144
 20
179.527757547793
 30
0.0
 11
79.44824054245144
 21
173.027757547793
 31
0.0
  0
LINE
  5
81
330
1F
100
AcDbEntity
  8
画層5
100
AcDbLine
 10
79.44824054245144
 20
179.527757547793
 30
0.0
 11
79.44824054245144
 21
233.027757547793
 31
0.0
  0
LINE
  5
82
330
1F
100
AcDbEntity
  8
画層5
100
AcDbLine
 10
104.4482405424514
 20
179.527757547793
 30
0.0
 11
104.4482405424514
 21
173.027757547793
 31
0.0
  0
LINE
  5
83
330
1F
100
AcDbEntity
  8
画層5
100
AcDbLine
 10
104.4482405424514
 20
179.527757547793
 30
0.0
 11
104.4482405424514
 21
233.027757547793
 31
0.0
  0
LINE
  5
84
330
1F
100
AcDbEntity
  8
画層5
100
AcDbLine
 10
79.44824054245144
 20
233.027757547793
 30
0.0
 11
74.44824054245144
 21
233.027757547793
 31
0.0
  0
LINE
  5
85
330
1F
100
AcDbEntity
  8
画層5
100
AcDbLine
 10
79.44824054245144
 20
233.027757547793
 30
0.0
 11
84.44824054245144
 21
233.027757547793
 31
0.0
  0
LINE
  5
86
330
1F
100
AcDbEntity
  8
画層5
100
AcDbLine
 10
84.44824054245144
 20
233.027757547793
 30
0.0
 11
84.44824054245144
 21
226.527757547793
 31
0.0
  0
LINE
  5
87
330
1F
100
AcDbEntity
  8
画層5
100
AcDbLine
 10
74.44824054245144
 20
233.027757547793
 30
0.0
 11
74.44824054245144
 21
226.527757547793
 31
0.0
  0
LINE
  5
89
330
1F
100
AcDbEntity
  8
画層5
100
AcDbLine
 10
104.4482405424514
 20
233.027757547793
 30
0.0
 11
99.44824054245145
 21
233.027757547793
 31
0.0
  0
LINE
  5
8A
330
1F
100
AcDbEntity
  8
画層5
100
AcDbLine
 10
99.44824054245145
 20
233.027757547793
 30
0.0
 11
99.44824054245145
 21
226.527757547793
 31
0.0
  0
LINE
  5
8B
330
1F
100
AcDbEntity
  8
画層5
100
AcDbLine
 10
104.4482405424514
 20
233.027757547793
 30
0.0
 11
109.4482405424514
 21
233.027757547793
 31
0.0
  0
LINE
  5
8C
330
1F
100
AcDbEntity
  8
画層5
100
AcDbLine
 10
109.4482405424514
 20
233.027757547793
 30
0.0
 11
109.4482405424514
 21
226.527757547793
 31
0.0
  0
LINE
  5
8D
330
1F
100
AcDbEntity
  8
画層5
100
AcDbLine
 10
79.44824054245144
 20
203.027757547793
 30
0.0
 11
79.44824054245144
 21
220.527757547793
 31
0.0
  0
LINE
  5
8E
330
1F
100
AcDbEntity
  8
画層5
100
AcDbLine
 10
79.44824054245144
 20
220.527757547793
 30
0.0
 11
104.4482405424514
 21
220.527757547793
 31
0.0
  0
LINE
  5
8F
330
1F
100
AcDbEntity
  8
画層5
100
AcDbLine
 10
79.44824054245144
 20
203.027757547793
 30
0.0
 11
79.44824054245144
 21
185.527757547793
 31
0.0
  0
LINE
  5
90
330
1F
100
AcDbEntity
  8
画層5
100
AcDbLine
 10
79.44824054245144
 20
185.527757547793
 30
0.0
 11
104.4482405424514
 21
185.527757547793
 31
0.0
  0
LINE
  5
91
330
1F
100
AcDbEntity
  8
画層5
100
AcDbLine
 10
84.44824054245144
 20
226.527757547793
 30
0.0
 11
84.44824054245144
 21
220.527757547793
 31
0.0
  0
LINE
  5
92
330
1F
100
AcDbEntity
  8
画層5
100
AcDbLine
 10
99.44824054245145
 20
226.527757547793
 30
0.0
 11
99.44824054245145
 21
220.527757547793
 31
0.0
  0
LINE
  5
93
330
1F
100
AcDbEntity
  8
画層5
100
AcDbLine
 10
104.4482405424514
 20
220.527757547793
 30
0.0
 11
112.4482405424513
 21
220.527757547793
 31
0.0
  0
LINE
  5
94
330
1F
100
AcDbEntity
  8
画層5
100
AcDbLine
 10
109.4482405424514
 20
226.527757547793
 30
0.0
 11
109.4482405424514
 21
220.527757547793
 31
0.0
  0
LINE
  5
95
330
1F
100
AcDbEntity
  8
画層5
100
AcDbLine
 10
79.44824054245144
 20
220.527757547793
 30
0.0
 11
71.44824054245145
 21
220.527757547793
 31
0.0
  0
LINE
  5
96
330
1F
100
AcDbEntity
  8
画層5
100
AcDbLine
 10
74.44824054245144
 20
226.527757547793
 30
0.0
 11
74.44824054245144
 21
220.527757547793
 31
0.0
  0
LINE
  5
97
330
1F
100
AcDbEntity
  8
画層5
100
AcDbLine
 10
104.4482405424514
 20
185.527757547793
 30
0.0
 11
112.4482405424513
 21
185.527757547793
 31
0.0
  0
LINE
  5
98
330
1F
100
AcDbEntity
  8
画層5
100
AcDbLine
 10
79.44824054245144
 20
185.527757547793
 30
0.0
 11
71.44824054245145
 21
185.527757547793
 31
0.0
  0
LINE
  5
99
330
1F
100
AcDbEntity
  8
画層5
100
AcDbLine
 10
79.44824054245144
 20
179.527757547793
 30
0.0
 11
74.44824054245144
 21
179.527757547793
 31
0.0
  0
LINE
  5
9A
330
1F
100
AcDbEntity
  8
画層5
100
AcDbLine
 10
74.44824054245144
 20
179.527757547793
 30
0.0
 11
74.44824054245144
 21
185.527757547793
 31
0.0
  0
LINE
  5
9B
330
1F
100
AcDbEntity
  8
画層5
100
AcDbLine
 10
79.44824054245144
 20
179.527757547793
 30
0.0
 11
84.44824054245144
 21
179.527757547793
 31
0.0
  0
LINE
  5
9C
330
1F
100
AcDbEntity
  8
画層5
100
AcDbLine
 10
84.44824054245144
 20
179.527757547793
 30
0.0
 11
84.44824054245144
 21
185.527757547793
 31
0.0
  0
LINE
  5
9D
330
1F
100
AcDbEntity
  8
画層5
100
AcDbLine
 10
84.44824054245144
 20
179.527757547793
 30
0.0
 11
84.44824054245144
 21
173.027757547793
 31
0.0
  0
LINE
  5
9E
330
1F
100
AcDbEntity
  8
画層5
100
AcDbLine
 10
74.44824054245144
 20
179.527757547793
 30
0.0
 11
74.44824054245144
 21
173.027757547793
 31
0.0
  0
LINE
  5
9F
330
1F
100
AcDbEntity
  8
画層5
100
AcDbLine
 10
104.4482405424514
 20
179.527757547793
 30
0.0
 11
109.4482405424514
 21
179.527757547793
 31
0.0
  0
LINE
  5
A0
330
1F
100
AcDbEntity
  8
画層5
100
AcDbLine
 10
109.4482405424514
 20
179.527757547793
 30
0.0
 11
109.4482405424514
 21
185.527757547793
 31
0.0
  0
LINE
  5
A1
330
1F
100
AcDbEntity
  8
画層5
100
AcDbLine
 10
104.4482405424514
 20
179.527757547793
 30
0.0
 11
99.44824054245145
 21
179.527757547793
 31
0.0
  0
LINE
  5
A2
330
1F
100
AcDbEntity
  8
画層5
100
AcDbLine
 10
99.44824054245145
 20
179.527757547793
 30
0.0
 11
99.44824054245145
 21
185.527757547793
 31
0.0
  0
LINE
  5
A3
330
1F
100
AcDbEntity
  8
画層5
100
AcDbLine
 10
99.44824054245145
 20
179.527757547793
 30
0.0
 11
99.44824054245145
 21
173.027757547793
 31
0.0
  0
LINE
  5
A4
330
1F
100
AcDbEntity
  8
画層5
100
AcDbLine
 10
109.4482405424514
 20
179.527757547793
 30
0.0
 11
109.4482405424514
 21
173.027757547793
 31
0.0
  0
LINE
  5
A5
330
1F
100
AcDbEntity
  8
画層3
 62
     0
100
AcDbLine
 10
74.44824054245144
 20
233.027757547793
 30
0.0
 11
74.44824054245144
 21
220.527757547793
 31
0.0
  0
LINE
  5
A6
330
1F
100
AcDbEntity
  8
画層3
 62
     0
100
AcDbLine
 10
74.44824054245144
 20
220.527757547793
 30
0.0
 11
84.44824054245144
 21
220.527757547793
 31
0.0
  0
LINE
  5
A7
330
1F
100
AcDbEntity
  8
画層3
 62
     0
100
AcDbLine
 10
84.44824054245144
 20
220.527757547793
 30
0.0
 11
84.44824054245144
 21
233.027757547793
 31
0.0
  0
LINE
  5
A8
330
1F
100
AcDbEntity
  8
画層3
 62
     0
100
AcDbLine
 10
99.44824054245145
 20
233.027757547793
 30
0.0
 11
99.44824054245145
 21
220.527757547793
 31
0.0
  0
LINE
  5
A9
330
1F
100
AcDbEntity
  8
画層3
 62
     0
100
AcDbLine
 10
99.44824054245145
 20
220.527757547793
 30
0.0
 11
109.4482405424514
 21
220.527757547793
 31
0.0
  0
LINE
  5
AA
330
1F
100
AcDbEntity
  8
画層3
 62
     0
100
AcDbLine
 10
109.4482405424514
 20
220.527757547793
 30
0.0
 11
109.4482405424514
 21
233.027757547793
 31
0.0
  0
LINE
  5
AB
330
1F
100
AcDbEntity
  8
画層3
 62
     0
100
AcDbLine
 10
74.44824054245144
 20
173.027757547793
 30
0.0
 11
74.44824054245144
 21
185.527757547793
 31
0.0
  0
LINE
  5
AC
330
1F
100
AcDbEntity
  8
画層3
 62
     0
100
AcDbLine
 10
74.44824054245144
 20
185.527757547793
 30
0.0
 11
84.44824054245144
 21
185.527757547793
 31
0.0
  0
LINE
  5
AD
330
1F
100
AcDbEntity
  8
画層3
 62
     0
100
AcDbLine
 10
84.44824054245144
 20
185.527757547793
 30
0.0
 11
84.44824054245144
 21
173.027757547793
 31
0.0
  0
LINE
  5
AE
330
1F
100
AcDbEntity
  8
画層3
 62
     0
100
AcDbLine
 10
99.44824054245145
 20
173.027757547793
 30
0.0
 11
99.44824054245145
 21
185.527757547793
 31
0.0
  0
LINE
  5
AF
330
1F
100
AcDbEntity
  8
画層3
 62
     0
100
AcDbLine
 10
99.44824054245145
 20
185.527757547793
 30
0.0
 11
109.4482405424514
 21
185.527757547793
 31
0.0
  0
LINE
  5
B0
330
1F
100
AcDbEntity
  8
画層3
 62
     0
100
AcDbLine
 10
109.4482405424514
 20
185.527757547793
 30
0.0
 11
109.4482405424514
 21
173.027757547793
 31
0.0
  0
ARC
  5
B4
330
1F
100
AcDbEntity
  8
画層3
 62
     0
100
AcDbCircle
 10
91.94824054245144
 20
179.277757547793
 30
0.0
 40
2.299999999999998
100
AcDbArc
 50
0.0
 51
180.0
  0
LINE
  5
B5
330
1F
100
AcDbEntity
  8
画層3
 62
     0
100
AcDbLine
 10
89.64824054245147
 20
179.277757547793
 30
0.0
 11
89.64824054245147
 21
173.027757547793
 31
0.0
  0
LINE
  5
B6
330
1F
100
AcDbEntity
  8
画層3
 62
     0
100
AcDbLine
 10
94.24824054245146
 20
179.277757547793
 30
0.0
 11
94.24824054245146
 21
173.027757547793
 31
0.0
  0
LINE
  5
B7
330
1F
100
AcDbEntity
  8
画層3
 62
     0
100
AcDbLine
 10
74.44824054245144
 20
233.027757547793
 30
0.0
 11
84.44824054245144
 21
233.027757547793
 31
0.0
  0
LINE
  5
B8
330
1F
100
AcDbEntity
  8
画層3
 62
     0
100
AcDbLine
 10
99.44824054245145
 20
233.027757547793
 30
0.0
 11
109.4482405424514
 21
233.027757547793
 31
0.0
  0
ARC
  5
B9
330
1F
100
AcDbEntity
  8
画層3
 62
     0
100
AcDbCircle
 10
91.94824054245144
 20
179.277757547793
 30
0.0
 40
5.299999999999998
100
AcDbArc
 50
0.0
 51
180.0
  0
LINE
  5
BA
330
1F
100
AcDbEntity
  8
画層3
 62
     0
100
AcDbLine
 10
86.64824054245146
 20
179.277757547793
 30
0.0
 11
86.64824054245146
 21
173.027757547793
 31
0.0
  0
LINE
  5
BB
330
1F
100
AcDbEntity
  8
画層3
 62
     0
100
AcDbLine
 10
97.24824054245146
 20
179.277757547793
 30
0.0
 11
97.24824054245146
 21
173.027757547793
 31
0.0
  0
ARC
  5
BC
330
1F
100
AcDbEntity
  8
画層3
 62
     0
100
AcDbCircle
 10
91.94824054245144
 20
179.277757547793
 30
0.0
 40
4.5
100
AcDbArc
 50
0.0
 51
180.0
  0
LINE
  5
BD
330
1F
100
AcDbEntity
  8
画層3
 62
     0
100
AcDbLine
 10
87.44824054245146
 20
179.277757547793
 30
0.0
 11
87.44824054245146
 21
173.027757547793
 31
0.0
  0
LINE
  5
BE
330
1F
100
AcDbEntity
  8
画層3
 62
     0
100
AcDbLine
 10
96.44824054245146
 20
179.277757547793
 30
0.0
 11
96.44824054245146
 21
173.027757547793
 31
0.0
  0
ARC
  5
BF
330
1F
100
AcDbEntity
  8
画層3
 62
     0
100
AcDbCircle
 10
91.94824054245144
 20
226.777757547793
 30
0.0
 40
5.299999999999998
100
AcDbArc
 50
180.0
 51
0.0
  0
LINE
  5
C0
330
1F
100
AcDbEntity
  8
画層3
 62
     0
100
AcDbLine
 10
86.64824054245146
 20
226.777757547793
 30
0.0
 11
86.64824054245146
 21
233.027757547793
 31
0.0
  0
LINE
  5
C1
330
1F
100
AcDbEntity
  8
画層3
 62
     0
100
AcDbLine
 10
87.44824054245146
 20
226.777757547793
 30
0.0
 11
87.44824054245146
 21
233.027757547793
 31
0.0
  0
ARC
  5
C2
330
1F
100
AcDbEntity
  8
画層3
 62
     0
100
AcDbCircle
 10
91.94824054245144
 20
226.777757547793
 30
0.0
 40
4.5
100
AcDbArc
 50
180.0
 51
0.0
  0
LINE
  5
C3
330
1F
100
AcDbEntity
  8
画層3
 62
     0
100
AcDbLine
 10
96.44824054245146
 20
226.777757547793
 30
0.0
 11
96.44824054245146
 21
233.027757547793
 31
0.0
  0
LINE
  5
C4
330
1F
100
AcDbEntity
  8
画層3
 62
     0
100
AcDbLine
 10
97.24824054245146
 20
226.777757547793
 30
0.0
 11
97.24824054245146
 21
233.027757547793
 31
0.0
  0
LINE
  5
C5
330
1F
100
AcDbEntity
  8
画層5
100
AcDbLine
 10
112.4482405424513
 20
185.527757547793
 30
0.0
 11
112.4482405424513
 21
191.527757547793
 31
0.0
  0
LINE
  5
C6
330
1F
100
AcDbEntity
  8
画層5
100
AcDbLine
 10
112.4482405424513
 20
191.527757547793
 30
0.0
 11
107.9482405424514
 21
191.527757547793
 31
0.0
  0
LINE
  5
C7
330
1F
100
AcDbEntity
  8
画層5
100
AcDbLine
 10
107.9482405424514
 20
191.527757547793
 30
0.0
 11
107.9482405424514
 21
196.2727176586158
 31
0.0
  0
LINE
  5
C8
330
1F
100
AcDbEntity
  8
画層5
100
AcDbLine
 10
107.9482405424514
 20
191.527757547793
 30
0.0
 11
102.1912348937503
 21
191.527757547793
 31
0.0
  0
CIRCLE
  5
CA
330
1F
100
AcDbEntity
  8
画層5
100
AcDbCircle
 10
106.4482405424514
 20
193.027757547793
 30
0.0
 40
1.5
  0
LINE
  5
CB
330
1F
100
AcDbEntity
  8
画層5
100
AcDbLine
 10
104.4482405424514
 20
194.527757547793
 30
0.0
 11
104.4482405424514
 21
191.527757547793
 31
0.0
  0
CIRCLE
  5
D1
330
1F
100
AcDbEntity
  8
画層3
 62
     0
100
AcDbCircle
 10
106.4482405424514
 20
193.027757547793
 30
0.0
 40
1.5
  0
CIRCLE
  5
D2
330
1F
100
AcDbEntity
  8
画層3
 62
     0
100
AcDbCircle
 10
104.4482405424514
 20
226.527757547793
 30
0.0
 40
3.5
  0
CIRCLE
  5
D3
330
1F
100
AcDbEntity
  8
画層3
 62
     0
100
AcDbCircle
 10
79.44824054245144
 20
226.527757547793
 30
0.0
 40
3.5
  0
CIRCLE
  5
D4
330
1F
100
AcDbEntity
  8
画層3
 62
     0
100
AcDbCircle
 10
79.44824054245144
 20
179.527757547793
 30
0.0
 40
3.5
  0
CIRCLE
  5
D5
330
1F
100
AcDbEntity
  8
画層3
 62
     0
100
AcDbCircle
 10
104.4482405424514
 20
179.527757547793
 30
0.0
 40
3.5
  0
CIRCLE
  5
D6
330
1F
100
AcDbEntity
  8
画層3
 62
     0
100
AcDbCircle
 10
91.94824054245144
 20
226.777757547793
 30
0.0
 40
2.299999999999998
  0
LINE
  5
E1
330
1F
100
AcDbEntity
  8
画層3
 62
     0
100
AcDbLine
 10
112.4482405424513
 20
233.027757547793
 30
0.0
 11
112.4482405424513
 21
173.027757547793
 31
0.0
  0
LINE
  5
E7
330
1F
100
AcDbEntity
  8
画層6
100
AcDbLine
 10
141.9482405424514
 20
228.027757547793
 30
0.0
 11
136.9482405424514
 21
228.027757547793
 31
0.0
  0
LINE
  5
E9
330
1F
100
AcDbEntity
  8
画層6
100
AcDbLine
 10
141.9482405424514
 20
178.027757547793
 30
0.0
 11
136.9482405424514
 21
178.027757547793
 31
0.0
  0
LINE
  5
EB
330
1F
100
AcDbEntity
  8
画層6
100
AcDbLine
 10
41.94824054245144
 20
228.027757547793
 30
0.0
 11
46.94824054245144
 21
228.027757547793
 31
0.0
  0
LINE
  5
ED
330
1F
100
AcDbEntity
  8
画層6
100
AcDbLine
 10
41.94824054245144
 20
178.027757547793
 30
0.0
 11
46.94824054245144
 21
178.027757547793
 31
0.0
  0
ARC
  5
EE
330
1F
100
AcDbEntity
  8
画層1
 62
     0
100
AcDbCircle
 10
46.94824054245144
 20
228.027757547793
 30
0.0
 40
2.2
100
AcDbArc
 50
270.0
 51
90.0
  0
ARC
  5
EF
330
1F
100
AcDbEntity
  8
画層1
 62
     0
100
AcDbCircle
 10
46.94824054245144
 20
178.027757547793
 30
0.0
 40
2.2
100
AcDbArc
 50
270.0
 51
90.0
  0
ARC
  5
F0
330
1F
100
AcDbEntity
  8
画層1
 62
     0
100
AcDbCircle
 10
136.9482405424514
 20
228.027757547793
 30
0.0
 40
2.2
100
AcDbArc
 50
90.0
 51
270.0
  0
ARC
  5
F1
330
1F
100
AcDbEntity
  8
画層1
 62
     0
100
AcDbCircle
 10
136.9482405424514
 20
178.027757547793
 30
0.0
 40
2.2
100
AcDbArc
 50
90.0
 51
270.0
  0
LINE
  5
F2
330
1F
100
AcDbEntity
  8
画層1
 62
     0
100
AcDbLine
 10
136.9482405424514
 20
230.2277575477929
 30
0.0
 11
141.9482405424514
 21
230.2277575477929
 31
0.0
  0
LINE
  5
F3
330
1F
100
AcDbEntity
  8
画層1
 62
     0
100
AcDbLine
 10
136.9482405424514
 20
225.8277575477929
 30
0.0
 11
141.9482405424514
 21
225.8277575477929
 31
0.0
  0
LINE
  5
F4
330
1F
100
AcDbEntity
  8
画層1
 62
     0
100
AcDbLine
 10
136.9482405424514
 20
180.227757547793
 30
0.0
 11
141.9482405424514
 21
180.227757547793
 31
0.0
  0
LINE
  5
F5
330
1F
100
AcDbEntity
  8
画層1
 62
     0
100
AcDbLine
 10
136.9482405424514
 20
175.827757547793
 30
0.0
 11
141.9482405424514
 21
175.827757547793
 31
0.0
  0
LINE
  5
F6
330
1F
100
AcDbEntity
  8
画層1
 62
     0
100
AcDbLine
 10
46.94824054245144
 20
175.827757547793
 30
0.0
 11
41.94824054245144
 21
175.827757547793
 31
0.0
  0
LINE
  5
F7
330
1F
100
AcDbEntity
  8
画層1
 62
     0
100
AcDbLine
 10
46.94824054245144
 20
180.227757547793
 30
0.0
 11
41.94824054245144
 21
180.227757547793
 31
0.0
  0
LINE
  5
F8
330
1F
100
AcDbEntity
  8
画層1
 62
     0
100
AcDbLine
 10
46.94824054245144
 20
225.8277575477929
 30
0.0
 11
41.94824054245144
 21
225.8277575477929
 31
0.0
  0
LINE
  5
F9
330
1F
100
AcDbEntity
  8
画層1
 62
     0
100
AcDbLine
 10
46.94824054245144
 20
230.2277575477929
 30
0.0
 11
41.94824054245144
 21
230.2277575477929
 31
0.0
  0
LINE
  5
10C
330
1F
100
AcDbEntity
  8
画層1
 62
     0
100
AcDbLine
 10
51.94824054245145
 20
253.027757547793
 30
0.0
 11
51.94824054245144
 21
153.027757547793
 31
0.0
  0
LINE
  5
10D
330
1F
100
AcDbEntity
  8
画層1
 62
     0
100
AcDbLine
 10
54.14824054245144
 20
153.027757547793
 30
0.0
 11
54.14824054245146
 21
253.027757547793
 31
0.0
  0
LINE
  5
10E
330
1F
100
AcDbEntity
  8
画層1
 62
     0
100
AcDbLine
 10
63.64824054245143
 20
253.027757547793
 30
0.0
 11
63.64824054245143
 21
153.027757547793
 31
0.0
  0
LINE
  5
10F
330
1F
100
AcDbEntity
  8
画層1
 62
     0
100
AcDbLine
 10
65.24824054245143
 20
153.027757547793
 30
0.0
 11
65.24824054245144
 21
253.027757547793
 31
0.0
  0
LINE
  5
110
330
1F
100
AcDbEntity
  8
画層1
 62
     0
100
AcDbLine
 10
118.6482405424514
 20
253.027757547793
 30
0.0
 11
118.6482405424514
 21
153.027757547793
 31
0.0
  0
LINE
  5
111
330
1F
100
AcDbEntity
  8
画層1
 62
     0
100
AcDbLine
 10
120.2482405424514
 20
153.027757547793
 30
0.0
 11
120.2482405424514
 21
253.027757547793
 31
0.0
  0
LINE
  5
112
330
1F
100
AcDbEntity
  8
画層1
 62
     0
100
AcDbLine
 10
129.7482405424514
 20
253.027757547793
 30
0.0
 11
129.7482405424514
 21
153.027757547793
 31
0.0
  0
LINE
  5
113
330
1F
100
AcDbEntity
  8
画層1
 62
     0
100
AcDbLine
 10
131.9482405424514
 20
153.027757547793
 30
0.0
 11
131.9482405424514
 21
253.027757547793
 31
0.0
  0
LINE
  5
11C
330
1F
100
AcDbEntity
  8
画層6
100
AcDbLine
 10
41.94824054245144
 20
98.5054000935102
 30
0.0
 11
51.94824054245144
 21
98.5054000935102
 31
0.0
  0
LINE
  5
11D
330
1F
100
AcDbEntity
  8
画層6
100
AcDbLine
 10
71.44824054245145
 20
153.027757547793
 30
0.0
 11
71.44824054245145
 21
98.50540009351014
 31
0.0
  0
LINE
  5
11E
330
1F
100
AcDbEntity
  8
画層6
100
AcDbLine
 10
112.4482405424513
 20
153.027757547793
 30
0.0
 11
112.4482405424513
 21
98.50540009351014
 31
0.0
  0
LINE
  5
11F
330
1F
100
AcDbEntity
  8
画層6
100
AcDbLine
 10
51.94824054245144
 20
153.027757547793
 30
0.0
 11
51.94824054245142
 21
48.6342310769336
 31
0.0
  0
LINE
  5
120
330
1F
100
AcDbEntity
  8
画層6
100
AcDbLine
 10
131.9482405424514
 20
153.027757547793
 30
0.0
 11
131.9482405424514
 21
48.28003219564436
 31
0.0
  0
LINE
  5
121
330
1F
100
AcDbEntity
  8
画層6
100
AcDbLine
 10
86.64824054245142
 20
153.027757547793
 30
0.0
 11
86.64824054245142
 21
98.5054000935102
 31
0.0
  0
LINE
  5
122
330
1F
100
AcDbEntity
  8
画層6
100
AcDbLine
 10
97.24824054245145
 20
153.027757547793
 30
0.0
 11
97.24824054245145
 21
98.5054000935102
 31
0.0
  0
LINE
  5
123
330
1F
100
AcDbEntity
  8
画層6
100
AcDbLine
 10
87.44824054245146
 20
153.027757547793
 30
0.0
 11
87.44824054245144
 21
98.5054000935102
 31
0.0
  0
LINE
  5
124
330
1F
100
AcDbEntity
  8
画層6
100
AcDbLine
 10
96.44824054245145
 20
153.027757547793
 30
0.0
 11
96.44824054245141
 21
98.50540009351014
 31
0.0
  0
LINE
  5
146
330
1F
100
AcDbEntity
  8
画層6
100
AcDbLine
 10
64.44824054245143
 20
153.027757547793
 30
0.0
 11
64.4482405424514
 21
39.80540009351014
 31
0.0
  0
LINE
  5
148
330
1F
100
AcDbEntity
  8
画層6
100
AcDbLine
 10
119.4482405424514
 20
153.027757547793
 30
0.0
 11
119.4482405424514
 21
39.80540009351015
 31
0.0
  0
LINE
  5
152
330
1F
100
AcDbEntity
  8
画層3
 62
     0
100
AcDbLine
 10
71.44824054245145
 20
68.50540009351016
 30
0.0
 11
71.44824054245145
 21
98.50540009351014
 31
0.0
  0
LINE
  5
153
330
1F
100
AcDbEntity
  8
画層3
 62
     0
100
AcDbLine
 10
71.44824054245145
 20
98.50540009351014
 30
0.0
 11
112.4482405424513
 21
98.50540009351014
 31
0.0
  0
LINE
  5
154
330
1F
100
AcDbEntity
  8
画層3
 62
     0
100
AcDbLine
 10
112.4482405424513
 20
98.50540009351014
 30
0.0
 11
112.4482405424513
 21
68.50540009351016
 31
0.0
  0
LINE
  5
18A
330
1F
100
AcDbEntity
  8
画層4
 62
     0
100
AcDbLine
 10
54.14824054245142
 20
83.50540009351016
 30
0.0
 11
54.14824054245142
 21
68.50540009351016
 31
0.0
  0
LINE
  5
18B
330
1F
100
AcDbEntity
  8
画層4
 62
     0
100
AcDbLine
 10
54.14824054245142
 20
68.50540009351016
 30
0.0
 11
63.64824054245141
 21
68.50540009351016
 31
0.0
  0
LINE
  5
18C
330
1F
100
AcDbEntity
  8
画層4
 62
     0
100
AcDbLine
 10
63.64824054245141
 20
68.50540009351016
 30
0.0
 11
63.64824054245142
 21
77.50540009351016
 31
0.0
  0
LINE
  5
18D
330
1F
100
AcDbEntity
  8
画層4
 62
     0
100
AcDbLine
 10
63.64824054245142
 20
77.50540009351016
 30
0.0
 11
65.24824054245141
 21
77.50540009351016
 31
0.0
  0
LINE
  5
18E
330
1F
100
AcDbEntity
  8
画層4
 62
     0
100
AcDbLine
 10
65.24824054245141
 20
77.50540009351016
 30
0.0
 11
65.24824054245141
 21
68.50540009351016
 31
0.0
  0
LINE
  5
18F
330
1F
100
AcDbEntity
  8
画層4
 62
     0
100
AcDbLine
 10
65.24824054245141
 20
68.50540009351016
 30
0.0
 11
118.6482405424514
 21
68.50540009351016
 31
0.0
  0
LINE
  5
190
330
1F
100
AcDbEntity
  8
画層4
 62
     0
100
AcDbLine
 10
118.6482405424514
 20
68.50540009351016
 30
0.0
 11
118.6482405424514
 21
77.50540009351016
 31
0.0
  0
LINE
  5
191
330
1F
100
AcDbEntity
  8
画層4
 62
     0
100
AcDbLine
 10
118.6482405424514
 20
77.50540009351016
 30
0.0
 11
120.2482405424514
 21
77.50540009351016
 31
0.0
  0
LINE
  5
192
330
1F
100
AcDbEntity
  8
画層4
 62
     0
100
AcDbLine
 10
120.2482405424514
 20
77.50540009351016
 30
0.0
 11
120.2482405424514
 21
68.50540009351016
 31
0.0
  0
LINE
  5
193
330
1F
100
AcDbEntity
  8
画層4
 62
     0
100
AcDbLine
 10
120.2482405424514
 20
68.50540009351016
 30
0.0
 11
129.7482405424514
 21
68.50540009351016
 31
0.0
  0
LINE
  5
194
330
1F
100
AcDbEntity
  8
画層4
 62
     0
100
AcDbLine
 10
129.7482405424514
 20
68.50540009351016
 30
0.0
 11
129.7482405424514
 21
83.50540009351016
 31
0.0
  0
LINE
  5
195
330
1F
100
AcDbEntity
  8
画層4
 62
     0
100
AcDbLine
 10
129.7482405424514
 20
83.50540009351016
 30
0.0
 11
131.9482405424514
 21
83.50540009351016
 31
0.0
  0
LINE
  5
196
330
1F
100
AcDbEntity
  8
画層4
 62
     0
100
AcDbLine
 10
131.9482405424514
 20
83.50540009351016
 30
0.0
 11
131.9482405424514
 21
40.00540009351015
 31
0.0
  0
LINE
  5
197
330
1F
100
AcDbEntity
  8
画層4
 62
     0
100
AcDbLine
 10
131.9482405424514
 20
40.00540009351015
 30
0.0
 11
141.9482405424514
 21
40.00540009351015
 31
0.0
  0
LINE
  5
198
330
1F
100
AcDbEntity
  8
画層4
 62
     0
100
AcDbLine
 10
141.9482405424514
 20
40.00540009351015
 30
0.0
 11
141.9482405424514
 21
38.50540009351015
 31
0.0
  0
LINE
  5
199
330
1F
100
AcDbEntity
  8
画層4
 62
     0
100
AcDbLine
 10
141.9482405424514
 20
38.50540009351015
 30
0.0
 11
129.7482405424514
 21
38.50540009351014
 31
0.0
  0
LINE
  5
19A
330
1F
100
AcDbEntity
  8
画層4
 62
     0
100
AcDbLine
 10
129.7482405424514
 20
38.50540009351014
 30
0.0
 11
129.7482405424514
 21
64.50540009351016
 31
0.0
  0
LINE
  5
19B
330
1F
100
AcDbEntity
  8
画層4
 62
     0
100
AcDbLine
 10
129.7482405424514
 20
64.50540009351016
 30
0.0
 11
120.1482405424513
 21
64.50540009351016
 31
0.0
  0
LINE
  5
19C
330
1F
100
AcDbEntity
  8
画層4
 62
     0
100
AcDbLine
 10
120.1482405424513
 20
64.50540009351016
 30
0.0
 11
120.1482405424514
 21
39.80540009351017
 31
0.0
  0
LINE
  5
19D
330
1F
100
AcDbEntity
  8
画層4
 62
     0
100
AcDbLine
 10
120.1482405424514
 20
39.80540009351017
 30
0.0
 11
118.7482405424514
 21
39.80540009351015
 31
0.0
  0
LINE
  5
19E
330
1F
100
AcDbEntity
  8
画層4
 62
     0
100
AcDbLine
 10
118.7482405424514
 20
39.80540009351015
 30
0.0
 11
118.7482405424512
 21
64.50540009351016
 31
0.0
  0
LINE
  5
19F
330
1F
100
AcDbEntity
  8
画層4
 62
     0
100
AcDbLine
 10
118.7482405424512
 20
64.50540009351016
 30
0.0
 11
109.1482405424514
 21
64.50540009351016
 31
0.0
  0
LINE
  5
1A0
330
1F
100
AcDbEntity
  8
画層4
 62
     0
100
AcDbLine
 10
109.1482405424514
 20
64.50540009351016
 30
0.0
 11
109.1482405424514
 21
39.80540009351014
 31
0.0
  0
LINE
  5
1A1
330
1F
100
AcDbEntity
  8
画層4
 62
     0
100
AcDbLine
 10
109.1482405424514
 20
39.80540009351014
 30
0.0
 11
107.7482405424514
 21
39.80540009351014
 31
0.0
  0
LINE
  5
1A2
330
1F
100
AcDbEntity
  8
画層4
 62
     0
100
AcDbLine
 10
107.7482405424514
 20
39.80540009351014
 30
0.0
 11
107.7482405424514
 21
64.50540009351016
 31
0.0
  0
LINE
  5
1A3
330
1F
100
AcDbEntity
  8
画層4
 62
     0
100
AcDbLine
 10
107.7482405424514
 20
64.50540009351016
 30
0.0
 11
98.14824054245141
 21
64.50540009351016
 31
0.0
  0
LINE
  5
1A4
330
1F
100
AcDbEntity
  8
画層4
 62
     0
100
AcDbLine
 10
98.14824054245141
 20
64.50540009351016
 30
0.0
 11
98.14824054245141
 21
39.80540009351015
 31
0.0
  0
LINE
  5
1A5
330
1F
100
AcDbEntity
  8
画層4
 62
     0
100
AcDbLine
 10
98.14824054245141
 20
39.80540009351015
 30
0.0
 11
96.7482405424514
 21
39.80540009351015
 31
0.0
  0
LINE
  5
1A6
330
1F
100
AcDbEntity
  8
画層4
 62
     0
100
AcDbLine
 10
96.7482405424514
 20
39.80540009351015
 30
0.0
 11
96.74824054245142
 21
64.50540009351016
 31
0.0
  0
LINE
  5
1A7
330
1F
100
AcDbEntity
  8
画層4
 62
     0
100
AcDbLine
 10
96.74824054245142
 20
64.50540009351016
 30
0.0
 11
87.1482405424514
 21
64.50540009351016
 31
0.0
  0
LINE
  5
1A8
330
1F
100
AcDbEntity
  8
画層4
 62
     0
100
AcDbLine
 10
87.1482405424514
 20
64.50540009351016
 30
0.0
 11
87.1482405424514
 21
39.80540009351014
 31
0.0
  0
LINE
  5
1A9
330
1F
100
AcDbEntity
  8
画層4
 62
     0
100
AcDbLine
 10
87.1482405424514
 20
39.80540009351014
 30
0.0
 11
85.74824054245139
 21
39.80540009351014
 31
0.0
  0
LINE
  5
1AA
330
1F
100
AcDbEntity
  8
画層4
 62
     0
100
AcDbLine
 10
85.74824054245139
 20
39.80540009351014
 30
0.0
 11
85.74824054245139
 21
64.50540009351016
 31
0.0
  0
LINE
  5
1AB
330
1F
100
AcDbEntity
  8
画層4
 62
     0
100
AcDbLine
 10
85.74824054245139
 20
64.50540009351016
 30
0.0
 11
76.1482405424514
 21
64.50540009351016
 31
0.0
  0
LINE
  5
1AC
330
1F
100
AcDbEntity
  8
画層4
 62
     0
100
AcDbLine
 10
76.1482405424514
 20
64.50540009351016
 30
0.0
 11
76.1482405424514
 21
39.80540009351014
 31
0.0
  0
LINE
  5
1AD
330
1F
100
AcDbEntity
  8
画層4
 62
     0
100
AcDbLine
 10
76.1482405424514
 20
39.80540009351014
 30
0.0
 11
74.74824054245138
 21
39.80540009351014
 31
0.0
  0
LINE
  5
1AE
330
1F
100
AcDbEntity
  8
画層4
 62
     0
100
AcDbLine
 10
74.74824054245138
 20
39.80540009351014
 30
0.0
 11
74.74824054245138
 21
64.50540009351016
 31
0.0
  0
LINE
  5
1AF
330
1F
100
AcDbEntity
  8
画層4
 62
     0
100
AcDbLine
 10
74.74824054245138
 20
64.50540009351016
 30
0.0
 11
65.1482405424514
 21
64.50540009351016
 31
0.0
  0
LINE
  5
1B0
330
1F
100
AcDbEntity
  8
画層4
 62
     0
100
AcDbLine
 10
65.1482405424514
 20
64.50540009351016
 30
0.0
 11
65.1482405424514
 21
39.80540009351014
 31
0.0
  0
LINE
  5
1B1
330
1F
100
AcDbEntity
  8
画層4
 62
     0
100
AcDbLine
 10
65.1482405424514
 20
39.80540009351014
 30
0.0
 11
63.7482405424514
 21
39.80540009351014
 31
0.0
  0
LINE
  5
1B2
330
1F
100
AcDbEntity
  8
画層4
 62
     0
100
AcDbLine
 10
63.7482405424514
 20
39.80540009351014
 30
0.0
 11
63.74824054245139
 21
64.50540009351016
 31
0.0
  0
LINE
  5
1B3
330
1F
100
AcDbEntity
  8
画層4
 62
     0
100
AcDbLine
 10
63.74824054245139
 20
64.50540009351016
 30
0.0
 11
54.14824054245142
 21
64.50540009351016
 31
0.0
  0
LINE
  5
1B4
330
1F
100
AcDbEntity
  8
画層4
 62
     0
100
AcDbLine
 10
54.14824054245142
 20
64.50540009351016
 30
0.0
 11
54.14824054245142
 21
38.50540009351014
 31
0.0
  0
LINE
  5
1B5
330
1F
100
AcDbEntity
  8
画層4
 62
     0
100
AcDbLine
 10
54.14824054245142
 20
38.50540009351014
 30
0.0
 11
41.94824054245143
 21
38.50540009351014
 31
0.0
  0
LINE
  5
1B6
330
1F
100
AcDbEntity
  8
画層4
 62
     0
100
AcDbLine
 10
41.94824054245143
 20
38.50540009351014
 30
0.0
 11
41.94824054245143
 21
40.00540009351015
 31
0.0
  0
LINE
  5
1B7
330
1F
100
AcDbEntity
  8
画層4
 62
     0
100
AcDbLine
 10
41.94824054245143
 20
40.00540009351015
 30
0.0
 11
51.94824054245142
 21
40.00540009351015
 31
0.0
  0
LINE
  5
1B8
330
1F
100
AcDbEntity
  8
画層4
 62
     0
100
AcDbLine
 10
51.94824054245142
 20
40.00540009351015
 30
0.0
 11
51.94824054245142
 21
83.50540009351016
 31
0.0
  0
LINE
  5
1B9
330
1F
100
AcDbEntity
  8
画層4
 62
     0
100
AcDbLine
 10
51.94824054245142
 20
83.50540009351016
 30
0.0
 11
54.14824054245142
 21
83.50540009351016
 31
0.0
  0
LINE
  5
1BE
330
1F
100
AcDbEntity
  8
画層3
 62
     0
100
AcDbLine
 10
86.64824054245142
 20
96.50540009351015
 30
0.0
 11
71.44824054245145
 21
96.50540009351015
 31
0.0
  0
LINE
  5
1BF
330
1F
100
AcDbEntity
  8
画層3
 62
     0
100
AcDbLine
 10
86.64824054245142
 20
96.50540009351015
 30
0.0
 11
112.4482405424513
 21
96.50540009351015
 31
0.0
  0
LINE
  5
1CF
330
1F
100
AcDbEntity
  8
画層3
 62
     0
100
AcDbLine
 10
84.44824054245144
 20
96.50540009351015
 30
0.0
 11
84.44824054245144
 21
84.50540009351016
 31
0.0
  0
LINE
  5
1D0
330
1F
100
AcDbEntity
  8
画層3
 62
     0
100
AcDbLine
 10
84.44824054245144
 20
84.50540009351016
 30
0.0
 11
74.44824054245144
 21
84.50540009351016
 31
0.0
  0
LINE
  5
1D1
330
1F
100
AcDbEntity
  8
画層3
 62
     0
100
AcDbLine
 10
74.44824054245144
 20
84.50540009351016
 30
0.0
 11
74.44824054245144
 21
96.50540009351015
 31
0.0
  0
LINE
  5
1D2
330
1F
100
AcDbEntity
  8
画層3
 62
     0
100
AcDbLine
 10
74.44824054245144
 20
84.50540009351016
 30
0.0
 11
73.44824054245144
 21
84.50540009351016
 31
0.0
  0
LINE
  5
1D3
330
1F
100
AcDbEntity
  8
画層3
 62
     0
100
AcDbLine
 10
73.44824054245144
 20
84.50540009351016
 30
0.0
 11
73.44824054245144
 21
87.50540009351015
 31
0.0
  0
LINE
  5
1D4
330
1F
100
AcDbEntity
  8
画層3
 62
     0
100
AcDbLine
 10
73.44824054245144
 20
87.50540009351015
 30
0.0
 11
71.44824054245145
 21
87.50540009351015
 31
0.0
  0
LINE
  5
1D5
330
1F
100
AcDbEntity
  8
画層3
 62
     0
100
AcDbLine
 10
99.44824054245145
 20
84.50540009351016
 30
0.0
 11
99.44824054245145
 21
96.50540009351015
 31
0.0
  0
LINE
  5
1D6
330
1F
100
AcDbEntity
  8
画層3
 62
     0
100
AcDbLine
 10
99.44824054245145
 20
84.50540009351016
 30
0.0
 11
109.4482405424514
 21
84.50540009351016
 31
0.0
  0
LINE
  5
1D7
330
1F
100
AcDbEntity
  8
画層3
 62
     0
100
AcDbLine
 10
109.4482405424514
 20
96.50540009351015
 30
0.0
 11
109.4482405424514
 21
84.50540009351016
 31
0.0
  0
LINE
  5
1D8
330
1F
100
AcDbEntity
  8
画層3
 62
     0
100
AcDbLine
 10
109.4482405424514
 20
84.50540009351016
 30
0.0
 11
110.4482405424514
 21
84.50540009351016
 31
0.0
  0
LINE
  5
1D9
330
1F
100
AcDbEntity
  8
画層3
 62
     0
100
AcDbLine
 10
110.4482405424514
 20
84.50540009351016
 30
0.0
 11
110.4482405424514
 21
87.50540009351015
 31
0.0
  0
LINE
  5
1DA
330
1F
100
AcDbEntity
  8
画層3
 62
     0
100
AcDbLine
 10
110.4482405424514
 20
87.50540009351015
 30
0.0
 11
112.4482405424513
 21
87.50540009351015
 31
0.0
  0
LINE
  5
1DB
330
1F
100
AcDbEntity
  8
画層3
 62
     0
100
AcDbLine
 10
74.44824054245144
 20
84.50540009351017
 30
0.0
 11
74.44824054245144
 21
96.50540009351015
 31
0.0
  0
LINE
  5
1DC
330
1F
100
AcDbEntity
  8
画層3
 62
     0
100
AcDbLine
 10
84.44824054245144
 20
84.50540009351016
 30
0.0
 11
84.44824054245144
 21
96.50540009351015
 31
0.0
  0
LINE
  5
1DD
330
1F
100
AcDbEntity
  8
画層3
 62
     0
100
AcDbLine
 10
99.44824054245145
 20
84.50540009351016
 30
0.0
 11
99.44824054245145
 21
96.50540009351015
 31
0.0
  0
LINE
  5
1DE
330
1F
100
AcDbEntity
  8
画層3
 62
     0
100
AcDbLine
 10
109.4482405424514
 20
84.50540009351016
 30
0.0
 11
109.4482405424514
 21
96.50540009351015
 31
0.0
  0
LINE
  5
1DF
330
1F
100
AcDbEntity
  8
画層3
 62
     0
100
AcDbLine
 10
89.64824054245147
 20
68.50540009351016
 30
0.0
 11
89.64824054245147
 21
71.70540009351016
 31
0.0
  0
LINE
  5
1E0
330
1F
100
AcDbEntity
  8
画層3
 62
     0
100
AcDbLine
 10
89.64824054245147
 20
71.70540009351016
 30
0.0
 11
87.44824054245141
 21
71.70540009351016
 31
0.0
  0
LINE
  5
1E1
330
1F
100
AcDbEntity
  8
画層3
 62
     0
100
AcDbLine
 10
94.24824054245144
 20
68.50540009351016
 30
0.0
 11
94.24824054245144
 21
71.70540009351016
 31
0.0
  0
LINE
  5
1E2
330
1F
100
AcDbEntity
  8
画層3
 62
     0
100
AcDbLine
 10
94.24824054245144
 20
71.70540009351016
 30
0.0
 11
96.44824054245141
 21
71.70540009351016
 31
0.0
  0
LINE
  5
1E3
330
1F
100
AcDbEntity
  8
画層3
 62
     0
100
AcDbLine
 10
87.44824054245141
 20
71.70540009351016
 30
0.0
 11
86.64824054245142
 21
96.50540009351015
 31
0.0
  0
LINE
  5
1E4
330
1F
100
AcDbEntity
  8
画層3
 62
     0
100
AcDbLine
 10
96.44824054245141
 20
71.70540009351016
 30
0.0
 11
97.24824054245145
 21
96.50540009351015
 31
0.0
  0
LINE
  5
1E5
330
1F
100
AcDbEntity
  8
画層3
 62
     0
100
AcDbLine
 10
84.44824054245144
 20
84.50540009351016
 30
0.0
 11
85.44824054245145
 21
84.50540009351016
 31
0.0
  0
LINE
  5
1E6
330
1F
100
AcDbEntity
  8
画層3
 62
     0
100
AcDbLine
 10
85.44824054245145
 20
84.50540009351016
 30
0.0
 11
85.44824054245145
 21
87.50540009351015
 31
0.0
  0
LINE
  5
1E7
330
1F
100
AcDbEntity
  8
画層3
 62
     0
100
AcDbLine
 10
85.44824054245145
 20
87.50540009351015
 30
0.0
 11
86.93856312309661
 21
87.50540009351015
 31
0.0
  0
LINE
  5
1E8
330
1F
100
AcDbEntity
  8
画層3
 62
     0
100
AcDbLine
 10
99.44824054245145
 20
84.50540009351016
 30
0.0
 11
98.44824054245146
 21
84.50540009351016
 31
0.0
  0
LINE
  5
1E9
330
1F
100
AcDbEntity
  8
画層3
 62
     0
100
AcDbLine
 10
98.44824054245146
 20
84.50540009351016
 30
0.0
 11
98.44824054245146
 21
87.50540009351015
 31
0.0
  0
LINE
  5
1EA
330
1F
100
AcDbEntity
  8
画層3
 62
     0
100
AcDbLine
 10
98.44824054245146
 20
87.50540009351015
 30
0.0
 11
96.95791796180628
 21
87.50540009351015
 31
0.0
  0
LINE
  5
1F4
330
1F
100
AcDbEntity
  8
画層3
 62
     0
100
AcDbLine
 10
74.44824054245144
 20
175.027757547793
 30
0.0
 11
84.44824054245144
 21
175.027757547793
 31
0.0
  0
LINE
  5
1F6
330
1F
100
AcDbEntity
  8
画層3
 62
     0
100
AcDbLine
 10
99.44824054245145
 20
175.027757547793
 30
0.0
 11
109.4482405424514
 21
175.027757547793
 31
0.0
  0
LINE
  5
1F8
330
1F
100
AcDbEntity
  8
画層3
 62
     0
100
AcDbLine
 10
74.44824054245144
 20
231.027757547793
 30
0.0
 11
84.44824054245144
 21
231.027757547793
 31
0.0
  0
LINE
  5
1FA
330
1F
100
AcDbEntity
  8
画層3
 62
     0
100
AcDbLine
 10
99.44824054245145
 20
231.027757547793
 30
0.0
 11
109.4482405424514
 21
231.027757547793
 31
0.0
  0
LINE
  5
201
330
1F
100
AcDbEntity
  8
画層5
100
AcDbLine
 10
75.94824054245144
 20
179.527757547793
 30
0.0
 11
75.94824054245144
 21
98.50540009351014
 31
0.0
  0
LINE
  5
202
330
1F
100
AcDbEntity
  8
画層5
100
AcDbLine
 10
82.94824054245145
 20
179.527757547793
 30
0.0
 11
82.94824054245145
 21
98.50540009351014
 31
0.0
  0
LINE
  5
203
330
1F
100
AcDbEntity
  8
画層5
100
AcDbLine
 10
100.9482405424513
 20
179.527757547793
 30
0.0
 11
100.9482405424513
 21
98.50540009351014
 31
0.0
  0
LINE
  5
204
330
1F
100
AcDbEntity
  8
画層5
100
AcDbLine
 10
107.9482405424514
 20
179.527757547793
 30
0.0
 11
107.9482405424514
 21
98.50540009351014
 31
0.0
  0
LINE
  5
205
330
1F
100
AcDbEntity
  8
画層6
100
AcDbLine
 10
131.9482405424514
 20
98.50540009351014
 30
0.0
 11
141.9482405424514
 21
98.50540009351014
 31
0.0
  0
LINE
  5
214
330
1F
100
AcDbEntity
  8
画層3
 62
     0
100
AcDbLine
 10
84.44824054245144
 20
86.50540009351017
 30
0.0
 11
74.44824054245144
 21
86.50540009351017
 31
0.0
  0
LINE
  5
215
330
1F
100
AcDbEntity
  8
画層3
 62
     0
100
AcDbLine
 10
82.94824054245145
 20
86.50540009351017
 30
0.0
 11
82.94824054245145
 21
87.50540009351015
 31
0.0
  0
LINE
  5
216
330
1F
100
AcDbEntity
  8
画層3
 62
     0
100
AcDbLine
 10
82.94824054245145
 20
87.50540009351015
 30
0.0
 11
75.94824054245144
 21
87.50540009351015
 31
0.0
  0
LINE
  5
217
330
1F
100
AcDbEntity
  8
画層3
 62
     0
100
AcDbLine
 10
75.94824054245144
 20
87.50540009351015
 30
0.0
 11
75.94824054245144
 21
86.50540009351017
 31
0.0
  0
LINE
  5
21B
330
1F
100
AcDbEntity
  8
画層3
 62
     0
100
AcDbLine
 10
99.44824054245145
 20
86.50540009351017
 30
0.0
 11
109.4482405424514
 21
86.50540009351017
 31
0.0
  0
LINE
  5
21C
330
1F
100
AcDbEntity
  8
画層3
 62
     0
100
AcDbLine
 10
107.9482405424514
 20
86.50540009351017
 30
0.0
 11
107.9482405424514
 21
87.50540009351015
 31
0.0
  0
LINE
  5
21D
330
1F
100
AcDbEntity
  8
画層3
 62
     0
100
AcDbLine
 10
107.9482405424514
 20
87.50540009351015
 30
0.0
 11
100.9482405424513
 21
87.50540009351015
 31
0.0
  0
LINE
  5
21E
330
1F
100
AcDbEntity
  8
画層3
 62
     0
100
AcDbLine
 10
100.9482405424513
 20
87.50540009351015
 30
0.0
 11
100.9482405424513
 21
86.50540009351017
 31
0.0
  0
LINE
  5
229
330
1F
100
AcDbEntity
  8
画層3
 62
     0
100
AcDbLine
 10
82.94824054245145
 20
87.50540009351015
 30
0.0
 11
82.94824054245145
 21
88.50540009351014
 31
0.0
  0
LINE
  5
22B
330
1F
100
AcDbEntity
  8
画層3
 62
     0
100
AcDbLine
 10
75.94824054245144
 20
87.50540009351015
 30
0.0
 11
75.94824054245144
 21
88.50540009351014
 31
0.0
  0
LINE
  5
22C
330
1F
100
AcDbEntity
  8
画層3
 62
     0
100
AcDbLine
 10
77.94824054245144
 20
90.50540009351015
 30
0.0
 11
80.94824054245142
 21
90.50540009351015
 31
0.0
  0
LINE
  5
22D
330
1F
100
AcDbEntity
  8
画層3
 62
     0
100
AcDbLine
 10
100.9482405424513
 20
87.50540009351015
 30
0.0
 11
100.9482405424513
 21
88.50540009351014
 31
0.0
  0
LINE
  5
22E
330
1F
100
AcDbEntity
  8
画層3
 62
     0
100
AcDbLine
 10
107.9482405424514
 20
87.50540009351015
 30
0.0
 11
107.9482405424514
 21
88.50540009351014
 31
0.0
  0
LINE
  5
22F
330
1F
100
AcDbEntity
  8
画層3
 62
     0
100
AcDbLine
 10
105.9482405424513
 20
90.50540009351015
 30
0.0
 11
102.9482405424513
 21
90.50540009351015
 31
0.0
  0
ARC
  5
230
330
1F
100
AcDbEntity
  8
画層3
 62
     0
100
AcDbCircle
 10
77.94824054245144
 20
88.50540009351014
 30
0.0
 40
2.0
100
AcDbArc
 50
90.0
 51
180.0
  0
ARC
  5
231
330
1F
100
AcDbEntity
  8
画層3
 62
     0
100
AcDbCircle
 10
80.94824054245142
 20
88.50540009351014
 30
0.0
 40
2.0
100
AcDbArc
 50
0.0
 51
90.0
  0
ARC
  5
232
330
1F
100
AcDbEntity
  8
画層3
 62
     0
100
AcDbCircle
 10
102.9482405424513
 20
88.50540009351014
 30
0.0
 40
2.0
100
AcDbArc
 50
90.0
 51
180.0
  0
ARC
  5
233
330
1F
100
AcDbEntity
  8
画層3
 62
     0
100
AcDbCircle
 10
105.9482405424513
 20
88.50540009351014
 30
0.0
 40
2.0
100
AcDbArc
 50
0.0
 51
90.0
  0
ARC
  5
23E
330
1F
100
AcDbEntity
  8
画層3
 62
     0
100
AcDbCircle
 10
90.44824054245145
 20
73.70540009351016
 30
0.0
 40
2.0
100
AcDbArc
 50
90.0
 51
180.0
  0
LINE
  5
23F
330
1F
100
AcDbEntity
  8
画層3
 62
     0
100
AcDbLine
 10
90.44824054245145
 20
75.70540009351017
 30
0.0
 11
93.44824054245142
 21
75.70540009351017
 31
0.0
  0
ARC
  5
240
330
1F
100
AcDbEntity
  8
画層3
 62
     0
100
AcDbCircle
 10
93.44824054245142
 20
73.70540009351016
 30
0.0
 40
2.0
100
AcDbArc
 50
0.0
 51
90.0
  0
LINE
  5
241
330
1F
100
AcDbEntity
  8
画層3
 62
     0
100
AcDbLine
 10
95.44824054245145
 20
72.70540009351016
 30
0.0
 11
95.44824054245145
 21
73.70540009351016
 31
0.0
  0
LINE
  5
242
330
1F
100
AcDbEntity
  8
画層3
 62
     0
100
AcDbLine
 10
95.44824054245145
 20
71.70540009351016
 30
0.0
 11
95.44824054245145
 21
72.70540009351016
 31
0.0
  0
LINE
  5
243
330
1F
100
AcDbEntity
  8
画層3
 62
     0
100
AcDbLine
 10
95.44824054245145
 20
72.70540009351016
 30
0.0
 11
88.44824054245144
 21
72.70540009351016
 31
0.0
  0
LINE
  5
244
330
1F
100
AcDbEntity
  8
画層3
 62
     0
100
AcDbLine
 10
88.44824054245144
 20
72.70540009351016
 30
0.0
 11
88.44824054245142
 21
73.70540009351016
 31
0.0
  0
LINE
  5
245
330
1F
100
AcDbEntity
  8
画層3
 62
     0
100
AcDbLine
 10
88.44824054245144
 20
72.70540009351016
 30
0.0
 11
88.44824054245144
 21
71.70540009351016
 31
0.0
  0
LINE
  5
246
330
1F
100
AcDbEntity
  8
画層3
 62
     0
100
AcDbLine
 10
88.44824054245144
 20
71.70540009351016
 30
0.0
 11
95.44824054245145
 21
71.70540009351016
 31
0.0
  0
LINE
  5
255
330
1F
100
AcDbEntity
  8
画層3
 62
     0
100
AcDbLine
 10
75.98413892731369
 20
180.027757547793
 30
0.0
 11
78.94824054245145
 21
180.027757547793
 31
0.0
  0
LINE
  5
256
330
1F
100
AcDbEntity
  8
画層3
 62
     0
100
AcDbLine
 10
75.98413892731369
 20
179.027757547793
 30
0.0
 11
78.94824054245145
 21
179.027757547793
 31
0.0
  0
LINE
  5
257
330
1F
100
AcDbEntity
  8
画層3
 62
     0
100
AcDbLine
 10
100.9841389273137
 20
180.027757547793
 30
0.0
 11
103.9482405424513
 21
180.027757547793
 31
0.0
  0
LINE
  5
258
330
1F
100
AcDbEntity
  8
画層3
 62
     0
100
AcDbLine
 10
100.9841389273137
 20
179.027757547793
 30
0.0
 11
103.9482405424513
 21
179.027757547793
 31
0.0
  0
LINE
  5
25B
330
1F
100
AcDbEntity
  8
画層3
 62
     0
100
AcDbLine
 10
79.44824054245144
 20
181.527757547793
 30
0.0
 11
79.94824054245144
 21
181.527757547793
 31
0.0
  0
LINE
  5
25C
330
1F
100
AcDbEntity
  8
画層3
 62
     0
100
AcDbLine
 10
79.94824054245144
 20
181.527757547793
 30
0.0
 11
79.94824054245144
 21
180.027757547793
 31
0.0
  0
LINE
  5
25D
330
1F
100
AcDbEntity
  8
画層3
 62
     0
100
AcDbLine
 10
79.44824054245144
 20
181.527757547793
 30
0.0
 11
78.94824054245145
 21
181.527757547793
 31
0.0
  0
LINE
  5
25E
330
1F
100
AcDbEntity
  8
画層3
 62
     0
100
AcDbLine
 10
78.94824054245145
 20
181.527757547793
 30
0.0
 11
78.94824054245145
 21
180.027757547793
 31
0.0
  0
LINE
  5
266
330
1F
100
AcDbEntity
  8
画層3
 62
     0
100
AcDbLine
 10
79.44824054245144
 20
177.527757547793
 30
0.0
 11
79.94824054245144
 21
177.527757547793
 31
0.0
  0
LINE
  5
267
330
1F
100
AcDbEntity
  8
画層3
 62
     0
100
AcDbLine
 10
79.94824054245144
 20
177.527757547793
 30
0.0
 11
79.94824054245144
 21
179.027757547793
 31
0.0
  0
LINE
  5
268
330
1F
100
AcDbEntity
  8
画層3
 62
     0
100
AcDbLine
 10
79.44824054245144
 20
177.527757547793
 30
0.0
 11
78.94824054245145
 21
177.527757547793
 31
0.0
  0
LINE
  5
269
330
1F
100
AcDbEntity
  8
画層3
 62
     0
100
AcDbLine
 10
78.94824054245145
 20
177.527757547793
 30
0.0
 11
78.94824054245145
 21
179.027757547793
 31
0.0
  0
LINE
  5
26B
330
1F
100
AcDbEntity
  8
画層3
 62
     0
100
AcDbLine
 10
104.4482405424514
 20
181.527757547793
 30
0.0
 11
103.9482405424513
 21
181.527757547793
 31
0.0
  0
LINE
  5
26C
330
1F
100
AcDbEntity
  8
画層3
 62
     0
100
AcDbLine
 10
103.9482405424513
 20
181.527757547793
 30
0.0
 11
103.9482405424513
 21
180.027757547793
 31
0.0
  0
LINE
  5
26D
330
1F
100
AcDbEntity
  8
画層3
 62
     0
100
AcDbLine
 10
104.4482405424514
 20
181.527757547793
 30
0.0
 11
104.9482405424513
 21
181.527757547793
 31
0.0
  0
LINE
  5
26E
330
1F
100
AcDbEntity
  8
画層3
 62
     0
100
AcDbLine
 10
104.9482405424513
 20
181.527757547793
 30
0.0
 11
104.9482405424513
 21
180.027757547793
 31
0.0
  0
LINE
  5
270
330
1F
100
AcDbEntity
  8
画層3
 62
     0
100
AcDbLine
 10
104.4482405424514
 20
177.527757547793
 30
0.0
 11
104.9482405424513
 21
177.527757547793
 31
0.0
  0
LINE
  5
271
330
1F
100
AcDbEntity
  8
画層3
 62
     0
100
AcDbLine
 10
104.9482405424513
 20
177.527757547793
 30
0.0
 11
104.9482405424513
 21
179.027757547793
 31
0.0
  0
LINE
  5
272
330
1F
100
AcDbEntity
  8
画層3
 62
     0
100
AcDbLine
 10
104.4482405424514
 20
177.527757547793
 30
0.0
 11
103.9482405424513
 21
177.527757547793
 31
0.0
  0
LINE
  5
273
330
1F
100
AcDbEntity
  8
画層3
 62
     0
100
AcDbLine
 10
103.9482405424513
 20
177.527757547793
 30
0.0
 11
103.9482405424513
 21
179.027757547793
 31
0.0
  0
LINE
  5
274
330
1F
100
AcDbEntity
  8
画層3
 62
     0
100
AcDbLine
 10
104.9482405424513
 20
180.027757547793
 30
0.0
 11
107.9123421575892
 21
180.027757547793
 31
0.0
  0
LINE
  5
275
330
1F
100
AcDbEntity
  8
画層3
 62
     0
100
AcDbLine
 10
104.9482405424513
 20
179.027757547793
 30
0.0
 11
107.9123421575892
 21
179.027757547793
 31
0.0
  0
LINE
  5
276
330
1F
100
AcDbEntity
  8
画層3
 62
     0
100
AcDbLine
 10
79.94824054245144
 20
179.027757547793
 30
0.0
 11
82.91234215758921
 21
179.027757547793
 31
0.0
  0
LINE
  5
277
330
1F
100
AcDbEntity
  8
画層3
 62
     0
100
AcDbLine
 10
79.94824054245144
 20
180.027757547793
 30
0.0
 11
82.91234215758921
 21
180.027757547793
 31
0.0
  0
LINE
  5
278
330
1F
100
AcDbEntity
  8
画層3
 62
     0
100
AcDbLine
 10
75.98413892731369
 20
227.027757547793
 30
0.0
 11
78.94824054245145
 21
227.027757547793
 31
0.0
  0
LINE
  5
279
330
1F
100
AcDbEntity
  8
画層3
 62
     0
100
AcDbLine
 10
75.98413892731369
 20
226.027757547793
 30
0.0
 11
78.94824054245145
 21
226.027757547793
 31
0.0
  0
LINE
  5
27A
330
1F
100
AcDbEntity
  8
画層3
 62
     0
100
AcDbLine
 10
78.94824054245145
 20
224.527757547793
 30
0.0
 11
78.94824054245145
 21
226.027757547793
 31
0.0
  0
LINE
  5
27B
330
1F
100
AcDbEntity
  8
画層3
 62
     0
100
AcDbLine
 10
78.94824054245145
 20
228.527757547793
 30
0.0
 11
78.94824054245145
 21
227.027757547793
 31
0.0
  0
LINE
  5
27C
330
1F
100
AcDbEntity
  8
画層3
 62
     0
100
AcDbLine
 10
79.44824054245144
 20
228.527757547793
 30
0.0
 11
78.94824054245145
 21
228.527757547793
 31
0.0
  0
LINE
  5
27D
330
1F
100
AcDbEntity
  8
画層3
 62
     0
100
AcDbLine
 10
79.94824054245144
 20
228.527757547793
 30
0.0
 11
79.94824054245144
 21
227.027757547793
 31
0.0
  0
LINE
  5
27E
330
1F
100
AcDbEntity
  8
画層3
 62
     0
100
AcDbLine
 10
79.44824054245144
 20
228.527757547793
 30
0.0
 11
79.94824054245144
 21
228.527757547793
 31
0.0
  0
LINE
  5
27F
330
1F
100
AcDbEntity
  8
画層3
 62
     0
100
AcDbLine
 10
79.94824054245144
 20
224.527757547793
 30
0.0
 11
79.94824054245144
 21
226.027757547793
 31
0.0
  0
LINE
  5
280
330
1F
100
AcDbEntity
  8
画層3
 62
     0
100
AcDbLine
 10
79.44824054245144
 20
224.527757547793
 30
0.0
 11
79.94824054245144
 21
224.527757547793
 31
0.0
  0
LINE
  5
281
330
1F
100
AcDbEntity
  8
画層3
 62
     0
100
AcDbLine
 10
79.44824054245144
 20
224.527757547793
 30
0.0
 11
78.94824054245145
 21
224.527757547793
 31
0.0
  0
LINE
  5
282
330
1F
100
AcDbEntity
  8
画層3
 62
     0
100
AcDbLine
 10
79.94824054245144
 20
226.027757547793
 30
0.0
 11
82.91234215758921
 21
226.027757547793
 31
0.0
  0
LINE
  5
283
330
1F
100
AcDbEntity
  8
画層3
 62
     0
100
AcDbLine
 10
79.94824054245144
 20
227.027757547793
 30
0.0
 11
82.91234215758921
 21
227.027757547793
 31
0.0
  0
LINE
  5
284
330
1F
100
AcDbEntity
  8
画層3
 62
     0
100
AcDbLine
 10
104.4982405424514
 20
224.527757547793
 30
0.0
 11
104.9982405424513
 21
224.527757547793
 31
0.0
  0
LINE
  5
285
330
1F
100
AcDbEntity
  8
画層3
 62
     0
100
AcDbLine
 10
104.4982405424514
 20
224.527757547793
 30
0.0
 11
103.9982405424513
 21
224.527757547793
 31
0.0
  0
LINE
  5
286
330
1F
100
AcDbEntity
  8
画層3
 62
     0
100
AcDbLine
 10
103.9982405424513
 20
224.527757547793
 30
0.0
 11
103.9982405424513
 21
226.027757547793
 31
0.0
  0
LINE
  5
287
330
1F
100
AcDbEntity
  8
画層3
 62
     0
100
AcDbLine
 10
101.0341389273135
 20
226.027757547793
 30
0.0
 11
103.9982405424513
 21
226.027757547793
 31
0.0
  0
LINE
  5
288
330
1F
100
AcDbEntity
  8
画層3
 62
     0
100
AcDbLine
 10
104.9982405424513
 20
226.027757547793
 30
0.0
 11
107.962342157589
 21
226.027757547793
 31
0.0
  0
LINE
  5
289
330
1F
100
AcDbEntity
  8
画層3
 62
     0
100
AcDbLine
 10
104.9982405424513
 20
224.527757547793
 30
0.0
 11
104.9982405424513
 21
226.027757547793
 31
0.0
  0
LINE
  5
28A
330
1F
100
AcDbEntity
  8
画層3
 62
     0
100
AcDbLine
 10
104.9982405424513
 20
227.027757547793
 30
0.0
 11
107.962342157589
 21
227.027757547793
 31
0.0
  0
LINE
  5
28B
330
1F
100
AcDbEntity
  8
画層3
 62
     0
100
AcDbLine
 10
104.9982405424513
 20
228.527757547793
 30
0.0
 11
104.9982405424513
 21
227.027757547793
 31
0.0
  0
LINE
  5
28C
330
1F
100
AcDbEntity
  8
画層3
 62
     0
100
AcDbLine
 10
104.4982405424514
 20
228.527757547793
 30
0.0
 11
104.9982405424513
 21
228.527757547793
 31
0.0
  0
LINE
  5
28D
330
1F
100
AcDbEntity
  8
画層3
 62
     0
100
AcDbLine
 10
104.4982405424514
 20
228.527757547793
 30
0.0
 11
103.9982405424513
 21
228.527757547793
 31
0.0
  0
LINE
  5
28E
330
1F
100
AcDbEntity
  8
画層3
 62
     0
100
AcDbLine
 10
103.9982405424513
 20
228.527757547793
 30
0.0
 11
103.9982405424513
 21
227.027757547793
 31
0.0
  0
LINE
  5
28F
330
1F
100
AcDbEntity
  8
画層3
 62
     0
100
AcDbLine
 10
101.0341389273135
 20
227.027757547793
 30
0.0
 11
103.9982405424513
 21
227.027757547793
 31
0.0
  0
LINE
  5
299
330
1F
100
AcDbEntity
  8
画層1
 62
     0
100
AcDbLine
 10
141.9482405424514
 20
253.027757547793
 30
0.0
 11
141.9482405424514
 21
278.027757547793
 31
0.0
  0
LINE
  5
29A
330
1F
100
AcDbEntity
  8
画層1
 62
     0
100
AcDbLine
 10
141.9482405424514
 20
278.027757547793
 30
0.0
 11
41.94824054245144
 21
278.027757547793
 31
0.0
  0
LINE
  5
29B
330
1F
100
AcDbEntity
  8
画層1
 62
     0
100
AcDbLine
 10
41.94824054245144
 20
278.027757547793
 30
0.0
 11
41.94824054245144
 21
230.2277575477929
 31
0.0
  0
LINE
  5
29C
330
1F
100
AcDbEntity
  8
画層1
 62
     0
100
AcDbLine
 10
41.94824054245144
 20
153.027757547793
 30
0.0
 11
41.94824054245144
 21
128.027757547793
 31
0.0
  0
LINE
  5
29D
330
1F
100
AcDbEntity
  8
画層1
 62
     0
100
AcDbLine
 10
41.94824054245144
 20
128.027757547793
 30
0.0
 11
141.9482405424514
 21
128.027757547793
 31
0.0
  0
LINE
  5
29E
330
1F
100
AcDbEntity
  8
画層1
 62
     0
100
AcDbLine
 10
141.9482405424514
 20
128.027757547793
 30
0.0
 11
141.9482405424514
 21
175.827757547793
 31
0.0
  0
LINE
  5
29F
330
1F
100
AcDbEntity
  8
画層1
 62
     0
100
AcDbLine
 10
51.94824054245145
 20
253.027757547793
 30
0.0
 11
51.94824054245145
 21
278.027757547793
 31
0.0
  0
LINE
  5
2A0
330
1F
100
AcDbEntity
  8
画層1
 62
     0
100
AcDbLine
 10
54.14824054245148
 20
253.027757547793
 30
0.0
 11
54.14824054245148
 21
278.027757547793
 31
0.0
  0
LINE
  5
2A1
330
1F
100
AcDbEntity
  8
画層1
 62
     0
100
AcDbLine
 10
63.64824054245143
 20
253.027757547793
 30
0.0
 11
63.64824054245143
 21
278.027757547793
 31
0.0
  0
LINE
  5
2A2
330
1F
100
AcDbEntity
  8
画層1
 62
     0
100
AcDbLine
 10
65.24824054245144
 20
253.027757547793
 30
0.0
 11
65.24824054245144
 21
278.027757547793
 31
0.0
  0
LINE
  5
2A3
330
1F
100
AcDbEntity
  8
画層1
 62
     0
100
AcDbLine
 10
118.6482405424514
 20
253.027757547793
 30
0.0
 11
118.6482405424514
 21
278.027757547793
 31
0.0
  0
LINE
  5
2A4
330
1F
100
AcDbEntity
  8
画層1
 62
     0
100
AcDbLine
 10
120.2482405424514
 20
253.027757547793
 30
0.0
 11
120.2482405424514
 21
278.027757547793
 31
0.0
  0
LINE
  5
2A5
330
1F
100
AcDbEntity
  8
画層1
 62
     0
100
AcDbLine
 10
129.7482405424514
 20
253.027757547793
 30
0.0
 11
129.7482405424514
 21
278.027757547793
 31
0.0
  0
LINE
  5
2A6
330
1F
100
AcDbEntity
  8
画層1
 62
     0
100
AcDbLine
 10
131.9482405424514
 20
253.027757547793
 30
0.0
 11
131.9482405424514
 21
278.027757547793
 31
0.0
  0
LINE
  5
2A7
330
1F
100
AcDbEntity
  8
画層1
 62
     0
100
AcDbLine
 10
51.94824054245144
 20
153.027757547793
 30
0.0
 11
51.94824054245144
 21
128.027757547793
 31
0.0
  0
LINE
  5
2A8
330
1F
100
AcDbEntity
  8
画層1
 62
     0
100
AcDbLine
 10
54.14824054245144
 20
153.027757547793
 30
0.0
 11
54.14824054245143
 21
128.027757547793
 31
0.0
  0
LINE
  5
2A9
330
1F
100
AcDbEntity
  8
画層1
 62
     0
100
AcDbLine
 10
63.64824054245143
 20
153.027757547793
 30
0.0
 11
63.64824054245143
 21
128.027757547793
 31
0.0
  0
LINE
  5
2AA
330
1F
100
AcDbEntity
  8
画層1
 62
     0
100
AcDbLine
 10
65.24824054245143
 20
153.027757547793
 30
0.0
 11
65.24824054245143
 21
128.027757547793
 31
0.0
  0
LINE
  5
2AB
330
1F
100
AcDbEntity
  8
画層1
 62
     0
100
AcDbLine
 10
118.6482405424514
 20
153.027757547793
 30
0.0
 11
118.6482405424514
 21
128.027757547793
 31
0.0
  0
LINE
  5
2AC
330
1F
100
AcDbEntity
  8
画層1
 62
     0
100
AcDbLine
 10
120.2482405424514
 20
153.027757547793
 30
0.0
 11
120.2482405424514
 21
128.027757547793
 31
0.0
  0
LINE
  5
2AD
330
1F
100
AcDbEntity
  8
画層1
 62
     0
100
AcDbLine
 10
129.7482405424514
 20
153.027757547793
 30
0.0
 11
129.7482405424514
 21
128.027757547793
 31
0.0
  0
LINE
  5
2AE
330
1F
100
AcDbEntity
  8
画層1
 62
     0
100
AcDbLine
 10
131.9482405424514
 20
153.027757547793
 30
0.0
 11
131.9482405424514
 21
128.027757547793
 31
0.0
  0
LINE
  5
2AF
330
1F
100
AcDbEntity
  8
画層1
 62
     0
100
AcDbLine
 10
141.9482405424514
 20
230.2277575477929
 30
0.0
 11
141.9482405424514
 21
253.027757547793
 31
0.0
  0
LINE
  5
2B0
330
1F
100
AcDbEntity
  8
画層1
 62
     0
100
AcDbLine
 10
141.9482405424514
 20
180.227757547793
 30
0.0
 11
141.9482405424514
 21
225.8277575477929
 31
0.0
  0
LINE
  5
2B1
330
1F
100
AcDbEntity
  8
画層1
 62
     0
100
AcDbLine
 10
41.94824054245144
 20
175.827757547793
 30
0.0
 11
41.94824054245144
 21
153.027757547793
 31
0.0
  0
LINE
  5
2B2
330
1F
100
AcDbEntity
  8
画層1
 62
     0
100
AcDbLine
 10
41.94824054245144
 20
225.8277575477929
 30
0.0
 11
41.94824054245144
 21
180.227757547793
 31
0.0
  0
ENDSEC
  0
SECTION
  2
OBJECTS
  0
DICTIONARY
  5
C
330
0
100
AcDbDictionary
281
     1
  3
ACAD_GROUP
350
D
  3
ACAD_LAYOUT
350
1A
  3
ACAD_MLINESTYLE
350
17
  3
ACAD_PLOTSETTINGS
350
19
  3
ACAD_PLOTSTYLENAME
350
E
  3
AcDbVariableDictionary
350
DC
  0
DICTIONARY
  5
D
102
{ACAD_REACTORS
330
C
102
}
330
C
100
AcDbDictionary
281
     1
  0
DICTIONARY
  5
1A
102
{ACAD_REACTORS
330
C
102
}
330
C
100
AcDbDictionary
281
     1
  3
Layout1
350
1E
  3
Layout2
350
26
  3
Model
350
22
  0
DICTIONARY
  5
17
102
{ACAD_REACTORS
330
C
102
}
330
C
100
AcDbDictionary
281
     1
  3
Standard
350
18
  0
DICTIONARY
  5
19
102
{ACAD_REACTORS
330
C
102
}
330
C
100
AcDbDictionary
281
     1
  0
ACDBDICTIONARYWDFLT
  5
E
102
{ACAD_REACTORS
330
C
102
}
330
C
100
AcDbDictionary
281
     1
  3
Normal
350
F
100
AcDbDictionaryWithDefault
340
F
  0
DICTIONARY
  5
DC
102
{ACAD_REACTORS
330
C
102
}
330
C
100
AcDbDictionary
281
     1
  3
SORTENTS
350
DD
  0
LAYOUT
  5
1E
102
{ACAD_REACTORS
330
1A
102
}
330
1A
100
AcDbPlotSettings
  1

  2

  4

  6

 40
0.0
 41
0.0
 42
0.0
 43
0.0
 44
0.0
 45
0.0
 46
0.0
 47
0.0
 48
0.0
 49
0.0
140
0.0
141
0.0
142
1.0
143
1.0
 70
   688
 72
     0
 73
     0
 74
     5
  7

 75
    16
147
1.0
148
0.0
149
0.0
100
AcDbLayout
  1
Layout1
 70
     1
 71
     1
 10
0.0
 20
0.0
 11
420.0
 21
297.0
 12
0.0
 22
0.0
 32
0.0
 14
1.000000000000000E+20
 24
1.000000000000000E+20
 34
1.000000000000000E+20
 15
-1.000000000000000E+20
 25
-1.000000000000000E+20
 35
-1.000000000000000E+20
146
0.0
 13
0.0
 23
0.0
 33
0.0
 16
1.0
 26
0.0
 36
0.0
 17
0.0
 27
1.0
 37
0.0
 76
     0
330
1B
  0
LAYOUT
  5
26
102
{ACAD_REACTORS
330
1A
102
}
330
1A
100
AcDbPlotSettings
  1

  2

  4

  6

 40
0.0
 41
0.0
 42
0.0
 43
0.0
 44
0.0
 45
0.0
 46
0.0
 47
0.0
 48
0.0
 49
0.0
140
0.0
141
0.0
142
1.0
143
1.0
 70
   688
 72
     0
 73
     0
 74
     5
  7

 75
    16
147
1.0
148
0.0
149
0.0
100
AcDbLayout
  1
Layout2
 70
     1
 71
     2
 10
0.0
 20
0.0
 11
12.0
 21
9.0
 12
0.0
 22
0.0
 32
0.0
 14
0.0
 24
0.0
 34
0.0
 15
0.0
 25
0.0
 35
0.0
146
0.0
 13
0.0
 23
0.0
 33
0.0
 16
1.0
 26
0.0
 36
0.0
 17
0.0
 27
1.0
 37
0.0
 76
     0
330
23
  0
LAYOUT
  5
22
102
{ACAD_REACTORS
330
1A
102
}
330
1A
100
AcDbPlotSettings
  1

  2

  4

  6

 40
0.0
 41
0.0
 42
0.0
 43
0.0
 44
0.0
 45
0.0
 46
0.0
 47
0.0
 48
0.0
 49
0.0
140
0.0
141
0.0
142
1.0
143
1.0
 70
  1712
 72
     0
 73
     0
 74
     0
  7

 75
     0
147
1.0
148
0.0
149
0.0
100
AcDbLayout
  1
Model
 70
     1
 71
     0
 10
0.0
 20
0.0
 11
12.0
 21
9.0
 12
0.0
 22
0.0
 32
0.0
 14
0.0
 24
0.0
 34
0.0
 15
0.0
 25
0.0
 35
0.0
146
0.0
 13
0.0
 23
0.0
 33
0.0
 16
1.0
 26
0.0
 36
0.0
 17
0.0
 27
1.0
 37
0.0
 76
     0
330
1F
  0
MLINESTYLE
  5
18
102
{ACAD_REACTORS
330
17
102
}
330
17
100
AcDbMlineStyle
  2
STANDARD
 70
     0
  3

 62
   256
 51
90.0
 52
90.0
 71
     2
 49
0.5
 62
   256
  6
BYLAYER
 49
-0.5
 62
   256
  6
BYLAYER
  0
ACDBPLACEHOLDER
  5
F
102
{ACAD_REACTORS
330
E
102
}
330
E
  0
DICTIONARYVAR
  5
DD
102
{ACAD_REACTORS
330
DC
102
}
330
DC
100
DictionaryVariables
280
     0
  1
96
  0
ENDSEC
  0
EOF
