  0
SECTION
  2
HEADER
  9
$ACADVER
  1
AC1015
  9
$ACADMAINTVER
 70
     6
  9
$DWGCODEPAGE
  3
ANSI_1252
  9
$INSBASE
 10
0.0
 20
0.0
 30
0.0
  9
$EXTMIN
 10
157.8638336952261
 20
115.611370924175
 30
0.0
  9
$EXTMAX
 10
279.8552679089314
 20
162.9969130924571
 30
0.0
  9
$LIMMIN
 10
0.0
 20
0.0
  9
$LIMMAX
 10
12.0
 20
9.0
  9
$ORTHOMODE
 70
     0
  9
$REGENMODE
 70
     1
  9
$FILLMODE
 70
     1
  9
$QTEXTMODE
 70
     0
  9
$MIRRTEXT
 70
     1
  9
$LTSCALE
 40
1.0
  9
$ATTMODE
 70
     1
  9
$TEXTSIZE
 40
0.2
  9
$TRACEWID
 40
0.05
  9
$TEXTSTYLE
  7
Standard
  9
$CLAYER
  8
0
  9
$CELTYPE
  6
ByLayer
  9
$CECOLOR
 62
   256
  9
$CELTSCALE
 40
1.0
  9
$DISPSILH
 70
     0
  9
$DIMSCALE
 40
1.0
  9
$DIMASZ
 40
0.18
  9
$DIMEXO
 40
0.0625
  9
$DIMDLI
 40
0.38
  9
$DIMRND
 40
0.0
  9
$DIMDLE
 40
0.0
  9
$DIMEXE
 40
0.18
  9
$DIMTP
 40
0.0
  9
$DIMTM
 40
0.0
  9
$DIMTXT
 40
0.18
  9
$DIMCEN
 40
0.09
  9
$DIMTSZ
 40
0.0
  9
$DIMTOL
 70
     0
  9
$DIMLIM
 70
     0
  9
$DIMTIH
 70
     1
  9
$DIMTOH
 70
     1
  9
$DIMSE1
 70
     0
  9
$DIMSE2
 70
     0
  9
$DIMTAD
 70
     0
  9
$DIMZIN
 70
     0
  9
$DIMBLK
  1

  9
$DIMASO
 70
     1
  9
$DIMSHO
 70
     1
  9
$DIMPOST
  1

  9
$DIMAPOST
  1

  9
$DIMALT
 70
     0
  9
$DIMALTD
 70
     2
  9
$DIMALTF
 40
25.4
  9
$DIMLFAC
 40
1.0
  9
$DIMTOFL
 70
     0
  9
$DIMTVP
 40
0.0
  9
$DIMTIX
 70
     0
  9
$DIMSOXD
 70
     0
  9
$DIMSAH
 70
     0
  9
$DIMBLK1
  1

  9
$DIMBLK2
  1

  9
$DIMSTYLE
  2
Standard
  9
$DIMCLRD
 70
     0
  9
$DIMCLRE
 70
     0
  9
$DIMCLRT
 70
     0
  9
$DIMTFAC
 40
1.0
  9
$DIMGAP
 40
0.09
  9
$DIMJUST
 70
     0
  9
$DIMSD1
 70
     0
  9
$DIMSD2
 70
     0
  9
$DIMTOLJ
 70
     1
  9
$DIMTZIN
 70
     0
  9
$DIMALTZ
 70
     0
  9
$DIMALTTZ
 70
     0
  9
$DIMUPT
 70
     0
  9
$DIMDEC
 70
     4
  9
$DIMTDEC
 70
     4
  9
$DIMALTU
 70
     2
  9
$DIMALTTD
 70
     2
  9
$DIMTXSTY
  7
Standard
  9
$DIMAUNIT
 70
     0
  9
$DIMADEC
 70
     0
  9
$DIMALTRND
 40
0.0
  9
$DIMAZIN
 70
     0
  9
$DIMDSEP
 70
    46
  9
$DIMATFIT
 70
     3
  9
$DIMFRAC
 70
     0
  9
$DIMLDRBLK
  1

  9
$DIMLUNIT
 70
     2
  9
$DIMLWD
 70
    -2
  9
$DIMLWE
 70
    -2
  9
$DIMTMOVE
 70
     0
  9
$LUNITS
 70
     2
  9
$LUPREC
 70
     4
  9
$SKETCHINC
 40
0.1
  9
$FILLETRAD
 40
0.5
  9
$AUNITS
 70
     0
  9
$AUPREC
 70
     0
  9
$MENU
  1
.
  9
$ELEVATION
 40
0.0
  9
$PELEVATION
 40
0.0
  9
$THICKNESS
 40
0.0
  9
$LIMCHECK
 70
     0
  9
$CHAMFERA
 40
0.5
  9
$CHAMFERB
 40
0.5
  9
$CHAMFERC
 40
1.0
  9
$CHAMFERD
 40
0.0
  9
$SKPOLY
 70
     0
  9
$TDCREATE
 40
2456541.476238472
  9
$TDUCREATE
 40
2456541.101238472
  9
$TDUPDATE
 40
2456541.476238484
  9
$TDUUPDATE
 40
2456541.101238484
  9
$TDINDWG
 40
0.0000000116
  9
$TDUSRTIMER
 40
0.0000000116
  9
$USRTIMER
 70
     1
  9
$ANGBASE
 50
0.0
  9
$ANGDIR
 70
     0
  9
$PDMODE
 70
     0
  9
$PDSIZE
 40
0.0
  9
$PLINEWID
 40
0.0
  9
$SPLFRAME
 70
     0
  9
$SPLINETYPE
 70
     6
  9
$SPLINESEGS
 70
     8
  9
$HANDSEED
  5
353
  9
$SURFTAB1
 70
     6
  9
$SURFTAB2
 70
     6
  9
$SURFTYPE
 70
     6
  9
$SURFU
 70
     6
  9
$SURFV
 70
     6
  9
$UCSBASE
  2

  9
$UCSNAME
  2

  9
$UCSORG
 10
0.0
 20
0.0
 30
0.0
  9
$UCSXDIR
 10
1.0
 20
0.0
 30
0.0
  9
$UCSYDIR
 10
0.0
 20
1.0
 30
0.0
  9
$UCSORTHOREF
  2

  9
$UCSORTHOVIEW
 70
     0
  9
$UCSORGTOP
 10
0.0
 20
0.0
 30
0.0
  9
$UCSORGBOTTOM
 10
0.0
 20
0.0
 30
0.0
  9
$UCSORGLEFT
 10
0.0
 20
0.0
 30
0.0
  9
$UCSORGRIGHT
 10
0.0
 20
0.0
 30
0.0
  9
$UCSORGFRONT
 10
0.0
 20
0.0
 30
0.0
  9
$UCSORGBACK
 10
0.0
 20
0.0
 30
0.0
  9
$PUCSBASE
  2

  9
$PUCSNAME
  2

  9
$PUCSORG
 10
0.0
 20
0.0
 30
0.0
  9
$PUCSXDIR
 10
1.0
 20
0.0
 30
0.0
  9
$PUCSYDIR
 10
0.0
 20
1.0
 30
0.0
  9
$PUCSORTHOREF
  2

  9
$PUCSORTHOVIEW
 70
     0
  9
$PUCSORGTOP
 10
0.0
 20
0.0
 30
0.0
  9
$PUCSORGBOTTOM
 10
0.0
 20
0.0
 30
0.0
  9
$PUCSORGLEFT
 10
0.0
 20
0.0
 30
0.0
  9
$PUCSORGRIGHT
 10
0.0
 20
0.0
 30
0.0
  9
$PUCSORGFRONT
 10
0.0
 20
0.0
 30
0.0
  9
$PUCSORGBACK
 10
0.0
 20
0.0
 30
0.0
  9
$USERI1
 70
     0
  9
$USERI2
 70
     0
  9
$USERI3
 70
     0
  9
$USERI4
 70
     0
  9
$USERI5
 70
     0
  9
$USERR1
 40
18.0
  9
$USERR2
 40
0.0
  9
$USERR3
 40
0.0
  9
$USERR4
 40
0.0
  9
$USERR5
 40
0.0
  9
$WORLDVIEW
 70
     1
  9
$SHADEDGE
 70
     3
  9
$SHADEDIF
 70
    70
  9
$TILEMODE
 70
     1
  9
$MAXACTVP
 70
    64
  9
$PINSBASE
 10
0.0
 20
0.0
 30
0.0
  9
$PLIMCHECK
 70
     0
  9
$PEXTMIN
 10
1.00000000000000E+20
 20
1.00000000000000E+20
 30
1.00000000000000E+20
  9
$PEXTMAX
 10
-1.00000000000000E+20
 20
-1.00000000000000E+20
 30
-1.00000000000000E+20
  9
$PLIMMIN
 10
0.0
 20
0.0
  9
$PLIMMAX
 10
12.0
 20
9.0
  9
$UNITMODE
 70
     0
  9
$VISRETAIN
 70
     1
  9
$PLINEGEN
 70
     0
  9
$PSLTSCALE
 70
     1
  9
$TREEDEPTH
 70
  3020
  9
$CMLSTYLE
  2
Standard
  9
$CMLJUST
 70
     0
  9
$CMLSCALE
 40
1.0
  9
$PROXYGRAPHICS
 70
     1
  9
$MEASUREMENT
 70
     1
  9
$CELWEIGHT
370
    -1
  9
$ENDCAPS
280
     0
  9
$JOINSTYLE
280
     0
  9
$LWDISPLAY
290
     0
  9
$INSUNITS
 70
     1
  9
$HYPERLINKBASE
  1

  9
$STYLESHEET
  1

  9
$XEDIT
290
     1
  9
$CEPSNTYPE
380
     0
  9
$PSTYLEMODE
290
     1
  9
$FINGERPRINTGUID
  2
{919D820C-4A45-41B4-A589-C6A5DD154D6E}
  9
$VERSIONGUID
  2
{FAEB1C32-E019-11D5-929B-00C0DF256EC4}
  9
$EXTNAMES
290
     1
  9
$PSVPSCALE
 40
0.0
  9
$OLESTARTUP
290
     0
  0
ENDSEC
  0
SECTION
  2
CLASSES
  0
CLASS
  1
ACDBDICTIONARYWDFLT
  2
AcDbDictionaryWithDefault
  3
ObjectDBX Classes
 90
        0
280
     0
281
     0
  0
CLASS
  1
VISUALSTYLE
  2
AcDbVisualStyle
  3
ObjectDBX Classes
 90
     4095
280
     0
281
     0
  0
CLASS
  1
MATERIAL
  2
AcDbMaterial
  3
ObjectDBX Classes
 90
     1153
280
     0
281
     0
  0
CLASS
  1

  2
exOdDbCircle
  3

 90
        0
280
     0
281
     1
  0
CLASS
  1
SCALE
  2
AcDbScale
  3
ObjectDBX Classes
 90
     1153
280
     0
281
     0
  0
CLASS
  1
DICTIONARYVAR
  2
AcDbDictionaryVar
  3
ObjectDBX Classes
 90
        0
280
     0
281
     0
  0
CLASS
  1
ACDBPLACEHOLDER
  2
AcDbPlaceHolder
  3
ObjectDBX Classes
 90
        0
280
     0
281
     0
  0
CLASS
  1
LAYOUT
  2
AcDbLayout
  3
ObjectDBX Classes
 90
        0
280
     0
281
     0
  0
ENDSEC
  0
SECTION
  2
TABLES
  0
TABLE
  2
VPORT
  5
8
330
0
100
AcDbSymbolTable
 70
     1
  0
VPORT
  5
29
330
8
100
AcDbSymbolTableRecord
100
AcDbViewportTableRecord
  2
*Active
 70
     0
 10
0.0
 20
0.0
 11
1.0
 21
1.0
 12
218.8595508020788
 22
139.3041420083161
 13
0.0
 23
0.0
 14
0.5
 24
0.5
 15
0.5
 25
0.5
 16
0.0
 26
0.0
 36
1.0
 17
0.0
 27
0.0
 37
0.0
 40
83.7289398057298
 41
1.60267857142857
 42
50.0
 43
0.0
 44
0.0
 50
0.0
 51
0.0
 71
     0
 72
   100
 73
     1
 74
     3
 75
     0
 76
     0
 77
     0
 78
     0
281
     0
 65
     1
110
0.0
120
0.0
130
0.0
111
1.0
121
0.0
131
0.0
112
0.0
122
1.0
132
0.0
 79
     0
146
0.0
  0
ENDTAB
  0
TABLE
  2
LTYPE
  5
5
330
0
100
AcDbSymbolTable
 70
     8
  0
LTYPE
  5
14
330
5
100
AcDbSymbolTableRecord
100
AcDbLinetypeTableRecord
  2
ByBlock
 70
     0
  3

 72
    65
 73
     0
 40
0.0
  0
LTYPE
  5
15
330
5
100
AcDbSymbolTableRecord
100
AcDbLinetypeTableRecord
  2
ByLayer
 70
     0
  3

 72
    65
 73
     0
 40
0.0
  0
LTYPE
  5
16
330
5
100
AcDbSymbolTableRecord
100
AcDbLinetypeTableRecord
  2
Continuous
 70
     0
  3
Solid line
 72
    65
 73
     0
 40
0.0
  0
LTYPE
  5
3F
330
5
100
AcDbSymbolTableRecord
100
AcDbLinetypeTableRecord
  2
DASHED
 70
     0
  3
Dashed
 72
    65
 73
     2
 40
15.0
 49
7.0
 74
     0
 49
-8.0
 74
     0
  0
LTYPE
  5
40
330
5
100
AcDbSymbolTableRecord
100
AcDbLinetypeTableRecord
  2
DOTTED
 70
     0
  3
Dotted
 72
    65
 73
     2
 40
1.0
 49
0.0
 74
     0
 49
-1.0
 74
     0
  0
LTYPE
  5
41
330
5
100
AcDbSymbolTableRecord
100
AcDbLinetypeTableRecord
  2
DOT_CENTER
 70
     0
  3
Dot_Center
 72
    65
 73
     4
 40
14.0
 49
12.0
 74
     0
 49
-1.0
 74
     0
 49
0.0
 74
     0
 49
-1.0
 74
     0
  0
LTYPE
  5
42
330
5
100
AcDbSymbolTableRecord
100
AcDbLinetypeTableRecord
  2
LONG_DASHED
 70
     0
  3
Long_Dashed
 72
    65
 73
     2
 40
15.0
 49
10.0
 74
     0
 49
-5.0
 74
     0
  0
LTYPE
  5
43
330
5
100
AcDbSymbolTableRecord
100
AcDbLinetypeTableRecord
  2
DASH_CENTER
 70
     0
  3
Dash_Center
 72
    65
 73
     4
 40
14.0
 49
11.0
 74
     0
 49
-1.0
 74
     0
 49
1.0
 74
     0
 49
-1.0
 74
     0
  0
LTYPE
  5
44
330
5
100
AcDbSymbolTableRecord
100
AcDbLinetypeTableRecord
  2
PHANTOM
 70
     0
  3
Phantom
 72
    65
 73
     6
 40
13.0
 49
10.0
 74
     0
 49
-1.0
 74
     0
 49
0.0
 74
     0
 49
-1.0
 74
     0
 49
0.0
 74
     0
 49
-1.0
 74
     0
  0
LTYPE
  5
45
330
5
100
AcDbSymbolTableRecord
100
AcDbLinetypeTableRecord
  2
CENTER_DASH_DASH
 70
     0
  3
Center_Dash_Dash
 72
    65
 73
     6
 40
14.0
 49
9.0
 74
     0
 49
-1.0
 74
     0
 49
1.0
 74
     0
 49
-1.0
 74
     0
 49
1.0
 74
     0
 49
-1.0
 74
     0
  0
ENDTAB
  0
TABLE
  2
LAYER
  5
2
330
0
100
AcDbSymbolTable
 70
     3
  0
LAYER
  5
10
330
2
100
AcDbSymbolTableRecord
100
AcDbLayerTableRecord
  2
0
 70
     0
 62
     7
  6
Continuous
370
    -3
390
F
  0
LAYER
  5
46
330
2
100
AcDbSymbolTableRecord
100
AcDbLayerTableRecord
  2
1
 70
     0
 62
     7
  6
Continuous
370
    -3
390
F
  0
LAYER
  5
47
330
2
100
AcDbSymbolTableRecord
100
AcDbLayerTableRecord
  2
FUTOSEN
 70
     0
 62
     7
  6
Continuous
370
    -3
390
F
  0
ENDTAB
  0
TABLE
  2
STYLE
  5
3
330
0
100
AcDbSymbolTable
 70
     2
  0
STYLE
  5
11
330
3
100
AcDbSymbolTableRecord
100
AcDbTextStyleTableRecord
  2
Standard
 70
     0
 40
0.0
 41
1.0
 50
0.0
 71
     0
 42
0.2
  3
txt
  4

  0
STYLE
  5
303
330
3
100
AcDbSymbolTableRecord
100
AcDbTextStyleTableRecord
  2
CONVERTER_11
 70
     0
 40
0.0
 41
0.9
 50
0.0
 71
     0
 42
0.2
  3
txt.shx
  4

  0
ENDTAB
  0
TABLE
  2
VIEW
  5
6
330
0
100
AcDbSymbolTable
 70
     0
  0
ENDTAB
  0
TABLE
  2
UCS
  5
7
330
0
100
AcDbSymbolTable
 70
     0
  0
ENDTAB
  0
TABLE
  2
APPID
  5
9
330
0
100
AcDbSymbolTable
 70
     1
  0
APPID
  5
12
330
9
100
AcDbSymbolTableRecord
100
AcDbRegAppTableRecord
  2
ACAD
 70
     0
  0
ENDTAB
  0
TABLE
  2
DIMSTYLE
  5
A
330
0
100
AcDbSymbolTable
 70
     1
100
AcDbDimStyleTable
  0
DIMSTYLE
105
27
330
A
100
AcDbSymbolTableRecord
100
AcDbDimStyleTableRecord
  2
Standard
 70
     0
340
11
  0
ENDTAB
  0
TABLE
  2
BLOCK_RECORD
  5
1
330
0
100
AcDbSymbolTable
 70
     1
  0
BLOCK_RECORD
  5
1F
330
1
100
AcDbSymbolTableRecord
100
AcDbBlockTableRecord
  2
*Model_Space
340
22
  0
BLOCK_RECORD
  5
1B
330
1
100
AcDbSymbolTableRecord
100
AcDbBlockTableRecord
  2
*Paper_Space
340
1E
  0
BLOCK_RECORD
  5
23
330
1
100
AcDbSymbolTableRecord
100
AcDbBlockTableRecord
  2
*Paper_Space0
340
26
  0
ENDTAB
  0
ENDSEC
  0
SECTION
  2
BLOCKS
  0
BLOCK
  5
20
330
1F
100
AcDbEntity
  8
0
100
AcDbBlockBegin
  2
*Model_Space
 70
     0
 10
0.0
 20
0.0
 30
0.0
  3
*Model_Space
  1

  0
ENDBLK
  5
21
330
1F
100
AcDbEntity
  8
0
100
AcDbBlockEnd
  0
BLOCK
  5
1C
330
1B
100
AcDbEntity
 67
     1
  8
0
100
AcDbBlockBegin
  2
*Paper_Space
 70
     0
 10
0.0
 20
0.0
 30
0.0
  3
*Paper_Space
  1

  0
ENDBLK
  5
1D
330
1B
100
AcDbEntity
 67
     1
  8
0
100
AcDbBlockEnd
  0
BLOCK
  5
24
330
23
100
AcDbEntity
  8
0
100
AcDbBlockBegin
  2
*Paper_Space0
 70
     0
 10
0.0
 20
0.0
 30
0.0
  3
*Paper_Space0
  1

  0
ENDBLK
  5
25
330
23
100
AcDbEntity
  8
0
100
AcDbBlockEnd
  0
ENDSEC
  0
SECTION
  2
ENTITIES
  0
LINE
  5
48
330
1F
100
AcDbEntity
  8
1
  6
Continuous
 62
     7
100
AcDbLine
 10
279.3564727283499
 20
116.608961285338
 30
0.0
 11
255.2073980807743
 21
116.608961285338
 31
0.0
  0
LINE
  5
49
330
1F
100
AcDbEntity
  8
1
  6
Continuous
 62
     7
100
AcDbLine
 10
255.2073980807743
 20
161.9993227312941
 30
0.0
 11
255.2073980807743
 21
116.1101661047565
 31
0.0
  0
LINE
  5
4A
330
1F
100
AcDbEntity
  8
FUTOSEN
  6
Continuous
 62
     7
100
AcDbLine
 10
279.3564727283499
 20
161.9993227312941
 30
0.0
 11
279.3564727283499
 21
161.5955458900559
 31
0.0
  0
LINE
  5
4B
330
1F
100
AcDbEntity
  8
1
  6
Continuous
 62
     7
100
AcDbLine
 10
255.2073980807743
 20
161.9993227312941
 30
0.0
 11
279.3564727283499
 21
161.9993227312941
 31
0.0
  0
LINE
  5
4C
330
1F
100
AcDbEntity
  8
1
  6
Continuous
 62
     7
100
AcDbLine
 10
260.1372594996772
 20
129.9249294514436
 30
0.0
 11
260.1372594996772
 21
130.4355636949318
 31
0.0
  0
LINE
  5
4D
330
1F
100
AcDbEntity
  8
1
  6
Continuous
 62
     7
100
AcDbLine
 10
260.6360546802587
 20
129.9208885051909
 30
0.0
 11
260.6360546802587
 21
130.4355636949318
 31
0.0
  0
LINE
  5
4E
330
1F
100
AcDbEntity
  8
1
  6
Continuous
 62
     7
100
AcDbLine
 10
260.6360546802587
 20
130.9343588755133
 30
0.0
 11
260.6360546802587
 21
131.416038580485
 31
0.0
  0
LINE
  5
4F
330
1F
100
AcDbEntity
  8
1
  6
Continuous
 62
     7
100
AcDbLine
 10
261.1312935124568
 20
130.9343588755133
 30
0.0
 11
260.6360546802587
 21
130.9343588755133
 31
0.0
  0
LINE
  5
50
330
1F
100
AcDbEntity
  8
1
  6
Continuous
 62
     7
100
AcDbLine
 10
260.1372594996772
 20
130.9343588755133
 30
0.0
 11
259.6765528987578
 21
130.9343588755133
 31
0.0
  0
LINE
  5
51
330
1F
100
AcDbEntity
  8
1
  6
Continuous
 62
     7
100
AcDbLine
 10
261.1312935124568
 20
130.4355636949318
 30
0.0
 11
260.6360546802587
 21
130.4355636949318
 31
0.0
  0
LINE
  5
52
330
1F
100
AcDbEntity
  8
1
  6
Continuous
 62
     7
100
AcDbLine
 10
260.1372594996772
 20
130.4355636949318
 30
0.0
 11
259.6765528987578
 21
130.4355636949318
 31
0.0
  0
LINE
  5
53
330
1F
100
AcDbEntity
  8
1
  6
Continuous
 62
     7
100
AcDbLine
 10
260.6360546802587
 20
129.9249294514436
 30
0.0
 11
260.1372594996772
 21
129.9249294514436
 31
0.0
  0
LINE
  5
54
330
1F
100
AcDbEntity
  8
1
  6
Continuous
 62
     7
100
AcDbLine
 10
260.6360546802587
 20
131.416038580485
 30
0.0
 11
260.1372594996772
 21
131.416038580485
 31
0.0
  0
LINE
  5
55
330
1F
100
AcDbEntity
  8
1
  6
Continuous
 62
     7
100
AcDbLine
 10
260.1372594996772
 20
131.416038580485
 30
0.0
 11
260.1372594996772
 21
130.9343588755133
 31
0.0
  0
LINE
  5
56
330
1F
100
AcDbEntity
  8
1
  6
Continuous
 62
     7
100
AcDbLine
 10
261.1312935124568
 20
130.9343588755133
 30
0.0
 11
261.1312935124568
 21
130.4355636949318
 31
0.0
  0
LINE
  5
57
330
1F
100
AcDbEntity
  8
1
  6
Continuous
 62
     7
100
AcDbLine
 10
259.6765528987578
 20
130.9343588755133
 30
0.0
 11
259.6765528987578
 21
130.4355636949318
 31
0.0
  0
LINE
  5
58
330
1F
100
AcDbEntity
  8
1
  6
Continuous
 62
     7
100
AcDbLine
 10
260.1372594996772
 20
148.1727203217002
 30
0.0
 11
260.1372594996772
 21
148.6833545651886
 31
0.0
  0
LINE
  5
59
330
1F
100
AcDbEntity
  8
1
  6
Continuous
 62
     7
100
AcDbLine
 10
260.6360546802587
 20
148.1727203217002
 30
0.0
 11
260.6360546802587
 21
148.6873955105099
 31
0.0
  0
LINE
  5
5A
330
1F
100
AcDbEntity
  8
1
  6
Continuous
 62
     7
100
AcDbLine
 10
260.6360546802587
 20
147.1922454361472
 30
0.0
 11
260.6360546802587
 21
147.6739251411187
 31
0.0
  0
LINE
  5
5B
330
1F
100
AcDbEntity
  8
1
  6
Continuous
 62
     7
100
AcDbLine
 10
260.6360546802587
 20
147.6739251411187
 30
0.0
 11
261.1312935124568
 21
147.6739251411187
 31
0.0
  0
LINE
  5
5C
330
1F
100
AcDbEntity
  8
1
  6
Continuous
 62
     7
100
AcDbLine
 10
259.6765528987578
 20
147.6739251411187
 30
0.0
 11
260.1372594996772
 21
147.6739251411187
 31
0.0
  0
LINE
  5
5D
330
1F
100
AcDbEntity
  8
1
  6
Continuous
 62
     7
100
AcDbLine
 10
260.6360546802587
 20
148.1727203217002
 30
0.0
 11
261.1312935124568
 21
148.1727203217002
 31
0.0
  0
LINE
  5
5E
330
1F
100
AcDbEntity
  8
1
  6
Continuous
 62
     7
100
AcDbLine
 10
259.6765528987578
 20
148.1727203217002
 30
0.0
 11
260.1372594996772
 21
148.1727203217002
 31
0.0
  0
LINE
  5
5F
330
1F
100
AcDbEntity
  8
1
  6
Continuous
 62
     7
100
AcDbLine
 10
260.1372594996772
 20
148.6833545651886
 30
0.0
 11
260.6360546802587
 21
148.6833545651886
 31
0.0
  0
LINE
  5
60
330
1F
100
AcDbEntity
  8
1
  6
Continuous
 62
     7
100
AcDbLine
 10
260.1372594996772
 20
147.1922454361472
 30
0.0
 11
260.6360546802587
 21
147.1922454361472
 31
0.0
  0
LINE
  5
61
330
1F
100
AcDbEntity
  8
1
  6
Continuous
 62
     7
100
AcDbLine
 10
260.1372594996772
 20
147.6739251411187
 30
0.0
 11
260.1372594996772
 21
147.1922454361472
 31
0.0
  0
LINE
  5
62
330
1F
100
AcDbEntity
  8
1
  6
Continuous
 62
     7
100
AcDbLine
 10
261.1312935124568
 20
148.1727203217002
 30
0.0
 11
261.1312935124568
 21
147.6739251411187
 31
0.0
  0
LINE
  5
63
330
1F
100
AcDbEntity
  8
1
  6
Continuous
 62
     7
100
AcDbLine
 10
259.6765528987578
 20
148.1727203217002
 30
0.0
 11
259.6765528987578
 21
147.6739251411187
 31
0.0
  0
LINE
  5
64
330
1F
100
AcDbEntity
  8
FUTOSEN
  6
Continuous
 62
     7
100
AcDbLine
 10
279.8552679089314
 20
117.1544917768466
 30
0.0
 11
279.8552679089314
 21
116.3595636945817
 31
0.0
  0
LINE
  5
65
330
1F
100
AcDbEntity
  8
FUTOSEN
  6
Continuous
 62
     7
100
AcDbLine
 10
279.3564727283499
 20
117.1544917768466
 30
0.0
 11
279.3564727283499
 21
116.1101661047565
 31
0.0
  0
LINE
  5
66
330
1F
100
AcDbEntity
  8
1
  6
Continuous
 62
     7
100
AcDbLine
 10
279.3564727283499
 20
117.1544917768466
 30
0.0
 11
279.8552679089314
 21
117.1544917768466
 31
0.0
  0
LINE
  5
67
330
1F
100
AcDbEntity
  8
FUTOSEN
  6
Continuous
 62
     7
100
AcDbLine
 10
279.8552679089314
 20
161.5955458900559
 30
0.0
 11
279.8552679089314
 21
117.1544917768466
 31
0.0
  0
LINE
  5
68
330
1F
100
AcDbEntity
  8
FUTOSEN
  6
Continuous
 62
     7
100
AcDbLine
 10
279.3564727283499
 20
161.5955458900559
 30
0.0
 11
279.3564727283499
 21
117.1544917768466
 31
0.0
  0
LINE
  5
69
330
1F
100
AcDbEntity
  8
1
  6
Continuous
 62
     7
100
AcDbLine
 10
279.3564727283499
 20
161.5955458900559
 30
0.0
 11
279.8552679089314
 21
161.5955458900559
 31
0.0
  0
LINE
  5
6A
330
1F
100
AcDbEntity
  8
1
  6
Continuous
 62
     7
100
AcDbLine
 10
255.2073980807743
 20
116.1101661047565
 30
0.0
 11
255.2073980807743
 21
115.611370924175
 31
0.0
  0
LINE
  5
6B
330
1F
100
AcDbEntity
  8
1
  6
Continuous
 62
     7
100
AcDbLine
 10
255.2073980807743
 20
162.9969130924571
 30
0.0
 11
255.2073980807743
 21
161.9993227312941
 31
0.0
  0
LINE
  5
6C
330
1F
100
AcDbEntity
  8
FUTOSEN
  6
Continuous
 62
     7
100
AcDbLine
 10
255.2073980807743
 20
116.1101661047565
 30
0.0
 11
279.605870318175
 21
116.1101661047565
 31
0.0
  0
LINE
  5
6D
330
1F
100
AcDbEntity
  8
FUTOSEN
  6
Continuous
 62
     7
100
AcDbLine
 10
251.9227377879849
 20
162.9969130924571
 30
0.0
 11
255.2073980807743
 21
162.9969130924571
 31
0.0
  0
LINE
  5
6E
330
1F
100
AcDbEntity
  8
FUTOSEN
  6
Continuous
 62
     7
100
AcDbLine
 10
251.9227377879849
 20
115.611370924175
 30
0.0
 11
255.2073980807743
 21
115.611370924175
 31
0.0
  0
LINE
  5
6F
330
1F
100
AcDbEntity
  8
FUTOSEN
  6
Continuous
 62
     7
100
AcDbLine
 10
279.8552679089314
 20
162.248720321119
 30
0.0
 11
279.8552679089314
 21
161.5955458900559
 31
0.0
  0
LINE
  5
70
330
1F
100
AcDbEntity
  8
FUTOSEN
  6
Continuous
 62
     7
100
AcDbLine
 10
250.9251474268219
 20
161.9993227312941
 30
0.0
 11
250.9251474268219
 21
116.608961285338
 31
0.0
  0
LINE
  5
71
330
1F
100
AcDbEntity
  8
FUTOSEN
  6
Continuous
 62
     7
100
AcDbLine
 10
279.3564727283499
 20
162.4981179118756
 30
0.0
 11
279.3564727283499
 21
161.9993227312941
 31
0.0
  0
LINE
  5
72
330
1F
100
AcDbEntity
  8
FUTOSEN
  6
Continuous
 62
     7
100
AcDbLine
 10
276.6729546557597
 20
140.1022142975259
 30
0.0
 11
275.2763281497589
 21
140.9002865862701
 31
0.0
  0
LINE
  5
73
330
1F
100
AcDbEntity
  8
FUTOSEN
  6
Continuous
 62
     7
100
AcDbLine
 10
275.2763281497589
 20
140.9002865862701
 30
0.0
 11
273.8797016437582
 21
140.1022142975259
 31
0.0
  0
LINE
  5
74
330
1F
100
AcDbEntity
  8
FUTOSEN
  6
Continuous
 62
     7
100
AcDbLine
 10
273.8797016437582
 20
140.1022142975259
 30
0.0
 11
273.8797016437582
 21
138.5060697191063
 31
0.0
  0
LINE
  5
75
330
1F
100
AcDbEntity
  8
FUTOSEN
  6
Continuous
 62
     7
100
AcDbLine
 10
273.8797016437582
 20
138.5060697191063
 30
0.0
 11
275.2763281497589
 21
137.7079974294308
 31
0.0
  0
LINE
  5
76
330
1F
100
AcDbEntity
  8
FUTOSEN
  6
Continuous
 62
     7
100
AcDbLine
 10
275.2763281497589
 20
137.7079974294308
 30
0.0
 11
276.6729546557597
 21
138.5060697191063
 31
0.0
  0
LINE
  5
77
330
1F
100
AcDbEntity
  8
FUTOSEN
  6
Continuous
 62
     7
100
AcDbLine
 10
276.6729546557597
 20
138.5060697191063
 30
0.0
 11
276.6729546557597
 21
140.1022142975259
 31
0.0
  0
LINE
  5
78
330
1F
100
AcDbEntity
  8
1
  6
Continuous
 62
     7
100
AcDbLine
 10
216.2946908171705
 20
116.1101661047565
 30
0.0
 11
214.3573245914138
 21
116.1101661047565
 31
0.0
  0
LINE
  5
79
330
1F
100
AcDbEntity
  8
FUTOSEN
  6
Continuous
 62
     7
100
AcDbLine
 10
214.2522153747684
 20
162.4981179118756
 30
0.0
 11
214.2522153747684
 21
115.611370924175
 31
0.0
  0
LINE
  5
7A
330
1F
100
AcDbEntity
  8
1
  6
Continuous
 62
     7
100
AcDbLine
 10
216.4525163607157
 20
162.4981179118756
 30
0.0
 11
214.2522153747684
 21
162.4981179118756
 31
0.0
  0
LINE
  5
7B
330
1F
100
AcDbEntity
  8
1
  6
Continuous
 62
     7
100
AcDbLine
 10
215.0022651195011
 20
130.4041868739429
 30
0.0
 11
215.0022651195011
 21
130.9971271373931
 31
0.0
  0
LINE
  5
7C
330
1F
100
AcDbEntity
  8
1
  6
Continuous
 62
     7
100
AcDbLine
 10
215.4850235139436
 20
130.9933341054845
 30
0.0
 11
215.0022651195011
 21
130.9933341054845
 31
0.0
  0
LINE
  5
7D
330
1F
100
AcDbEntity
  8
1
  6
Continuous
 62
     7
100
AcDbLine
 10
215.4905051538206
 20
130.4041868739429
 30
0.0
 11
215.0022651195011
 21
130.4041868739429
 31
0.0
  0
LINE
  5
7E
330
1F
100
AcDbEntity
  8
1
  6
Continuous
 62
     7
100
AcDbLine
 10
214.5034699389196
 20
131.470006503411
 30
0.0
 11
214.5034699389196
 21
131.6825516468513
 31
0.0
  0
LINE
  5
7F
330
1F
100
AcDbEntity
  8
1
  6
Continuous
 62
     7
100
AcDbLine
 10
214.5034699389196
 20
131.470006503411
 30
0.0
 11
214.2522153747684
 21
131.470006503411
 31
0.0
  0
LINE
  5
80
330
1F
100
AcDbEntity
  8
1
  6
Continuous
 62
     7
100
AcDbLine
 10
214.5034699389196
 20
129.8348573551181
 30
0.0
 11
214.5034699389196
 21
131.470006503411
 31
0.0
  0
LINE
  5
81
330
1F
100
AcDbEntity
  8
1
  6
Continuous
 62
     7
100
AcDbLine
 10
214.2522153747684
 20
129.8348573551181
 30
0.0
 11
214.2522153747684
 21
131.470006503411
 31
0.0
  0
LINE
  5
82
330
1F
100
AcDbEntity
  8
1
  6
Continuous
 62
     7
100
AcDbLine
 10
214.5034699389196
 20
129.8348573551181
 30
0.0
 11
214.2522153747684
 21
129.8348573551181
 31
0.0
  0
LINE
  5
83
330
1F
100
AcDbEntity
  8
1
  6
Continuous
 62
     7
100
AcDbLine
 10
214.5034699389196
 20
129.687370923594
 30
0.0
 11
214.5034699389196
 21
129.8348573551181
 31
0.0
  0
LINE
  5
84
330
1F
100
AcDbEntity
  8
1
  6
Continuous
 62
     7
100
AcDbLine
 10
215.1410460467866
 20
131.6825516468513
 30
0.0
 11
214.5034699389196
 21
131.6825516468513
 31
0.0
  0
LINE
  5
85
330
1F
100
AcDbEntity
  8
1
  6
Continuous
 62
     7
100
AcDbLine
 10
215.1410460467866
 20
129.687370923594
 30
0.0
 11
214.5034699389196
 21
129.687370923594
 31
0.0
  0
LINE
  5
86
330
1F
100
AcDbEntity
  8
1
  6
Continuous
 62
     7
100
AcDbLine
 10
214.2522153747684
 20
129.1885757439438
 30
0.0
 11
214.2522153747684
 21
129.8348573551181
 31
0.0
  0
LINE
  5
87
330
1F
100
AcDbEntity
  8
1
  6
Continuous
 62
     7
100
AcDbLine
 10
165.5021656300357
 20
130.9971271373931
 30
0.0
 11
165.5021656300357
 21
130.4041868739429
 31
0.0
  0
LINE
  5
88
330
1F
100
AcDbEntity
  8
1
  6
Continuous
 62
     7
100
AcDbLine
 10
165.5021656300357
 20
130.9933341054845
 30
0.0
 11
165.0194072355932
 21
130.9933341054845
 31
0.0
  0
LINE
  5
89
330
1F
100
AcDbEntity
  8
1
  6
Continuous
 62
     7
100
AcDbLine
 10
165.5021656300357
 20
130.4041868739429
 30
0.0
 11
165.0139255957163
 21
130.4041868739429
 31
0.0
  0
LINE
  5
8A
330
1F
100
AcDbEntity
  8
1
  6
Continuous
 62
     7
100
AcDbLine
 10
166.0009608106172
 20
131.6825516468513
 30
0.0
 11
166.0009608106172
 21
131.470006503411
 31
0.0
  0
LINE
  5
8B
330
1F
100
AcDbEntity
  8
1
  6
Continuous
 62
     7
100
AcDbLine
 10
166.2522153747684
 20
131.470006503411
 30
0.0
 11
166.0009608106172
 21
131.470006503411
 31
0.0
  0
LINE
  5
8C
330
1F
100
AcDbEntity
  8
1
  6
Continuous
 62
     7
100
AcDbLine
 10
166.0009608106172
 20
131.470006503411
 30
0.0
 11
166.0009608106172
 21
129.8348573551181
 31
0.0
  0
LINE
  5
8D
330
1F
100
AcDbEntity
  8
1
  6
Continuous
 62
     7
100
AcDbLine
 10
166.2522153747684
 20
131.470006503411
 30
0.0
 11
166.2522153747684
 21
129.8348573551181
 31
0.0
  0
LINE
  5
8E
330
1F
100
AcDbEntity
  8
1
  6
Continuous
 62
     7
100
AcDbLine
 10
166.2522153747684
 20
129.8348573551181
 30
0.0
 11
166.0009608106172
 21
129.8348573551181
 31
0.0
  0
LINE
  5
8F
330
1F
100
AcDbEntity
  8
1
  6
Continuous
 62
     7
100
AcDbLine
 10
166.0009608106172
 20
129.8348573551181
 30
0.0
 11
166.0009608106172
 21
129.687370923594
 31
0.0
  0
LINE
  5
90
330
1F
100
AcDbEntity
  8
1
  6
Continuous
 62
     7
100
AcDbLine
 10
166.0009608106172
 20
131.6825516468513
 30
0.0
 11
165.3633847036815
 21
131.6825516468513
 31
0.0
  0
LINE
  5
91
330
1F
100
AcDbEntity
  8
1
  6
Continuous
 62
     7
100
AcDbLine
 10
166.0009608106172
 20
129.687370923594
 30
0.0
 11
165.3633847036815
 21
129.687370923594
 31
0.0
  0
LINE
  5
92
330
1F
100
AcDbEntity
  8
1
  6
Continuous
 62
     7
100
AcDbLine
 10
166.2522153747684
 20
129.8348573551181
 30
0.0
 11
166.2522153747684
 21
126.1239781531173
 31
0.0
  0
LINE
  5
93
330
1F
100
AcDbEntity
  8
1
  6
Continuous
 62
     7
100
AcDbLine
 10
221.7341430853537
 20
132.8876408033672
 30
0.0
 11
221.7341430853537
 21
125.3378769478429
 31
0.0
  0
LINE
  5
94
330
1F
100
AcDbEntity
  8
1
  6
Continuous
 62
     7
100
AcDbLine
 10
221.7341430853537
 20
145.720643213265
 30
0.0
 11
221.7341430853537
 21
153.2704070687893
 31
0.0
  0
LINE
  5
95
330
1F
100
AcDbEntity
  8
FUTOSEN
  6
Continuous
 62
     7
100
AcDbLine
 10
216.4525163607157
 20
162.4981179118756
 30
0.0
 11
220.7365527241907
 21
162.4981179118756
 31
0.0
  0
LINE
  5
96
330
1F
100
AcDbEntity
  8
FUTOSEN
  6
Continuous
 62
     7
100
AcDbLine
 10
221.7341430853537
 20
161.5005275507124
 30
0.0
 11
220.7365527241907
 21
162.4981179118756
 31
0.0
  0
LINE
  5
97
330
1F
100
AcDbEntity
  8
FUTOSEN
  6
Continuous
 62
     7
100
AcDbLine
 10
221.7341430853537
 20
161.5005275507124
 30
0.0
 11
221.7341430853537
 21
153.2704070687893
 31
0.0
  0
LINE
  5
98
330
1F
100
AcDbEntity
  8
1
  6
Continuous
 62
     7
100
AcDbLine
 10
215.0022651195011
 20
147.6111568783077
 30
0.0
 11
215.0022651195011
 21
148.2040971426891
 31
0.0
  0
LINE
  5
99
330
1F
100
AcDbEntity
  8
1
  6
Continuous
 62
     7
100
AcDbLine
 10
215.0022651195011
 20
147.6149499111477
 30
0.0
 11
215.4850235139436
 21
147.6149499111477
 31
0.0
  0
LINE
  5
9A
330
1F
100
AcDbEntity
  8
1
  6
Continuous
 62
     7
100
AcDbLine
 10
215.0022651195011
 20
148.2040971426891
 30
0.0
 11
215.4905051538206
 21
148.2040971426891
 31
0.0
  0
LINE
  5
9B
330
1F
100
AcDbEntity
  8
1
  6
Continuous
 62
     7
100
AcDbLine
 10
214.5034699389196
 20
146.9257323697809
 30
0.0
 11
214.5034699389196
 21
147.1382775132212
 31
0.0
  0
LINE
  5
9C
330
1F
100
AcDbEntity
  8
1
  6
Continuous
 62
     7
100
AcDbLine
 10
214.2522153747684
 20
146.2263674114499
 30
0.0
 11
214.2522153747684
 21
147.1382775132212
 31
0.0
  0
LINE
  5
9D
330
1F
100
AcDbEntity
  8
1
  6
Continuous
 62
     7
100
AcDbLine
 10
214.2522153747684
 20
147.1382775132212
 30
0.0
 11
214.5034699389196
 21
147.1382775132212
 31
0.0
  0
LINE
  5
9E
330
1F
100
AcDbEntity
  8
1
  6
Continuous
 62
     7
100
AcDbLine
 10
214.5034699389196
 20
147.1382775132212
 30
0.0
 11
214.5034699389196
 21
148.7734266615141
 31
0.0
  0
LINE
  5
9F
330
1F
100
AcDbEntity
  8
1
  6
Continuous
 62
     7
100
AcDbLine
 10
214.2522153747684
 20
147.1382775132212
 30
0.0
 11
214.2522153747684
 21
148.7734266615141
 31
0.0
  0
LINE
  5
A0
330
1F
100
AcDbEntity
  8
1
  6
Continuous
 62
     7
100
AcDbLine
 10
214.2522153747684
 20
148.7734266615141
 30
0.0
 11
214.5034699389196
 21
148.7734266615141
 31
0.0
  0
LINE
  5
A1
330
1F
100
AcDbEntity
  8
1
  6
Continuous
 62
     7
100
AcDbLine
 10
214.5034699389196
 20
148.7734266615141
 30
0.0
 11
214.5034699389196
 21
148.9209130921068
 31
0.0
  0
LINE
  5
A2
330
1F
100
AcDbEntity
  8
1
  6
Continuous
 62
     7
100
AcDbLine
 10
214.5034699389196
 20
146.9257323697809
 30
0.0
 11
215.1410460467866
 21
146.9257323697809
 31
0.0
  0
LINE
  5
A3
330
1F
100
AcDbEntity
  8
1
  6
Continuous
 62
     7
100
AcDbLine
 10
214.5034699389196
 20
148.9209130921068
 30
0.0
 11
215.1410460467866
 21
148.9209130921068
 31
0.0
  0
LINE
  5
A4
330
1F
100
AcDbEntity
  8
1
  6
Continuous
 62
     7
100
AcDbLine
 10
214.2522153747684
 20
145.720643213265
 30
0.0
 11
214.2522153747684
 21
146.2263674114499
 31
0.0
  0
LINE
  5
A5
330
1F
100
AcDbEntity
  8
FUTOSEN
  6
Continuous
 62
     7
100
AcDbLine
 10
214.2522153747684
 20
146.4269371891992
 30
0.0
 11
214.2522153747684
 21
146.2263674114499
 31
0.0
  0
LINE
  5
A6
330
1F
100
AcDbEntity
  8
1
  6
Continuous
 62
     7
100
AcDbLine
 10
214.2522153747684
 20
148.7734266615141
 30
0.0
 11
214.2522153747684
 21
149.4197082736197
 31
0.0
  0
LINE
  5
A7
330
1F
100
AcDbEntity
  8
1
  6
Continuous
 62
     7
100
AcDbLine
 10
214.2522153747684
 20
146.2263674114499
 30
0.0
 11
214.2522153747684
 21
146.4269371891992
 31
0.0
  0
LINE
  5
A8
330
1F
100
AcDbEntity
  8
1
  6
Continuous
 62
     7
100
AcDbLine
 10
214.2522153747684
 20
129.8230432125408
 30
0.0
 11
214.2522153747684
 21
148.0200042931962
 31
0.0
  0
LINE
  5
A9
330
1F
100
AcDbEntity
  8
1
  6
Continuous
 62
     7
100
AcDbLine
 10
214.2522153747684
 20
129.8230432125408
 30
0.0
 11
214.2522153747684
 21
148.78524080316
 31
0.0
  0
LINE
  5
AA
330
1F
100
AcDbEntity
  8
FUTOSEN
  6
Continuous
 62
     7
100
AcDbLine
 10
221.7341430853537
 20
125.3378769478429
 30
0.0
 11
221.7341430853537
 21
117.1077564659195
 31
0.0
  0
LINE
  5
AB
330
1F
100
AcDbEntity
  8
FUTOSEN
  6
Continuous
 62
     7
100
AcDbLine
 10
220.7365527241907
 20
116.1101661047565
 30
0.0
 11
216.2946908171705
 21
116.1101661047565
 31
0.0
  0
LINE
  5
AC
330
1F
100
AcDbEntity
  8
FUTOSEN
  6
Continuous
 62
     7
100
AcDbLine
 10
221.7341430853537
 20
117.1077564659195
 30
0.0
 11
220.7365527241907
 21
116.1101661047565
 31
0.0
  0
LINE
  5
AD
330
1F
100
AcDbEntity
  8
FUTOSEN
  6
Continuous
 62
     7
100
AcDbLine
 10
220.7365527241907
 20
116.1101661047565
 30
0.0
 11
216.2946908171705
 21
116.1101661047565
 31
0.0
  0
LINE
  5
AE
330
1F
100
AcDbEntity
  8
FUTOSEN
  6
Continuous
 62
     7
100
AcDbLine
 10
214.2522153747684
 20
115.611370924175
 30
0.0
 11
166.2522153747684
 21
115.611370924175
 31
0.0
  0
LINE
  5
AF
330
1F
100
AcDbEntity
  8
FUTOSEN
  6
Continuous
 62
     7
100
AcDbLine
 10
166.2522153747684
 20
116.1101661047565
 30
0.0
 11
166.2522153747684
 21
149.2909650022763
 31
0.0
  0
LINE
  5
B0
330
1F
100
AcDbEntity
  8
1
  6
Continuous
 62
     7
100
AcDbLine
 10
164.2097399323664
 20
116.1101661047565
 30
0.0
 11
166.2522153747684
 21
116.1101661047565
 31
0.0
  0
LINE
  5
B1
330
1F
100
AcDbEntity
  8
1
  6
Continuous
 62
     7
100
AcDbLine
 10
158.7702876641831
 20
125.3378769478429
 30
0.0
 11
158.7702876641831
 21
132.8876408033672
 31
0.0
  0
LINE
  5
B2
330
1F
100
AcDbEntity
  8
FUTOSEN
  6
Continuous
 62
     7
100
AcDbLine
 10
164.2097399323664
 20
116.1101661047565
 30
0.0
 11
159.7678780244148
 21
116.1101661047565
 31
0.0
  0
LINE
  5
B3
330
1F
100
AcDbEntity
  8
1
  6
Continuous
 62
     7
100
AcDbLine
 10
158.7702876641831
 20
150.2058094788941
 30
0.0
 11
158.7702876641831
 21
145.720643213265
 31
0.0
  0
LINE
  5
B4
330
1F
100
AcDbEntity
  8
FUTOSEN
  6
Continuous
 62
     7
100
AcDbLine
 10
166.2522153747684
 20
162.4981179118756
 30
0.0
 11
166.2522153747684
 21
162.9969130924571
 31
0.0
  0
LINE
  5
B5
330
1F
100
AcDbEntity
  8
1
  6
Continuous
 62
     7
100
AcDbLine
 10
164.0519143888212
 20
162.4981179118756
 30
0.0
 11
166.2522153747684
 21
162.4981179118756
 31
0.0
  0
LINE
  5
B6
330
1F
100
AcDbEntity
  8
FUTOSEN
  6
Continuous
 62
     7
100
AcDbLine
 10
166.2522153747684
 20
162.9969130924571
 30
0.0
 11
214.2522153747684
 21
162.9969130924571
 31
0.0
  0
LINE
  5
B7
330
1F
100
AcDbEntity
  8
1
  6
Continuous
 62
     7
100
AcDbLine
 10
165.5021656300357
 20
148.2040971426891
 30
0.0
 11
165.5021656300357
 21
147.6111568783077
 31
0.0
  0
LINE
  5
B8
330
1F
100
AcDbEntity
  8
1
  6
Continuous
 62
     7
100
AcDbLine
 10
165.0194072355932
 20
147.6149499111477
 30
0.0
 11
165.5021656300357
 21
147.6149499111477
 31
0.0
  0
LINE
  5
B9
330
1F
100
AcDbEntity
  8
1
  6
Continuous
 62
     7
100
AcDbLine
 10
165.0139255957163
 20
148.2040971426891
 30
0.0
 11
165.5021656300357
 21
148.2040971426891
 31
0.0
  0
LINE
  5
BA
330
1F
100
AcDbEntity
  8
1
  6
Continuous
 62
     7
100
AcDbLine
 10
166.0009608106172
 20
147.1382775132212
 30
0.0
 11
166.0009608106172
 21
146.9257323697809
 31
0.0
  0
LINE
  5
BB
330
1F
100
AcDbEntity
  8
1
  6
Continuous
 62
     7
100
AcDbLine
 10
166.2522153747684
 20
147.1382775132212
 30
0.0
 11
166.2522153747684
 21
146.2263674114499
 31
0.0
  0
LINE
  5
BC
330
1F
100
AcDbEntity
  8
1
  6
Continuous
 62
     7
100
AcDbLine
 10
166.0009608106172
 20
147.1382775132212
 30
0.0
 11
166.2522153747684
 21
147.1382775132212
 31
0.0
  0
LINE
  5
BD
330
1F
100
AcDbEntity
  8
1
  6
Continuous
 62
     7
100
AcDbLine
 10
166.0009608106172
 20
148.7734266615141
 30
0.0
 11
166.0009608106172
 21
147.1382775132212
 31
0.0
  0
LINE
  5
BE
330
1F
100
AcDbEntity
  8
1
  6
Continuous
 62
     7
100
AcDbLine
 10
166.2522153747684
 20
148.7734266615141
 30
0.0
 11
166.2522153747684
 21
147.1382775132212
 31
0.0
  0
LINE
  5
BF
330
1F
100
AcDbEntity
  8
1
  6
Continuous
 62
     7
100
AcDbLine
 10
166.0009608106172
 20
148.7734266615141
 30
0.0
 11
166.2522153747684
 21
148.7734266615141
 31
0.0
  0
LINE
  5
C0
330
1F
100
AcDbEntity
  8
1
  6
Continuous
 62
     7
100
AcDbLine
 10
166.0009608106172
 20
148.9209130921068
 30
0.0
 11
166.0009608106172
 21
148.7734266615141
 31
0.0
  0
LINE
  5
C1
330
1F
100
AcDbEntity
  8
1
  6
Continuous
 62
     7
100
AcDbLine
 10
165.3633847036815
 20
146.9257323697809
 30
0.0
 11
166.0009608106172
 21
146.9257323697809
 31
0.0
  0
LINE
  5
C2
330
1F
100
AcDbEntity
  8
1
  6
Continuous
 62
     7
100
AcDbLine
 10
165.3633847036815
 20
148.9209130921068
 30
0.0
 11
166.0009608106172
 21
148.9209130921068
 31
0.0
  0
LINE
  5
C3
330
1F
100
AcDbEntity
  8
1
  6
Continuous
 62
     7
100
AcDbLine
 10
166.2522153747684
 20
146.2263674114499
 30
0.0
 11
166.2522153747684
 21
145.720643213265
 31
0.0
  0
LINE
  5
C4
330
1F
100
AcDbEntity
  8
FUTOSEN
  6
Continuous
 62
     7
100
AcDbLine
 10
166.2522153747684
 20
146.2263674114499
 30
0.0
 11
166.2522153747684
 21
146.4269371891992
 31
0.0
  0
LINE
  5
C5
330
1F
100
AcDbEntity
  8
1
  6
Continuous
 62
     7
100
AcDbLine
 10
166.2522153747684
 20
149.4197082736197
 30
0.0
 11
166.2522153747684
 21
148.7734266615141
 31
0.0
  0
LINE
  5
C6
330
1F
100
AcDbEntity
  8
1
  6
Continuous
 62
     7
100
AcDbLine
 10
166.2522153747684
 20
146.4269371891992
 30
0.0
 11
166.2522153747684
 21
146.2263674114499
 31
0.0
  0
LINE
  5
C7
330
1F
100
AcDbEntity
  8
FUTOSEN
  6
Continuous
 62
     7
100
AcDbLine
 10
166.2522153747684
 20
149.4197082736197
 30
0.0
 11
166.2522153747684
 21
162.4981179118756
 31
0.0
  0
LINE
  5
C8
330
1F
100
AcDbEntity
  8
1
  6
Continuous
 62
     7
100
AcDbLine
 10
166.2522153747684
 20
148.0200042931962
 30
0.0
 11
166.2522153747684
 21
129.8230432125408
 31
0.0
  0
LINE
  5
C9
330
1F
100
AcDbEntity
  8
1
  6
Continuous
 62
     7
100
AcDbLine
 10
166.2522153747684
 20
129.8230432125408
 30
0.0
 11
166.2522153747684
 21
125.5134528514597
 31
0.0
  0
LINE
  5
CA
330
1F
100
AcDbEntity
  8
1
  6
Continuous
 62
     7
100
AcDbLine
 10
166.2522153747684
 20
148.78524080316
 30
0.0
 11
166.2522153747684
 21
129.8230432125408
 31
0.0
  0
LINE
  5
CB
330
1F
100
AcDbEntity
  8
FUTOSEN
  6
Continuous
 62
     7
100
AcDbLine
 10
202.7220948930315
 20
146.7860697193669
 30
0.0
 11
202.7220948930315
 21
131.8222142972651
 31
0.0
  0
LINE
  5
CC
330
1F
100
AcDbEntity
  8
FUTOSEN
  6
Continuous
 62
     7
100
AcDbLine
 10
202.7220948930315
 20
131.8222142972651
 30
0.0
 11
177.7823358565054
 21
131.8222142972651
 31
0.0
  0
LINE
  5
CD
330
1F
100
AcDbEntity
  8
FUTOSEN
  6
Continuous
 62
     7
100
AcDbLine
 10
177.7823358565054
 20
131.8222142972651
 30
0.0
 11
177.7823358565054
 21
146.7860697193669
 31
0.0
  0
LINE
  5
CE
330
1F
100
AcDbEntity
  8
FUTOSEN
  6
Continuous
 62
     7
100
AcDbLine
 10
177.7823358565054
 20
146.7860697193669
 30
0.0
 11
202.7220948930315
 21
146.7860697193669
 31
0.0
  0
LINE
  5
CF
330
1F
100
AcDbEntity
  8
FUTOSEN
  6
Continuous
 62
     7
100
AcDbLine
 10
158.7702876641831
 20
117.1077564659195
 30
0.0
 11
158.7702876641831
 21
125.3378769478429
 31
0.0
  0
LINE
  5
D0
330
1F
100
AcDbEntity
  8
FUTOSEN
  6
Continuous
 62
     7
100
AcDbLine
 10
159.7678780244148
 20
162.4981179118756
 30
0.0
 11
164.0519143888212
 21
162.4981179118756
 31
0.0
  0
LINE
  5
D1
330
1F
100
AcDbEntity
  8
FUTOSEN
  6
Continuous
 62
     7
100
AcDbLine
 10
214.2522153747684
 20
162.9969130924571
 30
0.0
 11
214.2522153747684
 21
162.4981179118756
 31
0.0
  0
LINE
  5
D2
330
1F
100
AcDbEntity
  8
FUTOSEN
  6
Continuous
 62
     7
100
AcDbLine
 10
166.2522153747684
 20
115.611370924175
 30
0.0
 11
166.2522153747684
 21
116.1101661047565
 31
0.0
  0
LINE
  5
D3
330
1F
100
AcDbEntity
  8
FUTOSEN
  6
Continuous
 62
     7
100
AcDbLine
 10
162.1122153751037
 20
157.3605275501164
 30
0.0
 11
162.9102876638478
 21
157.3605275501164
 31
0.0
  0
LINE
  5
D4
330
1F
100
AcDbEntity
  8
FUTOSEN
  6
Continuous
 62
     7
100
AcDbLine
 10
162.1122153751037
 20
155.1658287553715
 30
0.0
 11
162.9102876638478
 21
155.1658287553715
 31
0.0
  0
LINE
  5
D5
330
1F
100
AcDbEntity
  8
FUTOSEN
  6
Continuous
 62
     7
100
AcDbLine
 10
162.1122153751037
 20
123.4424552612605
 30
0.0
 11
162.9102876638478
 21
123.4424552612605
 31
0.0
  0
LINE
  5
D6
330
1F
100
AcDbEntity
  8
FUTOSEN
  6
Continuous
 62
     7
100
AcDbLine
 10
162.1122153751037
 20
121.2477564655844
 30
0.0
 11
162.9102876638478
 21
121.2477564655844
 31
0.0
  0
LINE
  5
D7
330
1F
100
AcDbEntity
  8
FUTOSEN
  6
Continuous
 62
     7
100
AcDbLine
 10
158.7702876641831
 20
150.2058094788941
 30
0.0
 11
158.7702876641831
 21
161.5005275507124
 31
0.0
  0
LINE
  5
D8
330
1F
100
AcDbEntity
  8
FUTOSEN
  6
Continuous
 62
     7
100
AcDbLine
 10
166.2522153747684
 20
123.3426962245854
 30
0.0
 11
166.2522153747684
 21
130.3258287555206
 31
0.0
  0
LINE
  5
D9
330
1F
100
AcDbEntity
  8
FUTOSEN
  6
Continuous
 62
     7
100
AcDbLine
 10
214.2522153747684
 20
123.3426962245854
 30
0.0
 11
214.2522153747684
 21
130.3258287555206
 31
0.0
  0
LINE
  5
DA
330
1F
100
AcDbEntity
  8
FUTOSEN
  6
Continuous
 62
     7
100
AcDbLine
 10
159.7678780244148
 20
162.4981179118756
 30
0.0
 11
158.7702876641831
 21
161.5005275507124
 31
0.0
  0
LINE
  5
DB
330
1F
100
AcDbEntity
  8
FUTOSEN
  6
Continuous
 62
     7
100
AcDbLine
 10
159.7678780244148
 20
116.1101661047565
 30
0.0
 11
158.7702876641831
 21
117.1077564659195
 31
0.0
  0
LINE
  5
DC
330
1F
100
AcDbEntity
  8
FUTOSEN
  6
Continuous
 62
     7
100
AcDbLine
 10
255.2073980807743
 20
162.4981179118756
 30
0.0
 11
279.605870318175
 21
162.4981179118756
 31
0.0
  0
LINE
  5
DD
330
1F
100
AcDbEntity
  8
1
  6
Continuous
 62
     7
100
AcDbLine
 10
275.1833509081459
 20
144.3512474934237
 30
0.0
 11
275.1833509081459
 21
145.4712474935355
 31
0.0
  0
LINE
  5
DE
330
1F
100
AcDbEntity
  8
1
  6
Continuous
 62
     7
100
AcDbLine
 10
275.1833509081459
 20
145.4712474935355
 30
0.0
 11
275.1833509081459
 21
146.5912474936474
 31
0.0
  0
LINE
  5
DF
330
1F
100
AcDbEntity
  8
1
  6
Continuous
 62
     7
100
AcDbLine
 10
275.1833509081459
 20
145.4712474935355
 30
0.0
 11
273.8993044640354
 21
145.4712474935355
 31
0.0
  0
LINE
  5
E0
330
1F
100
AcDbEntity
  8
1
  6
Continuous
 62
     7
100
AcDbLine
 10
275.6390366596586
 20
145.4712474935355
 30
0.0
 11
275.6390366596586
 21
146.1637617314834
 31
0.0
  0
LINE
  5
E1
330
1F
100
AcDbEntity
  8
1
  6
Continuous
 62
     7
100
AcDbLine
 10
276.0947224102399
 20
145.4712474935355
 30
0.0
 11
276.0947224102399
 21
145.781851809718
 31
0.0
  0
LINE
  5
E2
330
1F
100
AcDbEntity
  8
1
  6
Continuous
 62
     7
100
AcDbLine
 10
275.6390366596586
 20
144.7787332555877
 30
0.0
 11
275.6390366596586
 21
145.4712474935355
 31
0.0
  0
LINE
  5
E3
330
1F
100
AcDbEntity
  8
1
  6
Continuous
 62
     7
100
AcDbLine
 10
276.0947224102399
 20
145.1606431773532
 30
0.0
 11
276.0947224102399
 21
145.4712474935355
 31
0.0
  0
LINE
  5
E4
330
1F
100
AcDbEntity
  8
1
  6
Continuous
 62
     7
100
AcDbLine
 10
263.1980171078301
 20
133.3508840000856
 30
0.0
 11
263.1980171078301
 21
136.0353638569492
 31
0.0
  0
LINE
  5
E5
330
1F
100
AcDbEntity
  8
1
  6
Continuous
 62
     7
100
AcDbLine
 10
262.4176116479046
 20
133.3509811258543
 30
0.0
 11
263.3555776779956
 21
133.3509811258543
 31
0.0
  0
LINE
  5
E6
330
1F
100
AcDbEntity
  8
1
  6
Continuous
 62
     7
100
AcDbLine
 10
264.1546280258751
 20
142.1676551664847
 30
0.0
 11
264.1546280258751
 21
136.9345227668661
 31
0.0
  0
LINE
  5
E7
330
1F
100
AcDbEntity
  8
1
  6
Continuous
 62
     7
100
AcDbLine
 10
263.3650751267976
 20
141.1149179677146
 30
0.0
 11
263.3650751267976
 21
137.9567063714044
 31
0.0
  0
LINE
  5
E8
330
1F
100
AcDbEntity
  8
1
  6
Continuous
 62
     7
100
AcDbLine
 10
263.3650751267976
 20
141.2465101184923
 30
0.0
 11
263.3650751267976
 21
137.9567063714044
 31
0.0
  0
LINE
  5
E9
330
1F
100
AcDbEntity
  8
1
  6
Continuous
 62
     7
100
AcDbLine
 10
263.4966672775752
 20
137.8251142224896
 30
0.0
 11
263.6808962864286
 21
137.8251142224896
 31
0.0
  0
LINE
  5
EA
330
1F
100
AcDbEntity
  8
1
  6
Continuous
 62
     7
100
AcDbLine
 10
263.6808962864286
 20
136.9039691726345
 30
0.0
 11
263.6808962864286
 21
136.3776005732494
 31
0.0
  0
LINE
  5
EB
330
1F
100
AcDbEntity
  8
1
  6
Continuous
 62
     7
100
AcDbLine
 10
264.1546280258751
 20
136.9039691726345
 30
0.0
 11
264.1546280258751
 21
136.3776005732494
 31
0.0
  0
LINE
  5
EC
330
1F
100
AcDbEntity
  8
1
  6
Continuous
 62
     7
100
AcDbLine
 10
263.6808962864286
 20
136.3776005732494
 30
0.0
 11
264.1546280258751
 21
136.3776005732494
 31
0.0
  0
LINE
  5
ED
330
1F
100
AcDbEntity
  8
1
  6
Continuous
 62
     7
100
AcDbLine
 10
263.6808962864286
 20
137.8251142224896
 30
0.0
 11
263.6808962864286
 21
136.9039691726345
 31
0.0
  0
LINE
  5
EE
330
1F
100
AcDbEntity
  8
1
  6
Continuous
 62
     7
100
AcDbLine
 10
263.6808962864286
 20
136.9039691726345
 30
0.0
 11
264.1546280258751
 21
136.9039691726345
 31
0.0
  0
LINE
  5
EF
330
1F
100
AcDbEntity
  8
1
  6
Continuous
 62
     7
100
AcDbLine
 10
263.4966672775752
 20
135.4564555233944
 30
0.0
 11
263.6808962864286
 21
135.4564555233944
 31
0.0
  0
LINE
  5
F0
330
1F
100
AcDbEntity
  8
1
  6
Continuous
 62
     7
100
AcDbLine
 10
263.3555776779956
 20
135.3243658582347
 30
0.0
 11
263.3555776779956
 21
133.3504836096096
 31
0.0
  0
LINE
  5
F1
330
1F
100
AcDbEntity
  8
1
  6
Continuous
 62
     7
100
AcDbLine
 10
263.6808962864286
 20
136.3776005732494
 30
0.0
 11
263.6808962864286
 21
135.4564555233944
 31
0.0
  0
LINE
  5
F2
330
1F
100
AcDbEntity
  8
1
  6
Continuous
 62
     7
100
AcDbLine
 10
262.6807959475971
 20
137.6935220717119
 30
0.0
 11
262.6807959475971
 21
135.5880476741718
 31
0.0
  0
LINE
  5
F3
330
1F
100
AcDbEntity
  8
1
  6
Continuous
 62
     7
100
AcDbLine
 10
262.6807959475971
 20
135.5880476741718
 30
0.0
 11
263.1018908271051
 21
135.5880476741718
 31
0.0
  0
LINE
  5
F4
330
1F
100
AcDbEntity
  8
1
  6
Continuous
 62
     7
100
AcDbLine
 10
262.6807959475971
 20
141.2465101184923
 30
0.0
 11
262.6807959475971
 21
137.6935220717119
 31
0.0
  0
LINE
  5
F5
330
1F
100
AcDbEntity
  8
1
  6
Continuous
 62
     7
100
AcDbLine
 10
262.6807959475971
 20
137.6935220717119
 30
0.0
 11
263.1018908271051
 21
137.6935220717119
 31
0.0
  0
LINE
  5
F6
330
1F
100
AcDbEntity
  8
1
  6
Continuous
 62
     7
100
AcDbLine
 10
263.3650751267976
 20
137.4303377729507
 30
0.0
 11
263.3650751267976
 21
135.8512319738645
 31
0.0
  0
LINE
  5
F7
330
1F
100
AcDbEntity
  8
1
  6
Continuous
 62
     7
100
AcDbLine
 10
262.6807959475971
 20
135.5880476741718
 30
0.0
 11
262.6807959475971
 21
134.5353104754018
 31
0.0
  0
LINE
  5
F8
330
1F
100
AcDbEntity
  8
1
  6
Continuous
 62
     7
100
AcDbLine
 10
262.6807959475971
 20
134.5353104754018
 30
0.0
 11
262.6807959475971
 21
133.5220509211201
 31
0.0
  0
LINE
  5
F9
330
1F
100
AcDbEntity
  8
1
  6
Continuous
 62
     7
100
AcDbLine
 10
264.1546280258751
 20
136.3776005732494
 30
0.0
 11
264.1546280258751
 21
135.0616790747869
 31
0.0
  0
LINE
  5
FA
330
1F
100
AcDbEntity
  8
1
  6
Continuous
 62
     7
100
AcDbLine
 10
263.6282594264901
 20
134.5353104754018
 30
0.0
 11
262.6807959475971
 21
134.5353104754018
 31
0.0
  0
LINE
  5
FB
330
1F
100
AcDbEntity
  8
1
  6
Continuous
 62
     7
100
AcDbLine
 10
263.6808962864286
 20
141.2465101184923
 30
0.0
 11
263.3650751267976
 21
141.2465101184923
 31
0.0
  0
LINE
  5
FC
330
1F
100
AcDbEntity
  8
1
  6
Continuous
 62
     7
100
AcDbLine
 10
263.6808962864286
 20
142.6940237658698
 30
0.0
 11
263.6808962864286
 21
142.1676551664847
 31
0.0
  0
LINE
  5
FD
330
1F
100
AcDbEntity
  8
1
  6
Continuous
 62
     7
100
AcDbLine
 10
264.1546280258751
 20
142.6940237658698
 30
0.0
 11
264.1546280258751
 21
142.1676551664847
 31
0.0
  0
LINE
  5
FE
330
1F
100
AcDbEntity
  8
1
  6
Continuous
 62
     7
100
AcDbLine
 10
264.1546280258751
 20
142.6940237658698
 30
0.0
 11
263.6808962864286
 21
142.6940237658698
 31
0.0
  0
LINE
  5
FF
330
1F
100
AcDbEntity
  8
1
  6
Continuous
 62
     7
100
AcDbLine
 10
263.6808962864286
 20
142.1676551664847
 30
0.0
 11
263.6808962864286
 21
141.2465101184923
 31
0.0
  0
LINE
  5
100
330
1F
100
AcDbEntity
  8
1
  6
Continuous
 62
     7
100
AcDbLine
 10
264.1546280258751
 20
142.1676551664847
 30
0.0
 11
263.6808962864286
 21
142.1676551664847
 31
0.0
  0
LINE
  5
101
330
1F
100
AcDbEntity
  8
1
  6
Continuous
 62
     7
100
AcDbLine
 10
263.6808962864286
 20
143.6151688138622
 30
0.0
 11
263.4966672775752
 21
143.6151688138622
 31
0.0
  0
LINE
  5
102
330
1F
100
AcDbEntity
  8
1
  6
Continuous
 62
     7
100
AcDbLine
 10
263.3650751267976
 20
145.7469616423028
 30
0.0
 11
263.3650751267976
 21
143.7467609646398
 31
0.0
  0
LINE
  5
103
330
1F
100
AcDbEntity
  8
1
  6
Continuous
 62
     7
100
AcDbLine
 10
263.6808962864286
 20
143.6151688138622
 30
0.0
 11
263.6808962864286
 21
142.6940237658698
 31
0.0
  0
LINE
  5
104
330
1F
100
AcDbEntity
  8
1
  6
Continuous
 62
     7
100
AcDbLine
 10
262.6807959475971
 20
143.4835766668098
 30
0.0
 11
262.6807959475971
 21
141.3781022674071
 31
0.0
  0
LINE
  5
105
330
1F
100
AcDbEntity
  8
1
  6
Continuous
 62
     7
100
AcDbLine
 10
263.1018908271051
 20
143.4835766668098
 30
0.0
 11
262.6807959475971
 21
143.4835766668098
 31
0.0
  0
LINE
  5
106
330
1F
100
AcDbEntity
  8
1
  6
Continuous
 62
     7
100
AcDbLine
 10
262.6807959475971
 20
141.3781022674071
 30
0.0
 11
262.6807959475971
 21
141.2465101184923
 31
0.0
  0
LINE
  5
107
330
1F
100
AcDbEntity
  8
1
  6
Continuous
 62
     7
100
AcDbLine
 10
263.1018908271051
 20
141.3781022674071
 30
0.0
 11
262.6807959475971
 21
141.3781022674071
 31
0.0
  0
LINE
  5
108
330
1F
100
AcDbEntity
  8
1
  6
Continuous
 62
     7
100
AcDbLine
 10
263.3650751267976
 20
143.2203923652547
 30
0.0
 11
263.3650751267976
 21
141.6412865670997
 31
0.0
  0
LINE
  5
109
330
1F
100
AcDbEntity
  8
1
  6
Continuous
 62
     7
100
AcDbLine
 10
262.6807959475971
 20
141.2465101184923
 30
0.0
 11
262.6807959475971
 21
136.6407848729419
 31
0.0
  0
LINE
  5
10A
330
1F
100
AcDbEntity
  8
1
  6
Continuous
 62
     7
100
AcDbLine
 10
262.6807959475971
 20
144.5363138655799
 30
0.0
 11
262.6807959475971
 21
143.4835766668098
 31
0.0
  0
LINE
  5
10B
330
1F
100
AcDbEntity
  8
1
  6
Continuous
 62
     7
100
AcDbLine
 10
260.896323591978
 20
145.6720621253032
 30
0.0
 11
261.312237589196
 21
145.4442996981222
 31
0.0
  0
LINE
  5
10C
330
1F
100
AcDbEntity
  8
1
  6
Continuous
 62
     7
100
AcDbLine
 10
260.7595505607731
 20
146.0101459438579
 30
0.0
 11
260.7595505607731
 21
145.9029000925498
 31
0.0
  0
LINE
  5
10D
330
1F
100
AcDbEntity
  8
1
  6
Continuous
 62
     7
100
AcDbLine
 10
261.5754218888885
 20
145.4442996981222
 30
0.0
 11
261.312237589196
 21
145.4442996981222
 31
0.0
  0
LINE
  5
10E
330
1F
100
AcDbEntity
  8
1
  6
Continuous
 62
     7
100
AcDbLine
 10
261.5754218888885
 20
145.7469616423028
 30
0.0
 11
261.5754218888885
 21
145.4442996981222
 31
0.0
  0
LINE
  5
10F
330
1F
100
AcDbEntity
  8
1
  6
Continuous
 62
     7
100
AcDbLine
 10
262.6807959475971
 20
145.5495734189304
 30
0.0
 11
262.6807959475971
 21
144.5363138655799
 31
0.0
  0
LINE
  5
110
330
1F
100
AcDbEntity
  8
1
  6
Continuous
 62
     7
100
AcDbLine
 10
262.4834077214307
 20
145.7469616423028
 30
0.0
 11
261.5754218888885
 21
145.7469616423028
 31
0.0
  0
LINE
  5
111
330
1F
100
AcDbEntity
  8
1
  6
Continuous
 62
     7
100
AcDbLine
 10
262.8387065274126
 20
146.2733302416879
 30
0.0
 11
261.0227348586029
 21
146.2733302416879
 31
0.0
  0
LINE
  5
112
330
1F
100
AcDbEntity
  8
1
  6
Continuous
 62
     7
100
AcDbLine
 10
264.1546280258751
 20
144.0099452643323
 30
0.0
 11
264.1546280258751
 21
142.6940237658698
 31
0.0
  0
LINE
  5
113
330
1F
100
AcDbEntity
  8
1
  6
Continuous
 62
     7
100
AcDbLine
 10
262.6807959475971
 20
144.5363138655799
 30
0.0
 11
263.6282594264901
 21
144.5363138655799
 31
0.0
  0
LINE
  5
114
330
1F
100
AcDbEntity
  8
1
  6
Continuous
 62
     7
100
AcDbLine
 10
263.338756695897
 20
143.1940739362167
 30
0.0
 11
263.4966672775752
 21
141.825515575953
 31
0.0
  0
LINE
  5
115
330
1F
100
AcDbEntity
  8
1
  6
Continuous
 62
     7
100
AcDbLine
 10
263.0755723980672
 20
143.1940739362167
 30
0.0
 11
263.338756695897
 21
141.6676049989316
 31
0.0
  0
LINE
  5
116
330
1F
100
AcDbEntity
  8
1
  6
Continuous
 62
     7
100
AcDbLine
 10
263.0755723980672
 20
143.1940739362167
 30
0.0
 11
263.338756695897
 21
141.6676049989316
 31
0.0
  0
LINE
  5
117
330
1F
100
AcDbEntity
  8
1
  6
Continuous
 62
     7
100
AcDbLine
 10
262.812388096512
 20
143.1940739362167
 30
0.0
 11
263.0755723980672
 21
141.6676049989316
 31
0.0
  0
LINE
  5
118
330
1F
100
AcDbEntity
  8
1
  6
Continuous
 62
     7
100
AcDbLine
 10
263.2071645469821
 20
141.825515575953
 30
0.0
 11
263.2071645469821
 21
137.246108763166
 31
0.0
  0
LINE
  5
119
330
1F
100
AcDbEntity
  8
1
  6
Continuous
 62
     7
100
AcDbLine
 10
263.338756695897
 20
141.6676049989316
 30
0.0
 11
263.4966672775752
 21
141.825515575953
 31
0.0
  0
LINE
  5
11A
330
1F
100
AcDbEntity
  8
1
  6
Continuous
 62
     7
100
AcDbLine
 10
263.4966672775752
 20
143.0361633564012
 30
0.0
 11
263.4966672775752
 21
141.825515575953
 31
0.0
  0
LINE
  5
11B
330
1F
100
AcDbEntity
  8
1
  6
Continuous
 62
     7
100
AcDbLine
 10
263.338756695897
 20
143.1940739362167
 30
0.0
 11
263.4966672775752
 21
143.0361633564012
 31
0.0
  0
LINE
  5
11C
330
1F
100
AcDbEntity
  8
1
  6
Continuous
 62
     7
100
AcDbLine
 10
263.2071645469821
 20
143.0361633564012
 30
0.0
 11
263.2071645469821
 21
146.1154196637351
 31
0.0
  0
LINE
  5
11D
330
1F
100
AcDbEntity
  8
1
  6
Continuous
 62
     7
100
AcDbLine
 10
262.6807959475971
 20
141.6676049989316
 30
0.0
 11
262.6807959475971
 21
141.825515575953
 31
0.0
  0
LINE
  5
11E
330
1F
100
AcDbEntity
  8
1
  6
Continuous
 62
     7
100
AcDbLine
 10
259.601539642126
 20
137.4005325047897
 30
0.0
 11
259.8120870800174
 21
137.8974899037409
 31
0.0
  0
LINE
  5
11F
330
1F
100
AcDbEntity
  8
1
  6
Continuous
 62
     7
100
AcDbLine
 10
258.9698973210013
 20
135.8810372410941
 30
0.0
 11
259.601539642126
 21
135.8810372410941
 31
0.0
  0
LINE
  5
120
330
1F
100
AcDbEntity
  8
1
  6
Continuous
 62
     7
100
AcDbLine
 10
259.601539642126
 20
135.8810372410941
 30
0.0
 11
259.8120870800174
 21
135.3840798402804
 31
0.0
  0
LINE
  5
121
330
1F
100
AcDbEntity
  8
1
  6
Continuous
 62
     7
100
AcDbLine
 10
258.75934988311
 20
135.3840798402804
 30
0.0
 11
258.9698973210013
 21
135.8810372410941
 31
0.0
  0
LINE
  5
122
330
1F
100
AcDbEntity
  8
1
  6
Continuous
 62
     7
100
AcDbLine
 10
259.8120870800174
 20
135.3840798402804
 30
0.0
 11
259.8120870800174
 21
135.1208955424506
 31
0.0
  0
LINE
  5
123
330
1F
100
AcDbEntity
  8
1
  6
Continuous
 62
     7
100
AcDbLine
 10
259.601539642126
 20
135.1208955424506
 30
0.0
 11
259.8120870800174
 21
135.3840798402804
 31
0.0
  0
LINE
  5
124
330
1F
100
AcDbEntity
  8
1
  6
Continuous
 62
     7
100
AcDbLine
 10
258.9698973210013
 20
135.1208955424506
 30
0.0
 11
259.601539642126
 21
135.1208955424506
 31
0.0
  0
LINE
  5
125
330
1F
100
AcDbEntity
  8
1
  6
Continuous
 62
     7
100
AcDbLine
 10
258.9698973210013
 20
135.1208955424506
 30
0.0
 11
258.75934988311
 21
135.3840798402804
 31
0.0
  0
LINE
  5
126
330
1F
100
AcDbEntity
  8
1
  6
Continuous
 62
     7
100
AcDbLine
 10
259.8120870800174
 20
137.8974899037409
 30
0.0
 11
259.8120870800174
 21
136.843814105973
 31
0.0
  0
LINE
  5
127
330
1F
100
AcDbEntity
  8
1
  6
Continuous
 62
     7
100
AcDbLine
 10
259.8120870800174
 20
137.8974899037409
 30
0.0
 11
259.601539642126
 21
138.1606742034334
 31
0.0
  0
LINE
  5
128
330
1F
100
AcDbEntity
  8
1
  6
Continuous
 62
     7
100
AcDbLine
 10
258.9698973210013
 20
137.4005325047897
 30
0.0
 11
258.75934988311
 21
137.8974899037409
 31
0.0
  0
LINE
  5
129
330
1F
100
AcDbEntity
  8
1
  6
Continuous
 62
     7
100
AcDbLine
 10
258.75934988311
 20
137.8974899037409
 30
0.0
 11
258.75934988311
 21
136.6476198362786
 31
0.0
  0
LINE
  5
12A
330
1F
100
AcDbEntity
  8
1
  6
Continuous
 62
     7
100
AcDbLine
 10
258.9698973210013
 20
138.1606742034334
 30
0.0
 11
259.601539642126
 21
138.1606742034334
 31
0.0
  0
LINE
  5
12B
330
1F
100
AcDbEntity
  8
1
  6
Continuous
 62
     7
100
AcDbLine
 10
258.75934988311
 20
137.8974899037409
 30
0.0
 11
258.9698973210013
 21
138.1606742034334
 31
0.0
  0
LINE
  5
12C
330
1F
100
AcDbEntity
  8
1
  6
Continuous
 62
     7
100
AcDbLine
 10
258.75934988311
 20
136.6476198362786
 30
0.0
 11
258.75934988311
 21
135.3840798402804
 31
0.0
  0
LINE
  5
12D
330
1F
100
AcDbEntity
  8
1
  6
Continuous
 62
     7
100
AcDbLine
 10
260.3910925384096
 20
134.9300869258719
 30
0.0
 11
260.3910925384096
 21
135.1208955424506
 31
0.0
  0
LINE
  5
12E
330
1F
100
AcDbEntity
  8
1
  6
Continuous
 62
     7
100
AcDbLine
 10
260.1279082396484
 20
134.9300869258719
 30
0.0
 11
260.3910925384096
 21
134.9300869258719
 31
0.0
  0
LINE
  5
12F
330
1F
100
AcDbEntity
  8
1
  6
Continuous
 62
     7
100
AcDbLine
 10
260.1279082396484
 20
135.1208955424506
 30
0.0
 11
260.1279082396484
 21
134.9300869258719
 31
0.0
  0
LINE
  5
130
330
1F
100
AcDbEntity
  8
1
  6
Continuous
 62
     7
100
AcDbLine
 10
258.9698973210013
 20
137.4005325047897
 30
0.0
 11
259.601539642126
 21
137.4005325047897
 31
0.0
  0
LINE
  5
131
330
1F
100
AcDbEntity
  8
1
  6
Continuous
 62
     7
100
AcDbLine
 10
260.1279082396484
 20
138.3514828209433
 30
0.0
 11
260.3910925384096
 21
138.3514828209433
 31
0.0
  0
LINE
  5
132
330
1F
100
AcDbEntity
  8
1
  6
Continuous
 62
     7
100
AcDbLine
 10
260.1279082396484
 20
138.1606742034334
 30
0.0
 11
260.1279082396484
 21
138.3514828209433
 31
0.0
  0
LINE
  5
133
330
1F
100
AcDbEntity
  8
1
  6
Continuous
 62
     7
100
AcDbLine
 10
259.8120870800174
 20
136.843814105973
 30
0.0
 11
259.8120870800174
 21
136.424997849636
 31
0.0
  0
LINE
  5
134
330
1F
100
AcDbEntity
  8
1
  6
Continuous
 62
     7
100
AcDbLine
 10
260.3910925384096
 20
136.6407848729419
 30
0.0
 11
260.3910925384096
 21
138.1606742034334
 31
0.0
  0
LINE
  5
135
330
1F
100
AcDbEntity
  8
1
  6
Continuous
 62
     7
100
AcDbLine
 10
260.3910925384096
 20
136.6407848729419
 30
0.0
 11
260.3910925384096
 21
138.1606742034334
 31
0.0
  0
LINE
  5
136
330
1F
100
AcDbEntity
  8
1
  6
Continuous
 62
     7
100
AcDbLine
 10
260.3910925384096
 20
136.6407848729419
 30
0.0
 11
260.3910925384096
 21
138.1606742034334
 31
0.0
  0
LINE
  5
137
330
1F
100
AcDbEntity
  8
1
  6
Continuous
 62
     7
100
AcDbLine
 10
260.1279082396484
 20
136.6407848729419
 30
0.0
 11
260.1279082396484
 21
135.1208955424506
 31
0.0
  0
LINE
  5
138
330
1F
100
AcDbEntity
  8
1
  6
Continuous
 62
     7
100
AcDbLine
 10
260.1279082396484
 20
136.6407848729419
 30
0.0
 11
260.1279082396484
 21
137.0578757452445
 31
0.0
  0
LINE
  5
139
330
1F
100
AcDbEntity
  8
1
  6
Continuous
 62
     7
100
AcDbLine
 10
259.8120870800174
 20
136.424997849636
 30
0.0
 11
259.8120870800174
 21
135.3840798402804
 31
0.0
  0
LINE
  5
13A
330
1F
100
AcDbEntity
  8
1
  6
Continuous
 62
     7
100
AcDbLine
 10
259.8120870800174
 20
136.424997849636
 30
0.0
 11
260.1279082396484
 21
136.6407848729419
 31
0.0
  0
LINE
  5
13B
330
1F
100
AcDbEntity
  8
1
  6
Continuous
 62
     7
100
AcDbLine
 10
260.1279082396484
 20
137.0578757452445
 30
0.0
 11
260.1279082396484
 21
138.1606742034334
 31
0.0
  0
LINE
  5
13C
330
1F
100
AcDbEntity
  8
1
  6
Continuous
 62
     7
100
AcDbLine
 10
260.1279082396484
 20
137.0578757452445
 30
0.0
 11
260.1279082396484
 21
136.6407848729419
 31
0.0
  0
LINE
  5
13D
330
1F
100
AcDbEntity
  8
1
  6
Continuous
 62
     7
100
AcDbLine
 10
259.8120870800174
 20
136.843814105973
 30
0.0
 11
260.1279082396484
 21
137.0578757452445
 31
0.0
  0
LINE
  5
13E
330
1F
100
AcDbEntity
  8
1
  6
Continuous
 62
     7
100
AcDbLine
 10
259.8120870800174
 20
135.1208955424506
 30
0.0
 11
260.1279082396484
 21
135.1208955424506
 31
0.0
  0
LINE
  5
13F
330
1F
100
AcDbEntity
  8
1
  6
Continuous
 62
     7
100
AcDbLine
 10
259.8120870800174
 20
138.1606742034334
 30
0.0
 11
259.8120870800174
 21
137.8974899037409
 31
0.0
  0
LINE
  5
140
330
1F
100
AcDbEntity
  8
1
  6
Continuous
 62
     7
100
AcDbLine
 10
260.1279082396484
 20
138.1606742034334
 30
0.0
 11
259.8120870800174
 21
138.1606742034334
 31
0.0
  0
LINE
  5
141
330
1F
100
AcDbEntity
  8
1
  6
Continuous
 62
     7
100
AcDbLine
 10
260.1279082396484
 20
135.1208955424506
 30
0.0
 11
260.1279082396484
 21
136.6407848729419
 31
0.0
  0
LINE
  5
142
330
1F
100
AcDbEntity
  8
1
  6
Continuous
 62
     7
100
AcDbLine
 10
260.1279082396484
 20
138.1606742034334
 30
0.0
 11
260.1279082396484
 21
137.0578757452445
 31
0.0
  0
LINE
  5
143
330
1F
100
AcDbEntity
  8
1
  6
Continuous
 62
     7
100
AcDbLine
 10
260.3910925384096
 20
135.1208955424506
 30
0.0
 11
260.3910925384096
 21
136.6407848729419
 31
0.0
  0
LINE
  5
144
330
1F
100
AcDbEntity
  8
1
  6
Continuous
 62
     7
100
AcDbLine
 10
260.3910925384096
 20
135.1208955424506
 30
0.0
 11
260.3910925384096
 21
136.6407848729419
 31
0.0
  0
LINE
  5
145
330
1F
100
AcDbEntity
  8
1
  6
Continuous
 62
     7
100
AcDbLine
 10
260.3910925384096
 20
135.1208955424506
 30
0.0
 11
260.3910925384096
 21
136.6407848729419
 31
0.0
  0
LINE
  5
146
330
1F
100
AcDbEntity
  8
1
  6
Continuous
 62
     7
100
AcDbLine
 10
260.3910925384096
 20
138.1606742034334
 30
0.0
 11
260.3910925384096
 21
138.3514828209433
 31
0.0
  0
LINE
  5
147
330
1F
100
AcDbEntity
  8
1
  6
Continuous
 62
     7
100
AcDbLine
 10
259.601539642126
 20
143.1905870989564
 30
0.0
 11
259.8120870800174
 21
143.6875444988388
 31
0.0
  0
LINE
  5
148
330
1F
100
AcDbEntity
  8
1
  6
Continuous
 62
     7
100
AcDbLine
 10
258.9698973210013
 20
141.671091836192
 30
0.0
 11
259.601539642126
 21
141.671091836192
 31
0.0
  0
LINE
  5
149
330
1F
100
AcDbEntity
  8
1
  6
Continuous
 62
     7
100
AcDbLine
 10
259.601539642126
 20
141.671091836192
 30
0.0
 11
259.8120870800174
 21
141.1741344353783
 31
0.0
  0
LINE
  5
14A
330
1F
100
AcDbEntity
  8
1
  6
Continuous
 62
     7
100
AcDbLine
 10
258.75934988311
 20
141.1741344353783
 30
0.0
 11
258.9698973210013
 21
141.671091836192
 31
0.0
  0
LINE
  5
14B
330
1F
100
AcDbEntity
  8
1
  6
Continuous
 62
     7
100
AcDbLine
 10
259.8120870800174
 20
141.1741344353783
 30
0.0
 11
259.8120870800174
 21
140.9109501356858
 31
0.0
  0
LINE
  5
14C
330
1F
100
AcDbEntity
  8
1
  6
Continuous
 62
     7
100
AcDbLine
 10
259.601539642126
 20
140.9109501356858
 30
0.0
 11
259.8120870800174
 21
141.1741344353783
 31
0.0
  0
LINE
  5
14D
330
1F
100
AcDbEntity
  8
1
  6
Continuous
 62
     7
100
AcDbLine
 10
258.9698973210013
 20
140.9109501356858
 30
0.0
 11
259.601539642126
 21
140.9109501356858
 31
0.0
  0
LINE
  5
14E
330
1F
100
AcDbEntity
  8
1
  6
Continuous
 62
     7
100
AcDbLine
 10
258.9698973210013
 20
140.9109501356858
 30
0.0
 11
258.75934988311
 21
141.1741344353783
 31
0.0
  0
LINE
  5
14F
330
1F
100
AcDbEntity
  8
1
  6
Continuous
 62
     7
100
AcDbLine
 10
259.8120870800174
 20
143.6875444988388
 30
0.0
 11
259.8120870800174
 21
142.6338686982768
 31
0.0
  0
LINE
  5
150
330
1F
100
AcDbEntity
  8
1
  6
Continuous
 62
     7
100
AcDbLine
 10
259.8120870800174
 20
143.6875444988388
 30
0.0
 11
259.601539642126
 21
143.9507287966687
 31
0.0
  0
LINE
  5
151
330
1F
100
AcDbEntity
  8
1
  6
Continuous
 62
     7
100
AcDbLine
 10
258.9698973210013
 20
143.1905870989564
 30
0.0
 11
258.75934988311
 21
143.6875444988388
 31
0.0
  0
LINE
  5
152
330
1F
100
AcDbEntity
  8
1
  6
Continuous
 62
     7
100
AcDbLine
 10
258.75934988311
 20
143.6875444988388
 30
0.0
 11
258.75934988311
 21
142.4376744295138
 31
0.0
  0
LINE
  5
153
330
1F
100
AcDbEntity
  8
1
  6
Continuous
 62
     7
100
AcDbLine
 10
258.9698973210013
 20
143.9507287966687
 30
0.0
 11
259.601539642126
 21
143.9507287966687
 31
0.0
  0
LINE
  5
154
330
1F
100
AcDbEntity
  8
1
  6
Continuous
 62
     7
100
AcDbLine
 10
258.75934988311
 20
143.6875444988388
 30
0.0
 11
258.9698973210013
 21
143.9507287966687
 31
0.0
  0
LINE
  5
155
330
1F
100
AcDbEntity
  8
1
  6
Continuous
 62
     7
100
AcDbLine
 10
258.75934988311
 20
142.4376744295138
 30
0.0
 11
258.75934988311
 21
141.1741344353783
 31
0.0
  0
LINE
  5
156
330
1F
100
AcDbEntity
  8
1
  6
Continuous
 62
     7
100
AcDbLine
 10
260.3910925384096
 20
140.7201415191071
 30
0.0
 11
260.3910925384096
 21
140.9109501356858
 31
0.0
  0
LINE
  5
157
330
1F
100
AcDbEntity
  8
1
  6
Continuous
 62
     7
100
AcDbLine
 10
260.1279082396484
 20
140.7201415191071
 30
0.0
 11
260.3910925384096
 21
140.7201415191071
 31
0.0
  0
LINE
  5
158
330
1F
100
AcDbEntity
  8
1
  6
Continuous
 62
     7
100
AcDbLine
 10
260.1279082396484
 20
140.9109501356858
 30
0.0
 11
260.1279082396484
 21
140.7201415191071
 31
0.0
  0
LINE
  5
159
330
1F
100
AcDbEntity
  8
1
  6
Continuous
 62
     7
100
AcDbLine
 10
258.9698973210013
 20
143.1905870989564
 30
0.0
 11
259.601539642126
 21
143.1905870989564
 31
0.0
  0
LINE
  5
15A
330
1F
100
AcDbEntity
  8
1
  6
Continuous
 62
     7
100
AcDbLine
 10
260.3910925384096
 20
144.1415374151098
 30
0.0
 11
260.3910925384096
 21
144.6679060163576
 31
0.0
  0
LINE
  5
15B
330
1F
100
AcDbEntity
  8
1
  6
Continuous
 62
     7
100
AcDbLine
 10
260.1279082396484
 20
144.1415374151098
 30
0.0
 11
260.3910925384096
 21
144.1415374151098
 31
0.0
  0
LINE
  5
15C
330
1F
100
AcDbEntity
  8
1
  6
Continuous
 62
     7
100
AcDbLine
 10
260.1279082396484
 20
143.9507287966687
 30
0.0
 11
260.1279082396484
 21
144.1415374151098
 31
0.0
  0
LINE
  5
15D
330
1F
100
AcDbEntity
  8
1
  6
Continuous
 62
     7
100
AcDbLine
 10
256.943378213369
 20
140.1937729197222
 30
0.0
 11
260.3910925384096
 21
140.1937729197222
 31
0.0
  0
LINE
  5
15E
330
1F
100
AcDbEntity
  8
1
  6
Continuous
 62
     7
100
AcDbLine
 10
256.943378213369
 20
138.877851419397
 30
0.0
 11
260.3910925384096
 21
138.877851419397
 31
0.0
  0
LINE
  5
15F
330
1F
100
AcDbEntity
  8
1
  6
DASHED
 62
     7
100
AcDbLine
 10
256.943378213369
 20
138.877851419397
 30
0.0
 11
256.943378213369
 21
140.1937729197222
 31
0.0
  0
LINE
  5
160
330
1F
100
AcDbEntity
  8
1
  6
Continuous
 62
     7
100
AcDbLine
 10
256.943378213369
 20
140.1937729197222
 30
0.0
 11
260.3910925384096
 21
140.1937729197222
 31
0.0
  0
LINE
  5
161
330
1F
100
AcDbEntity
  8
1
  6
Continuous
 62
     7
100
AcDbLine
 10
256.943378213369
 20
138.877851419397
 30
0.0
 11
260.3910925384096
 21
138.877851419397
 31
0.0
  0
LINE
  5
162
330
1F
100
AcDbEntity
  8
1
  6
DASHED
 62
     7
100
AcDbLine
 10
256.943378213369
 20
138.877851419397
 30
0.0
 11
256.943378213369
 21
140.1937729197222
 31
0.0
  0
LINE
  5
163
330
1F
100
AcDbEntity
  8
1
  6
Continuous
 62
     7
100
AcDbLine
 10
256.943378213369
 20
134.403718326487
 30
0.0
 11
256.943378213369
 21
134.0089418769481
 31
0.0
  0
LINE
  5
164
330
1F
100
AcDbEntity
  8
1
  6
Continuous
 62
     7
100
AcDbLine
 10
256.943378213369
 20
134.0089418769481
 30
0.0
 11
256.6275570546693
 21
134.0089418769481
 31
0.0
  0
LINE
  5
165
330
1F
100
AcDbEntity
  8
1
  6
Continuous
 62
     7
100
AcDbLine
 10
256.6275570546693
 20
134.0089418769481
 30
0.0
 11
256.6275570546693
 21
134.403718326487
 31
0.0
  0
LINE
  5
166
330
1F
100
AcDbEntity
  8
1
  6
Continuous
 62
     7
100
AcDbLine
 10
256.943378213369
 20
134.403718326487
 30
0.0
 11
256.6275570546693
 21
134.403718326487
 31
0.0
  0
LINE
  5
167
330
1F
100
AcDbEntity
  8
1
  6
Continuous
 62
     7
100
AcDbLine
 10
256.943378213369
 20
144.6679060163576
 30
0.0
 11
260.3910925384096
 21
144.6679060163576
 31
0.0
  0
LINE
  5
168
330
1F
100
AcDbEntity
  8
1
  6
Continuous
 62
     7
100
AcDbLine
 10
256.943378213369
 20
145.0626824658963
 30
0.0
 11
256.943378213369
 21
144.6679060163576
 31
0.0
  0
LINE
  5
169
330
1F
100
AcDbEntity
  8
1
  6
Continuous
 62
     7
100
AcDbLine
 10
256.6275570546693
 20
145.0626824658963
 30
0.0
 11
256.943378213369
 21
145.0626824658963
 31
0.0
  0
LINE
  5
16A
330
1F
100
AcDbEntity
  8
1
  6
Continuous
 62
     7
100
AcDbLine
 10
256.6275570546693
 20
144.6679060163576
 30
0.0
 11
256.6275570546693
 21
145.0626824658963
 31
0.0
  0
LINE
  5
16B
330
1F
100
AcDbEntity
  8
1
  6
Continuous
 62
     7
100
AcDbLine
 10
256.3643727531141
 20
138.877851419397
 30
0.0
 11
256.3643727531141
 21
139.1410357209522
 31
0.0
  0
LINE
  5
16C
330
1F
100
AcDbEntity
  8
1
  6
Continuous
 62
     7
100
AcDbLine
 10
256.3643727531141
 20
140.1937729197222
 30
0.0
 11
256.3643727531141
 21
139.9305886181671
 31
0.0
  0
LINE
  5
16D
330
1F
100
AcDbEntity
  8
1
  6
Continuous
 62
     7
100
AcDbLine
 10
256.3643727531141
 20
138.877851419397
 30
0.0
 11
256.3643727531141
 21
139.1410357209522
 31
0.0
  0
LINE
  5
16E
330
1F
100
AcDbEntity
  8
1
  6
Continuous
 62
     7
100
AcDbLine
 10
256.3643727531141
 20
140.1937729197222
 30
0.0
 11
256.3643727531141
 21
139.9305886181671
 31
0.0
  0
LINE
  5
16F
330
1F
100
AcDbEntity
  8
1
  6
Continuous
 62
     7
100
AcDbLine
 10
256.3643727531141
 20
144.6679060163576
 30
0.0
 11
256.3643727531141
 21
144.9310903141874
 31
0.0
  0
LINE
  5
170
330
1F
100
AcDbEntity
  8
1
  6
Continuous
 62
     7
100
AcDbLine
 10
262.6807959475971
 20
144.8652942387985
 30
0.0
 11
262.6807959475971
 21
145.128478538491
 31
0.0
  0
LINE
  5
171
330
1F
100
AcDbEntity
  8
1
  6
Continuous
 62
     7
100
AcDbLine
 10
262.6807959475971
 20
139.9963846954184
 30
0.0
 11
262.6807959475971
 21
139.7332003938632
 31
0.0
  0
LINE
  5
172
330
1F
100
AcDbEntity
  8
1
  6
Continuous
 62
     7
100
AcDbLine
 10
262.6807959475971
 20
139.075239647426
 30
0.0
 11
262.6807959475971
 21
139.3384239452558
 31
0.0
  0
LINE
  5
173
330
1F
100
AcDbEntity
  8
1
  6
Continuous
 62
     7
100
AcDbLine
 10
262.6807959475971
 20
139.6386986507702
 30
0.0
 11
262.6807959475971
 21
139.7332003938632
 31
0.0
  0
LINE
  5
174
330
1F
100
AcDbEntity
  8
1
  6
Continuous
 62
     7
100
AcDbLine
 10
262.6807959475971
 20
139.9963846954184
 30
0.0
 11
262.6807959475971
 21
139.6386986507702
 31
0.0
  0
LINE
  5
175
330
1F
100
AcDbEntity
  8
1
  6
Continuous
 62
     7
100
AcDbLine
 10
262.6807959475971
 20
139.075239647426
 30
0.0
 11
262.6807959475971
 21
139.3384239452558
 31
0.0
  0
LINE
  5
176
330
1F
100
AcDbEntity
  8
1
  6
Continuous
 62
     7
100
AcDbLine
 10
262.6807959475971
 20
134.2063301003205
 30
0.0
 11
262.6807959475971
 21
133.943145800628
 31
0.0
  0
LINE
  5
177
330
1F
100
AcDbEntity
  8
1
  6
Continuous
 62
     7
100
AcDbLine
 10
256.3643727531141
 20
134.403718326487
 30
0.0
 11
256.3643727531141
 21
134.1405340249318
 31
0.0
  0
LINE
  5
178
330
1F
100
AcDbEntity
  8
1
  6
Continuous
 62
     7
100
AcDbLine
 10
262.6807959475971
 20
139.9963846954184
 30
0.0
 11
262.6807959475971
 21
139.075239647426
 31
0.0
  0
LINE
  5
179
330
1F
100
AcDbEntity
  8
1
  6
Continuous
 62
     7
100
AcDbLine
 10
260.6542768408961
 20
139.075239647426
 30
0.0
 11
262.4176116479046
 21
139.075239647426
 31
0.0
  0
LINE
  5
17A
330
1F
100
AcDbEntity
  8
1
  6
Continuous
 62
     7
100
AcDbLine
 10
260.6542768408961
 20
139.9963846954184
 30
0.0
 11
262.4176116479046
 21
139.9963846954184
 31
0.0
  0
LINE
  5
17B
330
1F
100
AcDbEntity
  8
1
  6
Continuous
 62
     7
100
AcDbLine
 10
260.6542768408961
 20
139.9963846954184
 30
0.0
 11
260.6542768408961
 21
139.075239647426
 31
0.0
  0
LINE
  5
17C
330
1F
100
AcDbEntity
  8
1
  6
Continuous
 62
     7
100
AcDbLine
 10
260.6542768408961
 20
144.8652942387985
 30
0.0
 11
260.6542768408961
 21
142.4308394661771
 31
0.0
  0
LINE
  5
17D
330
1F
100
AcDbEntity
  8
1
  6
Continuous
 62
     7
100
AcDbLine
 10
260.6542768408961
 20
142.4308394661771
 30
0.0
 11
260.6542768408961
 21
139.9963846954184
 31
0.0
  0
LINE
  5
17E
330
1F
100
AcDbEntity
  8
1
  6
Continuous
 62
     7
100
AcDbLine
 10
262.6807959475971
 20
139.3384239452558
 30
0.0
 11
262.6807959475971
 21
139.7332003938632
 31
0.0
  0
LINE
  5
17F
330
1F
100
AcDbEntity
  8
1
  6
Continuous
 62
     7
100
AcDbLine
 10
262.6807959475971
 20
139.9963846954184
 30
0.0
 11
262.6807959475971
 21
141.825515575953
 31
0.0
  0
LINE
  5
180
330
1F
100
AcDbEntity
  8
1
  6
Continuous
 62
     7
100
AcDbLine
 10
259.8120870800174
 20
142.4308394661771
 30
0.0
 11
259.8120870800174
 21
142.2150524447339
 31
0.0
  0
LINE
  5
181
330
1F
100
AcDbEntity
  8
1
  6
Continuous
 62
     7
100
AcDbLine
 10
260.3910925384096
 20
142.4308394661771
 30
0.0
 11
260.3910925384096
 21
143.9507287966687
 31
0.0
  0
LINE
  5
182
330
1F
100
AcDbEntity
  8
1
  6
Continuous
 62
     7
100
AcDbLine
 10
260.3910925384096
 20
142.4308394661771
 30
0.0
 11
260.3910925384096
 21
143.9507287966687
 31
0.0
  0
LINE
  5
183
330
1F
100
AcDbEntity
  8
1
  6
Continuous
 62
     7
100
AcDbLine
 10
260.3910925384096
 20
142.4308394661771
 30
0.0
 11
260.3910925384096
 21
143.9507287966687
 31
0.0
  0
LINE
  5
184
330
1F
100
AcDbEntity
  8
1
  6
Continuous
 62
     7
100
AcDbLine
 10
262.6807959475971
 20
142.4308394661771
 30
0.0
 11
262.6807959475971
 21
143.0361633564012
 31
0.0
  0
LINE
  5
185
330
1F
100
AcDbEntity
  8
1
  6
Continuous
 62
     7
100
AcDbLine
 10
262.6807959475971
 20
145.128478538491
 30
0.0
 11
262.6807959475971
 21
145.4574589135723
 31
0.0
  0
LINE
  5
186
330
1F
100
AcDbEntity
  8
1
  6
Continuous
 62
     7
100
AcDbLine
 10
260.1279082396484
 20
142.4308394661771
 30
0.0
 11
260.1279082396484
 21
140.9109501356858
 31
0.0
  0
LINE
  5
187
330
1F
100
AcDbEntity
  8
1
  6
Continuous
 62
     7
100
AcDbLine
 10
260.1279082396484
 20
142.4308394661771
 30
0.0
 11
260.1279082396484
 21
142.8479303384798
 31
0.0
  0
LINE
  5
188
330
1F
100
AcDbEntity
  8
1
  6
Continuous
 62
     7
100
AcDbLine
 10
259.8120870800174
 20
142.2150524447339
 30
0.0
 11
259.8120870800174
 21
141.1741344353783
 31
0.0
  0
LINE
  5
189
330
1F
100
AcDbEntity
  8
1
  6
Continuous
 62
     7
100
AcDbLine
 10
259.8120870800174
 20
142.2150524447339
 30
0.0
 11
260.1279082396484
 21
142.4308394661771
 31
0.0
  0
LINE
  5
18A
330
1F
100
AcDbEntity
  8
1
  6
Continuous
 62
     7
100
AcDbLine
 10
260.1279082396484
 20
142.8479303384798
 30
0.0
 11
260.1279082396484
 21
143.9507287966687
 31
0.0
  0
LINE
  5
18B
330
1F
100
AcDbEntity
  8
1
  6
Continuous
 62
     7
100
AcDbLine
 10
260.1279082396484
 20
142.8479303384798
 30
0.0
 11
260.1279082396484
 21
142.4308394661771
 31
0.0
  0
LINE
  5
18C
330
1F
100
AcDbEntity
  8
1
  6
Continuous
 62
     7
100
AcDbLine
 10
259.8120870800174
 20
142.6338686982768
 30
0.0
 11
259.8120870800174
 21
142.4308394661771
 31
0.0
  0
LINE
  5
18D
330
1F
100
AcDbEntity
  8
1
  6
Continuous
 62
     7
100
AcDbLine
 10
259.8120870800174
 20
142.6338686982768
 30
0.0
 11
260.1279082396484
 21
142.8479303384798
 31
0.0
  0
LINE
  5
18E
330
1F
100
AcDbEntity
  8
1
  6
Continuous
 62
     7
100
AcDbLine
 10
259.8120870800174
 20
140.9109501356858
 30
0.0
 11
260.1279082396484
 21
140.9109501356858
 31
0.0
  0
LINE
  5
18F
330
1F
100
AcDbEntity
  8
1
  6
Continuous
 62
     7
100
AcDbLine
 10
259.8120870800174
 20
143.9507287966687
 30
0.0
 11
259.8120870800174
 21
143.6875444988388
 31
0.0
  0
LINE
  5
190
330
1F
100
AcDbEntity
  8
1
  6
Continuous
 62
     7
100
AcDbLine
 10
260.1279082396484
 20
143.9507287966687
 30
0.0
 11
259.8120870800174
 21
143.9507287966687
 31
0.0
  0
LINE
  5
191
330
1F
100
AcDbEntity
  8
1
  6
Continuous
 62
     7
100
AcDbLine
 10
260.1279082396484
 20
140.9109501356858
 30
0.0
 11
260.1279082396484
 21
142.4308394661771
 31
0.0
  0
LINE
  5
192
330
1F
100
AcDbEntity
  8
1
  6
Continuous
 62
     7
100
AcDbLine
 10
260.1279082396484
 20
143.9507287966687
 30
0.0
 11
260.1279082396484
 21
142.8479303384798
 31
0.0
  0
LINE
  5
193
330
1F
100
AcDbEntity
  8
1
  6
Continuous
 62
     7
100
AcDbLine
 10
260.3910925384096
 20
140.9109501356858
 30
0.0
 11
260.3910925384096
 21
142.4308394661771
 31
0.0
  0
LINE
  5
194
330
1F
100
AcDbEntity
  8
1
  6
Continuous
 62
     7
100
AcDbLine
 10
260.3910925384096
 20
140.9109501356858
 30
0.0
 11
260.3910925384096
 21
142.4308394661771
 31
0.0
  0
LINE
  5
195
330
1F
100
AcDbEntity
  8
1
  6
Continuous
 62
     7
100
AcDbLine
 10
260.3910925384096
 20
140.9109501356858
 30
0.0
 11
260.3910925384096
 21
142.4308394661771
 31
0.0
  0
LINE
  5
196
330
1F
100
AcDbEntity
  8
1
  6
Continuous
 62
     7
100
AcDbLine
 10
260.3910925384096
 20
140.1937729197222
 30
0.0
 11
260.3910925384096
 21
140.7201415191071
 31
0.0
  0
LINE
  5
197
330
1F
100
AcDbEntity
  8
1
  6
Continuous
 62
     7
100
AcDbLine
 10
260.3910925384096
 20
140.1937729197222
 30
0.0
 11
260.3910925384096
 21
140.917529743411
 31
0.0
  0
LINE
  5
198
330
1F
100
AcDbEntity
  8
1
  6
Continuous
 62
     7
100
AcDbLine
 10
260.6542768408961
 20
139.9963846954184
 30
0.0
 11
260.3910925384096
 21
139.9963846954184
 31
0.0
  0
LINE
  5
199
330
1F
100
AcDbEntity
  8
1
  6
Continuous
 62
     7
100
AcDbLine
 10
260.3910925384096
 20
139.9963846954184
 30
0.0
 11
260.3910925384096
 21
140.1937729197222
 31
0.0
  0
LINE
  5
19A
330
1F
100
AcDbEntity
  8
1
  6
Continuous
 62
     7
100
AcDbLine
 10
260.3910925384096
 20
139.9963846954184
 30
0.0
 11
260.6542768408961
 21
139.9963846954184
 31
0.0
  0
LINE
  5
19B
330
1F
100
AcDbEntity
  8
1
  6
Continuous
 62
     7
100
AcDbLine
 10
260.3910925384096
 20
139.9963846954184
 30
0.0
 11
260.3910925384096
 21
140.1937729197222
 31
0.0
  0
LINE
  5
19C
330
1F
100
AcDbEntity
  8
1
  6
Continuous
 62
     7
100
AcDbLine
 10
260.3910925384096
 20
144.6679060163576
 30
0.0
 11
260.3910925384096
 21
144.8652942387985
 31
0.0
  0
LINE
  5
19D
330
1F
100
AcDbEntity
  8
1
  6
Continuous
 62
     7
100
AcDbLine
 10
260.3910925384096
 20
144.8652942387985
 30
0.0
 11
260.6542768408961
 21
144.8652942387985
 31
0.0
  0
LINE
  5
19E
330
1F
100
AcDbEntity
  8
1
  6
Continuous
 62
     7
100
AcDbLine
 10
260.3910925384096
 20
138.877851419397
 30
0.0
 11
260.3910925384096
 21
139.075239647426
 31
0.0
  0
LINE
  5
19F
330
1F
100
AcDbEntity
  8
1
  6
Continuous
 62
     7
100
AcDbLine
 10
260.3910925384096
 20
139.075239647426
 30
0.0
 11
260.6542768408961
 21
139.075239647426
 31
0.0
  0
LINE
  5
1A0
330
1F
100
AcDbEntity
  8
1
  6
Continuous
 62
     7
100
AcDbLine
 10
260.3910925384096
 20
143.9507287966687
 30
0.0
 11
260.3910925384096
 21
144.1415374151098
 31
0.0
  0
LINE
  5
1A1
330
1F
100
AcDbEntity
  8
1
  6
Continuous
 62
     7
100
AcDbLine
 10
260.3910925384096
 20
138.1540945957083
 30
0.0
 11
260.3910925384096
 21
138.877851419397
 31
0.0
  0
LINE
  5
1A2
330
1F
100
AcDbEntity
  8
1
  6
Continuous
 62
     7
100
AcDbLine
 10
260.6542768408961
 20
144.8652942387985
 30
0.0
 11
262.4176116479046
 21
144.8652942387985
 31
0.0
  0
LINE
  5
1A3
330
1F
100
AcDbEntity
  8
1
  6
Continuous
 62
     7
100
AcDbLine
 10
262.4176116479046
 20
139.9963846954184
 30
0.0
 11
260.6542768408961
 21
139.9963846954184
 31
0.0
  0
LINE
  5
1A4
330
1F
100
AcDbEntity
  8
1
  6
Continuous
 62
     7
100
AcDbLine
 10
260.3910925384096
 20
138.1540945957083
 30
0.0
 11
260.3910925384096
 21
138.877851419397
 31
0.0
  0
LINE
  5
1A5
330
1F
100
AcDbEntity
  8
1
  6
Continuous
 62
     7
100
AcDbLine
 10
260.6542768408961
 20
139.075239647426
 30
0.0
 11
262.4176116479046
 21
139.075239647426
 31
0.0
  0
LINE
  5
1A6
330
1F
100
AcDbEntity
  8
1
  6
Continuous
 62
     7
100
AcDbLine
 10
260.6542768408961
 20
134.2063301003205
 30
0.0
 11
260.3910925384096
 21
134.2063301003205
 31
0.0
  0
LINE
  5
1A7
330
1F
100
AcDbEntity
  8
1
  6
Continuous
 62
     7
100
AcDbLine
 10
260.6542768408961
 20
134.2063301003205
 30
0.0
 11
260.6542768408961
 21
139.075239647426
 31
0.0
  0
LINE
  5
1A8
330
1F
100
AcDbEntity
  8
1
  6
Continuous
 62
     7
100
AcDbLine
 10
260.3910925384096
 20
134.403718326487
 30
0.0
 11
260.3910925384096
 21
135.1274751483131
 31
0.0
  0
LINE
  5
1A9
330
1F
100
AcDbEntity
  8
1
  6
Continuous
 62
     7
100
AcDbLine
 10
256.3643727531141
 20
134.403718326487
 30
0.0
 11
256.3643727531141
 21
138.877851419397
 31
0.0
  0
LINE
  5
1AA
330
1F
100
AcDbEntity
  8
1
  6
Continuous
 62
     7
100
AcDbLine
 10
256.6275570546693
 20
134.403718326487
 30
0.0
 11
260.3910925384096
 21
134.403718326487
 31
0.0
  0
LINE
  5
1AB
330
1F
100
AcDbEntity
  8
1
  6
Continuous
 62
     7
100
AcDbLine
 10
260.3910925384096
 20
138.877851419397
 30
0.0
 11
260.3910925384096
 21
139.075239647426
 31
0.0
  0
LINE
  5
1AC
330
1F
100
AcDbEntity
  8
1
  6
Continuous
 62
     7
100
AcDbLine
 10
256.3643727531141
 20
139.1410357209522
 30
0.0
 11
256.3643727531141
 21
139.9305886181671
 31
0.0
  0
LINE
  5
1AD
330
1F
100
AcDbEntity
  8
1
  6
Continuous
 62
     7
100
AcDbLine
 10
256.6275570546693
 20
138.877851419397
 30
0.0
 11
256.943378213369
 21
138.877851419397
 31
0.0
  0
LINE
  5
1AE
330
1F
100
AcDbEntity
  8
1
  6
Continuous
 62
     7
100
AcDbLine
 10
262.6807959475971
 20
139.3384239452558
 30
0.0
 11
262.6807959475971
 21
139.6386986507702
 31
0.0
  0
LINE
  5
1AF
330
1F
100
AcDbEntity
  8
1
  6
Continuous
 62
     7
100
AcDbLine
 10
260.3910925384096
 20
139.075239647426
 30
0.0
 11
260.6542768408961
 21
139.075239647426
 31
0.0
  0
LINE
  5
1B0
330
1F
100
AcDbEntity
  8
1
  6
Continuous
 62
     7
100
AcDbLine
 10
260.3910925384096
 20
134.2063301003205
 30
0.0
 11
260.3910925384096
 21
134.403718326487
 31
0.0
  0
LINE
  5
1B1
330
1F
100
AcDbEntity
  8
1
  6
Continuous
 62
     7
100
AcDbLine
 10
262.6807959475971
 20
134.2063301003205
 30
0.0
 11
262.6807959475971
 21
139.075239647426
 31
0.0
  0
LINE
  5
1B2
330
1F
100
AcDbEntity
  8
1
  6
Continuous
 62
     7
100
AcDbLine
 10
262.4176116479046
 20
134.2063301003205
 30
0.0
 11
260.6542768408961
 21
134.2063301003205
 31
0.0
  0
LINE
  5
1B3
330
1F
100
AcDbEntity
  8
1
  6
Continuous
 62
     7
100
AcDbLine
 10
256.3643727531141
 20
133.6141654255467
 30
0.0
 11
256.3643727531141
 21
134.1405340249318
 31
0.0
  0
LINE
  5
1B4
330
1F
100
AcDbEntity
  8
1
  6
Continuous
 62
     7
100
AcDbLine
 10
256.6275570546693
 20
140.1937729197222
 30
0.0
 11
256.943378213369
 21
140.1937729197222
 31
0.0
  0
LINE
  5
1B5
330
1F
100
AcDbEntity
  8
1
  6
Continuous
 62
     7
100
AcDbLine
 10
256.6275570546693
 20
144.6679060163576
 30
0.0
 11
256.943378213369
 21
144.6679060163576
 31
0.0
  0
LINE
  5
1B6
330
1F
100
AcDbEntity
  8
1
  6
Continuous
 62
     7
100
AcDbLine
 10
256.3643727531141
 20
139.9305886181671
 30
0.0
 11
256.3643727531141
 21
139.1410357209522
 31
0.0
  0
LINE
  5
1B7
330
1F
100
AcDbEntity
  8
1
  6
Continuous
 62
     7
100
AcDbLine
 10
256.6275570546693
 20
140.1937729197222
 30
0.0
 11
256.943378213369
 21
140.1937729197222
 31
0.0
  0
LINE
  5
1B8
330
1F
100
AcDbEntity
  8
1
  6
Continuous
 62
     7
100
AcDbLine
 10
256.3643727531141
 20
138.877851419397
 30
0.0
 11
256.3643727531141
 21
140.1937729197222
 31
0.0
  0
LINE
  5
1B9
330
1F
100
AcDbEntity
  8
1
  6
Continuous
 62
     7
100
AcDbLine
 10
256.6275570546693
 20
138.877851419397
 30
0.0
 11
256.943378213369
 21
138.877851419397
 31
0.0
  0
LINE
  5
1BA
330
1F
100
AcDbEntity
  8
1
  6
Continuous
 62
     7
100
AcDbLine
 10
256.3643727531141
 20
145.4574589135723
 30
0.0
 11
256.3643727531141
 21
144.9310903141874
 31
0.0
  0
LINE
  5
1BB
330
1F
100
AcDbEntity
  8
1
  6
Continuous
 62
     7
100
AcDbLine
 10
262.4176116479046
 20
145.720643213265
 30
0.0
 11
256.6275570546693
 21
145.720643213265
 31
0.0
  0
LINE
  5
1BC
330
1F
100
AcDbEntity
  8
1
  6
Continuous
 62
     7
100
AcDbLine
 10
262.6807959475971
 20
133.6141654255467
 30
0.0
 11
262.6807959475971
 21
133.943145800628
 31
0.0
  0
LINE
  5
1BD
330
1F
100
AcDbEntity
  8
1
  6
Continuous
 62
     7
100
AcDbLine
 10
256.6275570546693
 20
133.3509811258543
 30
0.0
 11
262.4176116479046
 21
133.3509811258543
 31
0.0
  0
LINE
  5
1BE
330
1F
100
AcDbEntity
  8
1
  6
Continuous
 62
     7
100
AcDbLine
 10
263.0755723980672
 20
143.1940739362167
 30
0.0
 11
263.2071645469821
 21
143.0361633564012
 31
0.0
  0
LINE
  5
1BF
330
1F
100
AcDbEntity
  8
1
  6
Continuous
 62
     7
100
AcDbLine
 10
263.2071645469821
 20
143.0361633564012
 30
0.0
 11
263.338756695897
 21
143.1940739362167
 31
0.0
  0
LINE
  5
1C0
330
1F
100
AcDbEntity
  8
1
  6
Continuous
 62
     7
100
AcDbLine
 10
263.338756695897
 20
143.1940739362167
 30
0.0
 11
263.2071645469821
 21
143.0361633564012
 31
0.0
  0
LINE
  5
1C1
330
1F
100
AcDbEntity
  8
1
  6
Continuous
 62
     7
100
AcDbLine
 10
263.2071645469821
 20
143.0361633564012
 30
0.0
 11
263.0755723980672
 21
143.1940739362167
 31
0.0
  0
LINE
  5
1C2
330
1F
100
AcDbEntity
  8
1
  6
Continuous
 62
     7
100
AcDbLine
 10
263.0755723980672
 20
143.1940739362167
 30
0.0
 11
262.9439802463583
 21
143.0361633564012
 31
0.0
  0
LINE
  5
1C3
330
1F
100
AcDbEntity
  8
1
  6
Continuous
 62
     7
100
AcDbLine
 10
262.9439802463583
 20
143.0361633564012
 30
0.0
 11
262.812388096512
 21
143.1940739362167
 31
0.0
  0
LINE
  5
1C4
330
1F
100
AcDbEntity
  8
1
  6
Continuous
 62
     7
100
AcDbLine
 10
262.812388096512
 20
143.1940739362167
 30
0.0
 11
262.6807959475971
 21
143.0361633564012
 31
0.0
  0
LINE
  5
1C5
330
1F
100
AcDbEntity
  8
1
  6
Continuous
 62
     7
100
AcDbLine
 10
262.6807959475971
 20
143.0361633564012
 30
0.0
 11
262.6807959475971
 21
143.1940739362167
 31
0.0
  0
LINE
  5
1C6
330
1F
100
AcDbEntity
  8
1
  6
Continuous
 62
     7
100
AcDbLine
 10
262.6807959475971
 20
143.0361633564012
 30
0.0
 11
262.6807959475971
 21
144.8652942387985
 31
0.0
  0
LINE
  5
1C7
330
1F
100
AcDbEntity
  8
1
  6
Continuous
 62
     7
100
AcDbLine
 10
262.812388096512
 20
141.6676049989316
 30
0.0
 11
262.6807959475971
 21
141.825515575953
 31
0.0
  0
LINE
  5
1C8
330
1F
100
AcDbEntity
  8
1
  6
Continuous
 62
     7
100
AcDbLine
 10
262.6807959475971
 20
141.825515575953
 30
0.0
 11
262.6807959475971
 21
142.4308394661771
 31
0.0
  0
LINE
  5
1C9
330
1F
100
AcDbEntity
  8
1
  6
Continuous
 62
     7
100
AcDbLine
 10
262.6807959475971
 20
141.825515575953
 30
0.0
 11
262.6807959475971
 21
142.4308394661771
 31
0.0
  0
LINE
  5
1CA
330
1F
100
AcDbEntity
  8
1
  6
Continuous
 62
     7
100
AcDbLine
 10
262.812388096512
 20
141.6676049989316
 30
0.0
 11
262.9439802463583
 21
141.825515575953
 31
0.0
  0
LINE
  5
1CB
330
1F
100
AcDbEntity
  8
1
  6
Continuous
 62
     7
100
AcDbLine
 10
262.9439802463583
 20
141.825515575953
 30
0.0
 11
263.0755723980672
 21
141.6676049989316
 31
0.0
  0
LINE
  5
1CC
330
1F
100
AcDbEntity
  8
1
  6
Continuous
 62
     7
100
AcDbLine
 10
263.0755723980672
 20
141.6676049989316
 30
0.0
 11
263.2071645469821
 21
141.825515575953
 31
0.0
  0
LINE
  5
1CD
330
1F
100
AcDbEntity
  8
1
  6
Continuous
 62
     7
100
AcDbLine
 10
263.2071645469821
 20
141.825515575953
 30
0.0
 11
263.338756695897
 21
141.6676049989316
 31
0.0
  0
LINE
  5
1CE
330
1F
100
AcDbEntity
  8
1
  6
Continuous
 62
     7
100
AcDbLine
 10
263.0755723980672
 20
141.6676049989316
 30
0.0
 11
263.2071645469821
 21
141.825515575953
 31
0.0
  0
LINE
  5
1CF
330
1F
100
AcDbEntity
  8
1
  6
Continuous
 62
     7
100
AcDbLine
 10
263.2071645469821
 20
141.825515575953
 30
0.0
 11
263.338756695897
 21
141.6676049989316
 31
0.0
  0
LINE
  5
1D0
330
1F
100
AcDbEntity
  8
1
  6
Continuous
 62
     7
100
AcDbLine
 10
262.812388096512
 20
141.6676049989316
 30
0.0
 11
262.6807959475971
 21
142.4308394661771
 31
0.0
  0
LINE
  5
1D1
330
1F
100
AcDbEntity
  8
1
  6
Continuous
 62
     7
100
AcDbLine
 10
262.6807959475971
 20
142.4308394661771
 30
0.0
 11
262.6807959475971
 21
143.0361633564012
 31
0.0
  0
LINE
  5
1D2
330
1F
100
AcDbEntity
  8
1
  6
Continuous
 62
     7
100
AcDbLine
 10
263.338756695897
 20
137.404019341119
 30
0.0
 11
263.4966672775752
 21
136.0354609827178
 31
0.0
  0
LINE
  5
1D3
330
1F
100
AcDbEntity
  8
1
  6
Continuous
 62
     7
100
AcDbLine
 10
263.0755723980672
 20
137.404019341119
 30
0.0
 11
263.338756695897
 21
135.877550404765
 31
0.0
  0
LINE
  5
1D4
330
1F
100
AcDbEntity
  8
1
  6
Continuous
 62
     7
100
AcDbLine
 10
263.0755723980672
 20
137.404019341119
 30
0.0
 11
263.338756695897
 21
135.877550404765
 31
0.0
  0
LINE
  5
1D5
330
1F
100
AcDbEntity
  8
1
  6
Continuous
 62
     7
100
AcDbLine
 10
262.812388096512
 20
137.404019341119
 30
0.0
 11
263.0755723980672
 21
135.877550404765
 31
0.0
  0
LINE
  5
1D6
330
1F
100
AcDbEntity
  8
1
  6
Continuous
 62
     7
100
AcDbLine
 10
263.338756695897
 20
135.877550404765
 30
0.0
 11
263.4966672775752
 21
136.0354609827178
 31
0.0
  0
LINE
  5
1D7
330
1F
100
AcDbEntity
  8
1
  6
Continuous
 62
     7
100
AcDbLine
 10
263.4966672775752
 20
137.246108763166
 30
0.0
 11
263.4966672775752
 21
136.0354609827178
 31
0.0
  0
LINE
  5
1D8
330
1F
100
AcDbEntity
  8
1
  6
Continuous
 62
     7
100
AcDbLine
 10
263.338756695897
 20
137.404019341119
 30
0.0
 11
263.4966672775752
 21
137.246108763166
 31
0.0
  0
LINE
  5
1D9
330
1F
100
AcDbEntity
  8
1
  6
Continuous
 62
     7
100
AcDbLine
 10
262.6807959475971
 20
135.877550404765
 30
0.0
 11
262.6807959475971
 21
136.0354609827178
 31
0.0
  0
LINE
  5
1DA
330
1F
100
AcDbEntity
  8
1
  6
Continuous
 62
     7
100
AcDbLine
 10
262.6807959475971
 20
136.6407848729419
 30
0.0
 11
262.6807959475971
 21
137.246108763166
 31
0.0
  0
LINE
  5
1DB
330
1F
100
AcDbEntity
  8
1
  6
Continuous
 62
     7
100
AcDbLine
 10
263.0755723980672
 20
137.404019341119
 30
0.0
 11
263.2071645469821
 21
137.246108763166
 31
0.0
  0
LINE
  5
1DC
330
1F
100
AcDbEntity
  8
1
  6
Continuous
 62
     7
100
AcDbLine
 10
263.2071645469821
 20
137.246108763166
 30
0.0
 11
263.338756695897
 21
137.404019341119
 31
0.0
  0
LINE
  5
1DD
330
1F
100
AcDbEntity
  8
1
  6
Continuous
 62
     7
100
AcDbLine
 10
263.338756695897
 20
137.404019341119
 30
0.0
 11
263.2071645469821
 21
137.246108763166
 31
0.0
  0
LINE
  5
1DE
330
1F
100
AcDbEntity
  8
1
  6
Continuous
 62
     7
100
AcDbLine
 10
263.2071645469821
 20
137.246108763166
 30
0.0
 11
263.0755723980672
 21
137.404019341119
 31
0.0
  0
LINE
  5
1DF
330
1F
100
AcDbEntity
  8
1
  6
Continuous
 62
     7
100
AcDbLine
 10
263.0755723980672
 20
137.404019341119
 30
0.0
 11
262.9439802463583
 21
137.246108763166
 31
0.0
  0
LINE
  5
1E0
330
1F
100
AcDbEntity
  8
1
  6
Continuous
 62
     7
100
AcDbLine
 10
262.9439802463583
 20
137.246108763166
 30
0.0
 11
262.812388096512
 21
137.404019341119
 31
0.0
  0
LINE
  5
1E1
330
1F
100
AcDbEntity
  8
1
  6
Continuous
 62
     7
100
AcDbLine
 10
262.812388096512
 20
137.404019341119
 30
0.0
 11
262.6807959475971
 21
137.246108763166
 31
0.0
  0
LINE
  5
1E2
330
1F
100
AcDbEntity
  8
1
  6
Continuous
 62
     7
100
AcDbLine
 10
262.6807959475971
 20
137.246108763166
 30
0.0
 11
262.6807959475971
 21
137.404019341119
 31
0.0
  0
LINE
  5
1E3
330
1F
100
AcDbEntity
  8
1
  6
Continuous
 62
     7
100
AcDbLine
 10
262.812388096512
 20
135.877550404765
 30
0.0
 11
262.6807959475971
 21
136.0354609827178
 31
0.0
  0
LINE
  5
1E4
330
1F
100
AcDbEntity
  8
1
  6
Continuous
 62
     7
100
AcDbLine
 10
262.6807959475971
 20
136.0354609827178
 30
0.0
 11
262.6807959475971
 21
136.6407848729419
 31
0.0
  0
LINE
  5
1E5
330
1F
100
AcDbEntity
  8
1
  6
Continuous
 62
     7
100
AcDbLine
 10
262.6807959475971
 20
136.0354609827178
 30
0.0
 11
262.6807959475971
 21
136.6407848729419
 31
0.0
  0
LINE
  5
1E6
330
1F
100
AcDbEntity
  8
1
  6
Continuous
 62
     7
100
AcDbLine
 10
262.812388096512
 20
135.877550404765
 30
0.0
 11
262.9439802463583
 21
136.0354609827178
 31
0.0
  0
LINE
  5
1E7
330
1F
100
AcDbEntity
  8
1
  6
Continuous
 62
     7
100
AcDbLine
 10
262.9439802463583
 20
136.0354609827178
 30
0.0
 11
263.0755723980672
 21
135.877550404765
 31
0.0
  0
LINE
  5
1E8
330
1F
100
AcDbEntity
  8
1
  6
Continuous
 62
     7
100
AcDbLine
 10
263.0755723980672
 20
135.877550404765
 30
0.0
 11
263.2071645469821
 21
136.0354609827178
 31
0.0
  0
LINE
  5
1E9
330
1F
100
AcDbEntity
  8
1
  6
Continuous
 62
     7
100
AcDbLine
 10
263.2071645469821
 20
136.0354609827178
 30
0.0
 11
263.338756695897
 21
135.877550404765
 31
0.0
  0
LINE
  5
1EA
330
1F
100
AcDbEntity
  8
1
  6
Continuous
 62
     7
100
AcDbLine
 10
263.0755723980672
 20
135.877550404765
 30
0.0
 11
263.2071645469821
 21
136.0354609827178
 31
0.0
  0
LINE
  5
1EB
330
1F
100
AcDbEntity
  8
1
  6
Continuous
 62
     7
100
AcDbLine
 10
263.2071645469821
 20
136.0354609827178
 30
0.0
 11
263.338756695897
 21
135.877550404765
 31
0.0
  0
LINE
  5
1EC
330
1F
100
AcDbEntity
  8
1
  6
Continuous
 62
     7
100
AcDbLine
 10
262.812388096512
 20
135.877550404765
 30
0.0
 11
262.6807959475971
 21
136.6407848729419
 31
0.0
  0
LINE
  5
1ED
330
1F
100
AcDbEntity
  8
1
  6
Continuous
 62
     7
100
AcDbLine
 10
262.6807959475971
 20
136.6407848729419
 30
0.0
 11
262.6807959475971
 21
137.246108763166
 31
0.0
  0
LINE
  5
1EE
330
1F
100
AcDbEntity
  8
1
  6
Continuous
 62
     7
100
AcDbLine
 10
263.2071645469821
 20
141.825515575953
 30
0.0
 11
263.2071645469821
 21
137.24331983576
 31
0.0
  0
LINE
  5
1EF
330
1F
100
AcDbEntity
  8
1
  6
Continuous
 62
     7
100
AcDbLine
 10
256.3643727531141
 20
140.1937729197222
 30
0.0
 11
256.3643727531141
 21
144.9310903141874
 31
0.0
  0
LINE
  5
1F0
330
1F
100
AcDbEntity
  8
FUTOSEN
  6
Continuous
 62
     7
100
AcDbLine
 10
256.3234127541489
 20
133.3507232128309
 30
0.0
 11
262.9589327541596
 21
133.3507232128309
 31
0.0
  0
LINE
  5
1F1
330
1F
100
AcDbEntity
  8
1
  6
Continuous
 62
     7
100
AcDbLine
 10
217.1343012466512
 20
132.3161154354589
 30
0.0
 11
217.1343012466512
 21
132.8876408033672
 31
0.0
  0
LINE
  5
1F2
330
1F
100
AcDbEntity
  8
FUTOSEN
  6
Continuous
 62
     7
100
AcDbLine
 10
214.6352900737381
 20
132.8876408033672
 30
0.0
 11
217.1343012466512
 21
132.8876408033672
 31
0.0
  0
LINE
  5
1F3
330
1F
100
AcDbEntity
  8
1
  6
Continuous
 62
     7
100
AcDbLine
 10
214.6352900737381
 20
132.3161154354589
 30
0.0
 11
214.6352900737381
 21
132.8876408033672
 31
0.0
  0
LINE
  5
1F4
330
1F
100
AcDbEntity
  8
1
  6
Continuous
 62
     7
100
AcDbLine
 10
217.1343012466512
 20
132.3161154354589
 30
0.0
 11
214.6352900737381
 21
132.3161154354589
 31
0.0
  0
LINE
  5
1F5
330
1F
100
AcDbEntity
  8
FUTOSEN
  6
Continuous
 62
     7
100
AcDbLine
 10
222.2170358389101
 20
145.7215456499386
 30
0.0
 11
217.1343012466512
 21
145.7215456499386
 31
0.0
  0
LINE
  5
1F6
330
1F
100
AcDbEntity
  8
1
  6
Continuous
 62
     7
100
AcDbLine
 10
217.1343012466512
 20
145.7215456499386
 30
0.0
 11
217.1343012466512
 21
146.2930710150528
 31
0.0
  0
LINE
  5
1F7
330
1F
100
AcDbEntity
  8
FUTOSEN
  6
Continuous
 62
     7
100
AcDbLine
 10
217.1343012466512
 20
145.7215456499386
 30
0.0
 11
214.6352900737381
 21
145.7215456499386
 31
0.0
  0
LINE
  5
1F8
330
1F
100
AcDbEntity
  8
1
  6
Continuous
 62
     7
100
AcDbLine
 10
214.6352900737381
 20
145.7215456499386
 30
0.0
 11
214.6352900737381
 21
146.2930710150528
 31
0.0
  0
LINE
  5
1F9
330
1F
100
AcDbEntity
  8
1
  6
Continuous
 62
     7
100
AcDbLine
 10
214.6352900737381
 20
146.2930710150528
 30
0.0
 11
217.1343012466512
 21
146.2930710150528
 31
0.0
  0
LINE
  5
1FA
330
1F
100
AcDbEntity
  8
1
  6
Continuous
 62
     7
100
AcDbLine
 10
216.9882886265821
 20
135.8602629110816
 30
0.0
 11
216.9882886265821
 21
135.9728190845477
 31
0.0
  0
LINE
  5
1FB
330
1F
100
AcDbEntity
  8
1
  6
Continuous
 62
     7
100
AcDbLine
 10
217.2584234462536
 20
135.8602629110816
 30
0.0
 11
217.2584234462536
 21
135.9728190845477
 31
0.0
  0
LINE
  5
1FC
330
1F
100
AcDbEntity
  8
1
  6
Continuous
 62
     7
100
AcDbLine
 10
216.9882886265821
 20
136.9182909515354
 30
0.0
 11
216.9882886265821
 21
137.0308471259328
 31
0.0
  0
LINE
  5
1FD
330
1F
100
AcDbEntity
  8
1
  6
Continuous
 62
     7
100
AcDbLine
 10
217.2584234462536
 20
136.9182909515354
 30
0.0
 11
217.2584234462536
 21
137.0308471259328
 31
0.0
  0
LINE
  5
1FE
330
1F
100
AcDbEntity
  8
1
  6
Continuous
 62
     7
100
AcDbLine
 10
217.7086481429121
 20
136.5806224274116
 30
0.0
 11
217.5960919703773
 21
136.5806224274116
 31
0.0
  0
LINE
  5
1FF
330
1F
100
AcDbEntity
  8
1
  6
Continuous
 62
     7
100
AcDbLine
 10
217.7086481429121
 20
136.3104876077401
 30
0.0
 11
217.5960919703773
 21
136.3104876077401
 31
0.0
  0
LINE
  5
200
330
1F
100
AcDbEntity
  8
1
  6
Continuous
 62
     7
100
AcDbLine
 10
216.6506201033897
 20
136.3104876077401
 30
0.0
 11
216.5380639299235
 21
136.3104876077401
 31
0.0
  0
LINE
  5
201
330
1F
100
AcDbEntity
  8
1
  6
Continuous
 62
     7
100
AcDbLine
 10
216.6506201033897
 20
136.5806224274116
 30
0.0
 11
216.5380639299235
 21
136.5806224274116
 31
0.0
  0
LINE
  5
202
330
1F
100
AcDbEntity
  8
1
  6
Continuous
 62
     7
100
AcDbLine
 10
217.2584234462536
 20
135.7702179693284
 30
0.0
 11
216.9882886265821
 21
135.7702179693284
 31
0.0
  0
LINE
  5
203
330
1F
100
AcDbEntity
  8
1
  6
Continuous
 62
     7
100
AcDbLine
 10
216.9882886265821
 20
137.0308471259328
 30
0.0
 11
216.9882886265821
 21
137.1208920648921
 31
0.0
  0
LINE
  5
204
330
1F
100
AcDbEntity
  8
1
  6
Continuous
 62
     7
100
AcDbLine
 10
217.2584234462536
 20
137.0308471259328
 30
0.0
 11
217.2584234462536
 21
137.1208920648921
 31
0.0
  0
LINE
  5
205
330
1F
100
AcDbEntity
  8
1
  6
Continuous
 62
     7
100
AcDbLine
 10
217.2584234462536
 20
137.1208920648921
 30
0.0
 11
216.9882886265821
 21
137.1208920648921
 31
0.0
  0
LINE
  5
206
330
1F
100
AcDbEntity
  8
1
  6
Continuous
 62
     7
100
AcDbLine
 10
216.4735126584253
 20
137.5711167652759
 30
0.0
 11
215.8233322189606
 21
136.4455550185073
 31
0.0
  0
LINE
  5
207
330
1F
100
AcDbEntity
  8
1
  6
Continuous
 62
     7
100
AcDbLine
 10
215.8233322189606
 20
136.4455550185073
 30
0.0
 11
216.4735126584253
 21
135.3199932717386
 31
0.0
  0
LINE
  5
208
330
1F
100
AcDbEntity
  8
1
  6
Continuous
 62
     7
100
AcDbLine
 10
217.773199413479
 20
135.3199932717386
 30
0.0
 11
218.4233798520124
 21
136.4455550185073
 31
0.0
  0
LINE
  5
209
330
1F
100
AcDbEntity
  8
1
  6
Continuous
 62
     7
100
AcDbLine
 10
218.4233798520124
 20
136.4455550185073
 30
0.0
 11
217.773199413479
 21
137.5711167652759
 31
0.0
  0
LINE
  5
20A
330
1F
100
AcDbEntity
  8
1
  6
Continuous
 62
     7
100
AcDbLine
 10
216.4735126584253
 20
135.3199932717386
 30
0.0
 11
217.773199413479
 21
135.3199932717386
 31
0.0
  0
LINE
  5
20B
330
1F
100
AcDbEntity
  8
1
  6
Continuous
 62
     7
100
AcDbLine
 10
216.4735126584253
 20
137.5711167652759
 30
0.0
 11
217.773199413479
 21
137.5711167652759
 31
0.0
  0
LINE
  5
20C
330
1F
100
AcDbEntity
  8
1
  6
Continuous
 62
     7
100
AcDbLine
 10
216.9882886265821
 20
135.7702179693284
 30
0.0
 11
216.9882886265821
 21
135.8602629110816
 31
0.0
  0
LINE
  5
20D
330
1F
100
AcDbEntity
  8
1
  6
Continuous
 62
     7
100
AcDbLine
 10
216.5380639299235
 20
136.3104876077401
 30
0.0
 11
216.4480189881704
 21
136.3104876077401
 31
0.0
  0
LINE
  5
20E
330
1F
100
AcDbEntity
  8
1
  6
Continuous
 62
     7
100
AcDbLine
 10
216.4480189881704
 20
136.3104876077401
 30
0.0
 11
216.4480189881704
 21
136.5806224274116
 31
0.0
  0
LINE
  5
20F
330
1F
100
AcDbEntity
  8
1
  6
Continuous
 62
     7
100
AcDbLine
 10
216.4480189881704
 20
136.5806224274116
 30
0.0
 11
216.5380639299235
 21
136.5806224274116
 31
0.0
  0
LINE
  5
210
330
1F
100
AcDbEntity
  8
1
  6
Continuous
 62
     7
100
AcDbLine
 10
217.2584234462536
 20
135.7702179693284
 30
0.0
 11
217.2584234462536
 21
135.8602629110816
 31
0.0
  0
LINE
  5
211
330
1F
100
AcDbEntity
  8
1
  6
Continuous
 62
     7
100
AcDbLine
 10
217.7086481429121
 20
136.3104876077401
 30
0.0
 11
217.7986930828026
 21
136.3104876077401
 31
0.0
  0
LINE
  5
212
330
1F
100
AcDbEntity
  8
1
  6
Continuous
 62
     7
100
AcDbLine
 10
217.7986930828026
 20
136.3104876077401
 30
0.0
 11
217.7986930828026
 21
136.5806224274116
 31
0.0
  0
LINE
  5
213
330
1F
100
AcDbEntity
  8
1
  6
Continuous
 62
     7
100
AcDbLine
 10
217.7986930828026
 20
136.5806224274116
 30
0.0
 11
217.7086481429121
 21
136.5806224274116
 31
0.0
  0
LINE
  5
214
330
1F
100
AcDbEntity
  8
1
  6
DOT_CENTER
 62
     3
100
AcDbLine
 10
215.8342774291939
 20
142.3702104485262
 30
0.0
 11
215.6710709757588
 21
142.3702104485262
 31
0.0
  0
LINE
  5
215
330
1F
100
AcDbEntity
  8
1
  6
Continuous
 62
     7
100
AcDbLine
 10
216.9992338377467
 20
141.7849183392378
 30
0.0
 11
216.9992338377467
 21
141.8974745145666
 31
0.0
  0
LINE
  5
216
330
1F
100
AcDbEntity
  8
1
  6
Continuous
 62
     7
100
AcDbLine
 10
217.2693686583496
 20
141.7849183392378
 30
0.0
 11
217.2693686583496
 21
141.8974745145666
 31
0.0
  0
LINE
  5
217
330
1F
100
AcDbEntity
  8
1
  6
Continuous
 62
     7
100
AcDbLine
 10
216.9992338377467
 20
142.842946380623
 30
0.0
 11
216.9992338377467
 21
142.9555025559517
 31
0.0
  0
LINE
  5
218
330
1F
100
AcDbEntity
  8
1
  6
Continuous
 62
     7
100
AcDbLine
 10
217.2693686583496
 20
142.842946380623
 30
0.0
 11
217.2693686583496
 21
142.9555025559517
 31
0.0
  0
LINE
  5
219
330
1F
100
AcDbEntity
  8
1
  6
Continuous
 62
     7
100
AcDbLine
 10
217.7195933559394
 20
142.5052778574305
 30
0.0
 11
217.6070371806106
 21
142.5052778574305
 31
0.0
  0
LINE
  5
21A
330
1F
100
AcDbEntity
  8
1
  6
Continuous
 62
     7
100
AcDbLine
 10
217.7195933559394
 20
142.2351430396217
 30
0.0
 11
217.6070371806106
 21
142.2351430396217
 31
0.0
  0
LINE
  5
21B
330
1F
100
AcDbEntity
  8
1
  6
Continuous
 62
     7
100
AcDbLine
 10
216.6615653154856
 20
142.2351430396217
 30
0.0
 11
216.5490091401568
 21
142.2351430396217
 31
0.0
  0
LINE
  5
21C
330
1F
100
AcDbEntity
  8
1
  6
Continuous
 62
     7
100
AcDbLine
 10
216.6615653154856
 20
142.5052778574305
 30
0.0
 11
216.5490091401568
 21
142.5052778574305
 31
0.0
  0
LINE
  5
21D
330
1F
100
AcDbEntity
  8
1
  6
Continuous
 62
     7
100
AcDbLine
 10
217.2693686583496
 20
141.69487340121
 30
0.0
 11
216.9992338377467
 21
141.69487340121
 31
0.0
  0
LINE
  5
21E
330
1F
100
AcDbEntity
  8
1
  6
Continuous
 62
     7
100
AcDbLine
 10
216.9992338377467
 20
142.9555025559517
 30
0.0
 11
216.9992338377467
 21
143.0455474958422
 31
0.0
  0
LINE
  5
21F
330
1F
100
AcDbEntity
  8
1
  6
Continuous
 62
     7
100
AcDbLine
 10
217.2693686583496
 20
142.9555025559517
 30
0.0
 11
217.2693686583496
 21
143.0455474958422
 31
0.0
  0
LINE
  5
220
330
1F
100
AcDbEntity
  8
1
  6
Continuous
 62
     7
100
AcDbLine
 10
217.2693686583496
 20
143.0455474958422
 30
0.0
 11
216.9992338377467
 21
143.0455474958422
 31
0.0
  0
LINE
  5
221
330
1F
100
AcDbEntity
  8
1
  6
Continuous
 62
     7
100
AcDbLine
 10
216.4844578686586
 20
143.4957721934322
 30
0.0
 11
215.8342774291939
 21
142.3702104485262
 31
0.0
  0
LINE
  5
222
330
1F
100
AcDbEntity
  8
1
  6
Continuous
 62
     7
100
AcDbLine
 10
215.8342774291939
 20
142.3702104485262
 30
0.0
 11
216.4844578686586
 21
141.2446487017575
 31
0.0
  0
LINE
  5
223
330
1F
100
AcDbEntity
  8
1
  6
Continuous
 62
     7
100
AcDbLine
 10
217.7841446237123
 20
141.2446487017575
 30
0.0
 11
218.4343250631771
 21
142.3702104485262
 31
0.0
  0
LINE
  5
224
330
1F
100
AcDbEntity
  8
1
  6
Continuous
 62
     7
100
AcDbLine
 10
218.4343250631771
 20
142.3702104485262
 30
0.0
 11
217.7841446237123
 21
143.4957721934322
 31
0.0
  0
LINE
  5
225
330
1F
100
AcDbEntity
  8
1
  6
Continuous
 62
     7
100
AcDbLine
 10
216.4844578686586
 20
141.2446487017575
 30
0.0
 11
217.7841446237123
 21
141.2446487017575
 31
0.0
  0
LINE
  5
226
330
1F
100
AcDbEntity
  8
1
  6
Continuous
 62
     7
100
AcDbLine
 10
216.4844578686586
 20
143.4957721934322
 30
0.0
 11
217.7841446237123
 21
143.4957721934322
 31
0.0
  0
LINE
  5
227
330
1F
100
AcDbEntity
  8
1
  6
Continuous
 62
     7
100
AcDbLine
 10
216.9992338377467
 20
141.69487340121
 30
0.0
 11
216.9992338377467
 21
141.7849183392378
 31
0.0
  0
LINE
  5
228
330
1F
100
AcDbEntity
  8
1
  6
Continuous
 62
     7
100
AcDbLine
 10
216.5490091401568
 20
142.2351430396217
 30
0.0
 11
216.4589641984037
 21
142.2351430396217
 31
0.0
  0
LINE
  5
229
330
1F
100
AcDbEntity
  8
1
  6
Continuous
 62
     7
100
AcDbLine
 10
216.4589641984037
 20
142.2351430396217
 30
0.0
 11
216.4589641984037
 21
142.5052778574305
 31
0.0
  0
LINE
  5
22A
330
1F
100
AcDbEntity
  8
1
  6
Continuous
 62
     7
100
AcDbLine
 10
216.4589641984037
 20
142.5052778574305
 30
0.0
 11
216.5490091401568
 21
142.5052778574305
 31
0.0
  0
LINE
  5
22B
330
1F
100
AcDbEntity
  8
1
  6
Continuous
 62
     7
100
AcDbLine
 10
217.2693686583496
 20
141.69487340121
 30
0.0
 11
217.2693686583496
 21
141.7849183392378
 31
0.0
  0
LINE
  5
22C
330
1F
100
AcDbEntity
  8
1
  6
Continuous
 62
     7
100
AcDbLine
 10
217.7195933559394
 20
142.2351430396217
 30
0.0
 11
217.8096382939673
 21
142.2351430396217
 31
0.0
  0
LINE
  5
22D
330
1F
100
AcDbEntity
  8
1
  6
Continuous
 62
     7
100
AcDbLine
 10
217.8096382939673
 20
142.2351430396217
 30
0.0
 11
217.8096382939673
 21
142.5052778574305
 31
0.0
  0
LINE
  5
22E
330
1F
100
AcDbEntity
  8
1
  6
Continuous
 62
     7
100
AcDbLine
 10
217.8096382939673
 20
142.5052778574305
 30
0.0
 11
217.7195933559394
 21
142.5052778574305
 31
0.0
  0
LINE
  5
22F
330
1F
100
AcDbEntity
  8
FUTOSEN
  6
Continuous
 62
     7
100
AcDbLine
 10
220.099229760044
 20
140.0034692336473
 30
0.0
 11
220.099229760044
 21
144.3237936359498
 31
0.0
  0
LINE
  5
230
330
1F
100
AcDbEntity
  8
FUTOSEN
  6
Continuous
 62
     7
100
AcDbLine
 10
220.099229760044
 20
134.285392817356
 30
0.0
 11
220.099229760044
 21
138.6057172215212
 31
0.0
  0
LINE
  5
231
330
1F
100
AcDbEntity
  8
FUTOSEN
  6
Continuous
 62
     7
100
AcDbLine
 10
222.6405970533795
 20
133.2264897779228
 30
0.0
 11
222.6405970533795
 21
133.9465438437316
 31
0.0
  0
LINE
  5
232
330
1F
100
AcDbEntity
  8
FUTOSEN
  6
Continuous
 62
     7
100
AcDbLine
 10
219.2521073264486
 20
134.285392817356
 30
0.0
 11
219.2521073264486
 21
138.6057172215212
 31
0.0
  0
LINE
  5
233
330
1F
100
AcDbEntity
  8
FUTOSEN
  6
Continuous
 62
     7
100
AcDbLine
 10
219.2521073264486
 20
140.0034692336473
 30
0.0
 11
219.2521073264486
 21
144.3237936359498
 31
0.0
  0
LINE
  5
234
330
1F
100
AcDbEntity
  8
FUTOSEN
  6
Continuous
 62
     7
100
AcDbLine
 10
219.6756685437119
 20
144.3237936359498
 30
0.0
 11
219.6756685437119
 21
140.0034692336473
 31
0.0
  0
LINE
  5
235
330
1F
100
AcDbEntity
  8
FUTOSEN
  6
Continuous
 62
     7
100
AcDbLine
 10
219.6756685437119
 20
134.285392817356
 30
0.0
 11
219.6756685437119
 21
138.6057172215212
 31
0.0
  0
LINE
  5
236
330
1F
100
AcDbEntity
  8
FUTOSEN
  6
Continuous
 62
     7
100
AcDbLine
 10
222.6405970533795
 20
139.579908016384
 30
0.0
 11
222.6405970533795
 21
139.0292784369219
 31
0.0
  0
LINE
  5
237
330
1F
100
AcDbEntity
  8
FUTOSEN
  6
Continuous
 62
     7
100
AcDbLine
 10
222.6405970533795
 20
145.2979844345379
 30
0.0
 11
222.6405970533795
 21
144.7473548522818
 31
0.0
  0
LINE
  5
238
330
1F
100
AcDbEntity
  8
FUTOSEN
  6
Continuous
 62
     7
100
AcDbLine
 10
222.2170358389101
 20
134.285392817356
 30
0.0
 11
221.7341430853537
 21
134.285392817356
 31
0.0
  0
LINE
  5
239
330
1F
100
AcDbEntity
  8
FUTOSEN
  6
Continuous
 62
     7
100
AcDbLine
 10
222.2170358389101
 20
138.6057172215212
 30
0.0
 11
214.6352900737381
 21
138.6057172215212
 31
0.0
  0
LINE
  5
23A
330
1F
100
AcDbEntity
  8
FUTOSEN
  6
Continuous
 62
     7
100
AcDbLine
 10
222.2170358389101
 20
140.0034692336473
 30
0.0
 11
214.6352900737381
 21
140.0034692336473
 31
0.0
  0
LINE
  5
23B
330
1F
100
AcDbEntity
  8
FUTOSEN
  6
Continuous
 62
     7
100
AcDbLine
 10
222.2170358389101
 20
144.3237936359498
 30
0.0
 11
221.7341430853537
 21
144.3237936359498
 31
0.0
  0
LINE
  5
23C
330
1F
100
AcDbEntity
  8
FUTOSEN
  6
Continuous
 62
     7
100
AcDbLine
 10
214.6352900737381
 20
145.7215456499386
 30
0.0
 11
214.2522153747684
 21
145.7215456499386
 31
0.0
  0
LINE
  5
23D
330
1F
100
AcDbEntity
  8
FUTOSEN
  6
Continuous
 62
     7
100
AcDbLine
 10
214.6352900737381
 20
134.285392817356
 30
0.0
 11
214.6352900737381
 21
138.6057172215212
 31
0.0
  0
LINE
  5
23E
330
1F
100
AcDbEntity
  8
FUTOSEN
  6
Continuous
 62
     7
100
AcDbLine
 10
214.6352900737381
 20
140.0034692336473
 30
0.0
 11
214.6352900737381
 21
144.3237936359498
 31
0.0
  0
LINE
  5
23F
330
1F
100
AcDbEntity
  8
FUTOSEN
  6
Continuous
 62
     7
100
AcDbLine
 10
222.6405970533795
 20
133.8618316028865
 30
0.0
 11
222.6405970533795
 21
133.3112020206306
 31
0.0
  0
LINE
  5
240
330
1F
100
AcDbEntity
  8
FUTOSEN
  6
Continuous
 62
     7
100
AcDbLine
 10
222.2170358389101
 20
132.8876408033672
 30
0.0
 11
214.2522153747684
 21
132.8876408033672
 31
0.0
  0
LINE
  5
241
330
1F
100
AcDbEntity
  8
1
  6
Continuous
 62
     7
100
AcDbLine
 10
214.2522153747684
 20
132.8876408033672
 30
0.0
 11
214.2522153747684
 21
145.720643213265
 31
0.0
  0
LINE
  5
242
330
1F
100
AcDbEntity
  8
1
  6
Continuous
 62
     7
100
AcDbLine
 10
163.3701295028857
 20
132.8876408033672
 30
0.0
 11
163.3701295028857
 21
132.3161154354589
 31
0.0
  0
LINE
  5
243
330
1F
100
AcDbEntity
  8
FUTOSEN
  6
Continuous
 62
     7
100
AcDbLine
 10
163.3701295028857
 20
132.8876408033672
 30
0.0
 11
165.8691406757987
 21
132.8876408033672
 31
0.0
  0
LINE
  5
244
330
1F
100
AcDbEntity
  8
1
  6
Continuous
 62
     7
100
AcDbLine
 10
165.8691406757987
 20
132.8876408033672
 30
0.0
 11
165.8691406757987
 21
132.3161154354589
 31
0.0
  0
LINE
  5
245
330
1F
100
AcDbEntity
  8
1
  6
Continuous
 62
     7
100
AcDbLine
 10
165.8691406757987
 20
132.3161154354589
 30
0.0
 11
163.3701295028857
 21
132.3161154354589
 31
0.0
  0
LINE
  5
246
330
1F
100
AcDbEntity
  8
FUTOSEN
  6
Continuous
 62
     7
100
AcDbLine
 10
163.3701295028857
 20
145.7215456499386
 30
0.0
 11
158.2873949106267
 21
145.7215456499386
 31
0.0
  0
LINE
  5
247
330
1F
100
AcDbEntity
  8
1
  6
Continuous
 62
     7
100
AcDbLine
 10
163.3701295028857
 20
146.2930710150528
 30
0.0
 11
163.3701295028857
 21
145.7215456499386
 31
0.0
  0
LINE
  5
248
330
1F
100
AcDbEntity
  8
FUTOSEN
  6
Continuous
 62
     7
100
AcDbLine
 10
165.8691406757987
 20
145.7215456499386
 30
0.0
 11
163.3701295028857
 21
145.7215456499386
 31
0.0
  0
LINE
  5
249
330
1F
100
AcDbEntity
  8
1
  6
Continuous
 62
     7
100
AcDbLine
 10
165.8691406757987
 20
146.2930710150528
 30
0.0
 11
165.8691406757987
 21
145.7215456499386
 31
0.0
  0
LINE
  5
24A
330
1F
100
AcDbEntity
  8
1
  6
Continuous
 62
     7
100
AcDbLine
 10
163.3701295028857
 20
146.2930710150528
 30
0.0
 11
165.8691406757987
 21
146.2930710150528
 31
0.0
  0
LINE
  5
24B
330
1F
100
AcDbEntity
  8
1
  6
DOT_CENTER
 62
     3
100
AcDbLine
 10
164.8443049840114
 20
136.4455550185073
 30
0.0
 11
164.6810985305763
 21
136.4455550185073
 31
0.0
  0
LINE
  5
24C
330
1F
100
AcDbEntity
  8
1
  6
Continuous
 62
     7
100
AcDbLine
 10
163.5161421229548
 20
135.9728190845477
 30
0.0
 11
163.5161421229548
 21
135.8602629110816
 31
0.0
  0
LINE
  5
24D
330
1F
100
AcDbEntity
  8
1
  6
Continuous
 62
     7
100
AcDbLine
 10
163.2460073023519
 20
135.9728190845477
 30
0.0
 11
163.2460073023519
 21
135.8602629110816
 31
0.0
  0
LINE
  5
24E
330
1F
100
AcDbEntity
  8
1
  6
Continuous
 62
     7
100
AcDbLine
 10
163.5161421229548
 20
137.0308471259328
 30
0.0
 11
163.5161421229548
 21
136.9182909515354
 31
0.0
  0
LINE
  5
24F
330
1F
100
AcDbEntity
  8
1
  6
Continuous
 62
     7
100
AcDbLine
 10
163.2460073023519
 20
137.0308471259328
 30
0.0
 11
163.2460073023519
 21
136.9182909515354
 31
0.0
  0
LINE
  5
250
330
1F
100
AcDbEntity
  8
1
  6
Continuous
 62
     7
100
AcDbLine
 10
162.9083387791595
 20
136.5806224274116
 30
0.0
 11
162.7957826066247
 21
136.5806224274116
 31
0.0
  0
LINE
  5
251
330
1F
100
AcDbEntity
  8
1
  6
Continuous
 62
     7
100
AcDbLine
 10
162.9083387791595
 20
136.3104876077401
 30
0.0
 11
162.7957826066247
 21
136.3104876077401
 31
0.0
  0
LINE
  5
252
330
1F
100
AcDbEntity
  8
1
  6
Continuous
 62
     7
100
AcDbLine
 10
163.9663668196133
 20
136.3104876077401
 30
0.0
 11
163.8538106461472
 21
136.3104876077401
 31
0.0
  0
LINE
  5
253
330
1F
100
AcDbEntity
  8
1
  6
Continuous
 62
     7
100
AcDbLine
 10
163.9663668196133
 20
136.5806224274116
 30
0.0
 11
163.8538106461472
 21
136.5806224274116
 31
0.0
  0
LINE
  5
254
330
1F
100
AcDbEntity
  8
1
  6
Continuous
 62
     7
100
AcDbLine
 10
163.5161421229548
 20
135.7702179693284
 30
0.0
 11
163.2460073023519
 21
135.7702179693284
 31
0.0
  0
LINE
  5
255
330
1F
100
AcDbEntity
  8
1
  6
Continuous
 62
     7
100
AcDbLine
 10
163.5161421229548
 20
137.1208920648921
 30
0.0
 11
163.5161421229548
 21
137.0308471259328
 31
0.0
  0
LINE
  5
256
330
1F
100
AcDbEntity
  8
1
  6
Continuous
 62
     7
100
AcDbLine
 10
163.2460073023519
 20
137.1208920648921
 30
0.0
 11
163.2460073023519
 21
137.0308471259328
 31
0.0
  0
LINE
  5
257
330
1F
100
AcDbEntity
  8
1
  6
Continuous
 62
     7
100
AcDbLine
 10
163.5161421229548
 20
137.1208920648921
 30
0.0
 11
163.2460073023519
 21
137.1208920648921
 31
0.0
  0
LINE
  5
258
330
1F
100
AcDbEntity
  8
1
  6
Continuous
 62
     7
100
AcDbLine
 10
164.6810985305763
 20
136.4455550185073
 30
0.0
 11
164.0309180911115
 21
137.5711167652759
 31
0.0
  0
LINE
  5
259
330
1F
100
AcDbEntity
  8
1
  6
Continuous
 62
     7
100
AcDbLine
 10
164.0309180911115
 20
135.3199932717386
 30
0.0
 11
164.6810985305763
 21
136.4455550185073
 31
0.0
  0
LINE
  5
25A
330
1F
100
AcDbEntity
  8
1
  6
Continuous
 62
     7
100
AcDbLine
 10
162.0810508975244
 20
136.4455550185073
 30
0.0
 11
162.7312313360578
 21
135.3199932717386
 31
0.0
  0
LINE
  5
25B
330
1F
100
AcDbEntity
  8
1
  6
Continuous
 62
     7
100
AcDbLine
 10
162.7312313360578
 20
137.5711167652759
 30
0.0
 11
162.0810508975244
 21
136.4455550185073
 31
0.0
  0
LINE
  5
25C
330
1F
100
AcDbEntity
  8
1
  6
Continuous
 62
     7
100
AcDbLine
 10
162.7312313360578
 20
135.3199932717386
 30
0.0
 11
164.0309180911115
 21
135.3199932717386
 31
0.0
  0
LINE
  5
25D
330
1F
100
AcDbEntity
  8
1
  6
Continuous
 62
     7
100
AcDbLine
 10
162.7312313360578
 20
137.5711167652759
 30
0.0
 11
164.0309180911115
 21
137.5711167652759
 31
0.0
  0
LINE
  5
25E
330
1F
100
AcDbEntity
  8
1
  6
Continuous
 62
     7
100
AcDbLine
 10
163.5161421229548
 20
135.8602629110816
 30
0.0
 11
163.5161421229548
 21
135.7702179693284
 31
0.0
  0
LINE
  5
25F
330
1F
100
AcDbEntity
  8
1
  6
Continuous
 62
     7
100
AcDbLine
 10
164.0564117613665
 20
136.3104876077401
 30
0.0
 11
163.9663668196133
 21
136.3104876077401
 31
0.0
  0
LINE
  5
260
330
1F
100
AcDbEntity
  8
1
  6
Continuous
 62
     7
100
AcDbLine
 10
164.0564117613665
 20
136.5806224274116
 30
0.0
 11
164.0564117613665
 21
136.3104876077401
 31
0.0
  0
LINE
  5
261
330
1F
100
AcDbEntity
  8
1
  6
Continuous
 62
     7
100
AcDbLine
 10
163.9663668196133
 20
136.5806224274116
 30
0.0
 11
164.0564117613665
 21
136.5806224274116
 31
0.0
  0
LINE
  5
262
330
1F
100
AcDbEntity
  8
1
  6
Continuous
 62
     7
100
AcDbLine
 10
163.2460073023519
 20
135.8602629110816
 30
0.0
 11
163.2460073023519
 21
135.7702179693284
 31
0.0
  0
LINE
  5
263
330
1F
100
AcDbEntity
  8
1
  6
Continuous
 62
     7
100
AcDbLine
 10
162.7057376667342
 20
136.3104876077401
 30
0.0
 11
162.7957826066247
 21
136.3104876077401
 31
0.0
  0
LINE
  5
264
330
1F
100
AcDbEntity
  8
1
  6
Continuous
 62
     7
100
AcDbLine
 10
162.7057376667342
 20
136.5806224274116
 30
0.0
 11
162.7057376667342
 21
136.3104876077401
 31
0.0
  0
LINE
  5
265
330
1F
100
AcDbEntity
  8
1
  6
Continuous
 62
     7
100
AcDbLine
 10
162.7957826066247
 20
136.5806224274116
 30
0.0
 11
162.7057376667342
 21
136.5806224274116
 31
0.0
  0
LINE
  5
266
330
1F
100
AcDbEntity
  8
1
  6
DOT_CENTER
 62
     3
100
AcDbLine
 10
164.8333597737781
 20
142.3702104485262
 30
0.0
 11
164.6701533194116
 21
142.3702104485262
 31
0.0
  0
LINE
  5
267
330
1F
100
AcDbEntity
  8
1
  6
Continuous
 62
     7
100
AcDbLine
 10
163.5051969117901
 20
141.8974745145666
 30
0.0
 11
163.5051969117901
 21
141.7849183392378
 31
0.0
  0
LINE
  5
268
330
1F
100
AcDbEntity
  8
1
  6
Continuous
 62
     7
100
AcDbLine
 10
163.235062090256
 20
141.8974745145666
 30
0.0
 11
163.235062090256
 21
141.7849183392378
 31
0.0
  0
LINE
  5
269
330
1F
100
AcDbEntity
  8
1
  6
Continuous
 62
     7
100
AcDbLine
 10
163.5051969117901
 20
142.9555025559517
 30
0.0
 11
163.5051969117901
 21
142.842946380623
 31
0.0
  0
LINE
  5
26A
330
1F
100
AcDbEntity
  8
1
  6
Continuous
 62
     7
100
AcDbLine
 10
163.235062090256
 20
142.9555025559517
 30
0.0
 11
163.235062090256
 21
142.842946380623
 31
0.0
  0
LINE
  5
26B
330
1F
100
AcDbEntity
  8
1
  6
Continuous
 62
     7
100
AcDbLine
 10
162.8973935689262
 20
142.5052778574305
 30
0.0
 11
162.7848373935974
 21
142.5052778574305
 31
0.0
  0
LINE
  5
26C
330
1F
100
AcDbEntity
  8
1
  6
Continuous
 62
     7
100
AcDbLine
 10
162.8973935689262
 20
142.2351430396217
 30
0.0
 11
162.7848373935974
 21
142.2351430396217
 31
0.0
  0
LINE
  5
26D
330
1F
100
AcDbEntity
  8
1
  6
Continuous
 62
     7
100
AcDbLine
 10
163.95542160938
 20
142.2351430396217
 30
0.0
 11
163.8428654340512
 21
142.2351430396217
 31
0.0
  0
LINE
  5
26E
330
1F
100
AcDbEntity
  8
1
  6
Continuous
 62
     7
100
AcDbLine
 10
163.95542160938
 20
142.5052778574305
 30
0.0
 11
163.8428654340512
 21
142.5052778574305
 31
0.0
  0
LINE
  5
26F
330
1F
100
AcDbEntity
  8
1
  6
Continuous
 62
     7
100
AcDbLine
 10
163.5051969117901
 20
141.69487340121
 30
0.0
 11
163.235062090256
 21
141.69487340121
 31
0.0
  0
LINE
  5
270
330
1F
100
AcDbEntity
  8
1
  6
Continuous
 62
     7
100
AcDbLine
 10
163.5051969117901
 20
143.0455474958422
 30
0.0
 11
163.5051969117901
 21
142.9555025559517
 31
0.0
  0
LINE
  5
271
330
1F
100
AcDbEntity
  8
1
  6
Continuous
 62
     7
100
AcDbLine
 10
163.235062090256
 20
143.0455474958422
 30
0.0
 11
163.235062090256
 21
142.9555025559517
 31
0.0
  0
LINE
  5
272
330
1F
100
AcDbEntity
  8
1
  6
Continuous
 62
     7
100
AcDbLine
 10
163.5051969117901
 20
143.0455474958422
 30
0.0
 11
163.235062090256
 21
143.0455474958422
 31
0.0
  0
LINE
  5
273
330
1F
100
AcDbEntity
  8
1
  6
Continuous
 62
     7
100
AcDbLine
 10
164.6701533194116
 20
142.3702104485262
 30
0.0
 11
164.0199728808782
 21
143.4957721934322
 31
0.0
  0
LINE
  5
274
330
1F
100
AcDbEntity
  8
1
  6
Continuous
 62
     7
100
AcDbLine
 10
164.0199728808782
 20
141.2446487017575
 30
0.0
 11
164.6701533194116
 21
142.3702104485262
 31
0.0
  0
LINE
  5
275
330
1F
100
AcDbEntity
  8
1
  6
Continuous
 62
     7
100
AcDbLine
 10
162.0701056863597
 20
142.3702104485262
 30
0.0
 11
162.7202861258245
 21
141.2446487017575
 31
0.0
  0
LINE
  5
276
330
1F
100
AcDbEntity
  8
1
  6
Continuous
 62
     7
100
AcDbLine
 10
162.7202861258245
 20
143.4957721934322
 30
0.0
 11
162.0701056863597
 21
142.3702104485262
 31
0.0
  0
LINE
  5
277
330
1F
100
AcDbEntity
  8
1
  6
Continuous
 62
     7
100
AcDbLine
 10
162.7202861258245
 20
141.2446487017575
 30
0.0
 11
164.0199728808782
 21
141.2446487017575
 31
0.0
  0
LINE
  5
278
330
1F
100
AcDbEntity
  8
1
  6
Continuous
 62
     7
100
AcDbLine
 10
162.7202861258245
 20
143.4957721934322
 30
0.0
 11
164.0199728808782
 21
143.4957721934322
 31
0.0
  0
LINE
  5
279
330
1F
100
AcDbEntity
  8
1
  6
Continuous
 62
     7
100
AcDbLine
 10
163.5051969117901
 20
141.7849183392378
 30
0.0
 11
163.5051969117901
 21
141.69487340121
 31
0.0
  0
LINE
  5
27A
330
1F
100
AcDbEntity
  8
1
  6
Continuous
 62
     7
100
AcDbLine
 10
164.0454665511331
 20
142.2351430396217
 30
0.0
 11
163.95542160938
 21
142.2351430396217
 31
0.0
  0
LINE
  5
27B
330
1F
100
AcDbEntity
  8
1
  6
Continuous
 62
     7
100
AcDbLine
 10
164.0454665511331
 20
142.5052778574305
 30
0.0
 11
164.0454665511331
 21
142.2351430396217
 31
0.0
  0
LINE
  5
27C
330
1F
100
AcDbEntity
  8
1
  6
Continuous
 62
     7
100
AcDbLine
 10
163.95542160938
 20
142.5052778574305
 30
0.0
 11
164.0454665511331
 21
142.5052778574305
 31
0.0
  0
LINE
  5
27D
330
1F
100
AcDbEntity
  8
1
  6
Continuous
 62
     7
100
AcDbLine
 10
163.235062090256
 20
141.7849183392378
 30
0.0
 11
163.235062090256
 21
141.69487340121
 31
0.0
  0
LINE
  5
27E
330
1F
100
AcDbEntity
  8
1
  6
Continuous
 62
     7
100
AcDbLine
 10
162.6947924555695
 20
142.2351430396217
 30
0.0
 11
162.7848373935974
 21
142.2351430396217
 31
0.0
  0
LINE
  5
27F
330
1F
100
AcDbEntity
  8
1
  6
Continuous
 62
     7
100
AcDbLine
 10
162.6947924555695
 20
142.5052778574305
 30
0.0
 11
162.6947924555695
 21
142.2351430396217
 31
0.0
  0
LINE
  5
280
330
1F
100
AcDbEntity
  8
1
  6
Continuous
 62
     7
100
AcDbLine
 10
162.7848373935974
 20
142.5052778574305
 30
0.0
 11
162.6947924555695
 21
142.5052778574305
 31
0.0
  0
LINE
  5
281
330
1F
100
AcDbEntity
  8
FUTOSEN
  6
Continuous
 62
     7
100
AcDbLine
 10
160.4052009894929
 20
144.3237936359498
 30
0.0
 11
160.4052009894929
 21
140.0034692336473
 31
0.0
  0
LINE
  5
282
330
1F
100
AcDbEntity
  8
FUTOSEN
  6
Continuous
 62
     7
100
AcDbLine
 10
160.4052009894929
 20
138.6057172215212
 30
0.0
 11
160.4052009894929
 21
134.285392817356
 31
0.0
  0
LINE
  5
283
330
1F
100
AcDbEntity
  8
FUTOSEN
  6
Continuous
 62
     7
100
AcDbLine
 10
157.8638336952261
 20
133.9465438437316
 30
0.0
 11
157.8638336952261
 21
133.2264897779228
 31
0.0
  0
LINE
  5
284
330
1F
100
AcDbEntity
  8
FUTOSEN
  6
Continuous
 62
     7
100
AcDbLine
 10
161.2523234230882
 20
138.6057172215212
 30
0.0
 11
161.2523234230882
 21
134.285392817356
 31
0.0
  0
LINE
  5
285
330
1F
100
AcDbEntity
  8
FUTOSEN
  6
Continuous
 62
     7
100
AcDbLine
 10
161.2523234230882
 20
144.3237936359498
 30
0.0
 11
161.2523234230882
 21
140.0034692336473
 31
0.0
  0
LINE
  5
286
330
1F
100
AcDbEntity
  8
FUTOSEN
  6
Continuous
 62
     7
100
AcDbLine
 10
160.8287622058249
 20
140.0034692336473
 30
0.0
 11
160.8287622058249
 21
144.3237936359498
 31
0.0
  0
LINE
  5
287
330
1F
100
AcDbEntity
  8
FUTOSEN
  6
Continuous
 62
     7
100
AcDbLine
 10
160.8287622058249
 20
138.6057172215212
 30
0.0
 11
160.8287622058249
 21
134.285392817356
 31
0.0
  0
LINE
  5
288
330
1F
100
AcDbEntity
  8
FUTOSEN
  6
Continuous
 62
     7
100
AcDbLine
 10
157.8638336952261
 20
139.0292784369219
 30
0.0
 11
157.8638336952261
 21
139.579908016384
 31
0.0
  0
LINE
  5
289
330
1F
100
AcDbEntity
  8
FUTOSEN
  6
Continuous
 62
     7
100
AcDbLine
 10
157.8638336952261
 20
144.7473548522818
 30
0.0
 11
157.8638336952261
 21
145.2979844345379
 31
0.0
  0
LINE
  5
28A
330
1F
100
AcDbEntity
  8
FUTOSEN
  6
Continuous
 62
     7
100
AcDbLine
 10
165.8691406757987
 20
134.285392817356
 30
0.0
 11
158.7702876641831
 21
134.285392817356
 31
0.0
  0
LINE
  5
28B
330
1F
100
AcDbEntity
  8
FUTOSEN
  6
Continuous
 62
     7
100
AcDbLine
 10
165.8691406757987
 20
138.6057172215212
 30
0.0
 11
158.2873949106267
 21
138.6057172215212
 31
0.0
  0
LINE
  5
28C
330
1F
100
AcDbEntity
  8
FUTOSEN
  6
Continuous
 62
     7
100
AcDbLine
 10
165.8691406757987
 20
140.0034692336473
 30
0.0
 11
158.2873949106267
 21
140.0034692336473
 31
0.0
  0
LINE
  5
28D
330
1F
100
AcDbEntity
  8
FUTOSEN
  6
Continuous
 62
     7
100
AcDbLine
 10
165.8691406757987
 20
144.3237936359498
 30
0.0
 11
158.7702876641831
 21
144.3237936359498
 31
0.0
  0
LINE
  5
28E
330
1F
100
AcDbEntity
  8
FUTOSEN
  6
Continuous
 62
     7
100
AcDbLine
 10
166.2522153747684
 20
145.7215456499386
 30
0.0
 11
165.8691406757987
 21
145.7215456499386
 31
0.0
  0
LINE
  5
28F
330
1F
100
AcDbEntity
  8
FUTOSEN
  6
Continuous
 62
     7
100
AcDbLine
 10
165.8691406757987
 20
138.6057172215212
 30
0.0
 11
165.8691406757987
 21
134.285392817356
 31
0.0
  0
LINE
  5
290
330
1F
100
AcDbEntity
  8
FUTOSEN
  6
Continuous
 62
     7
100
AcDbLine
 10
165.8691406757987
 20
144.3237936359498
 30
0.0
 11
165.8691406757987
 21
140.0034692336473
 31
0.0
  0
LINE
  5
291
330
1F
100
AcDbEntity
  8
FUTOSEN
  6
Continuous
 62
     7
100
AcDbLine
 10
157.8638336952261
 20
133.3112020206306
 30
0.0
 11
157.8638336952261
 21
133.8618316028865
 31
0.0
  0
LINE
  5
292
330
1F
100
AcDbEntity
  8
FUTOSEN
  6
Continuous
 62
     7
100
AcDbLine
 10
166.2522153747684
 20
132.8876408033672
 30
0.0
 11
158.2873949106267
 21
132.8876408033672
 31
0.0
  0
LINE
  5
293
330
1F
100
AcDbEntity
  8
1
  6
Continuous
 62
     7
100
AcDbLine
 10
166.2522153747684
 20
145.720643213265
 30
0.0
 11
166.2522153747684
 21
132.8876408033672
 31
0.0
  0
LINE
  5
294
330
1F
100
AcDbEntity
  8
1
  6
Continuous
 62
     7
100
AcDbLine
 10
261.3007055568651
 20
133.655247087937
 30
0.0
 11
260.8847915596471
 21
133.4274846607561
 31
0.0
  0
LINE
  5
295
330
1F
100
AcDbEntity
  8
1
  6
Continuous
 62
     7
100
AcDbLine
 10
260.7480185284421
 20
133.1966466935094
 30
0.0
 11
260.7480185284421
 21
133.0894008422013
 31
0.0
  0
LINE
  5
296
330
1F
100
AcDbEntity
  8
1
  6
Continuous
 62
     7
100
AcDbLine
 10
261.3007055568651
 20
133.655247087937
 30
0.0
 11
261.5638898565576
 21
133.655247087937
 31
0.0
  0
LINE
  5
297
330
1F
100
AcDbEntity
  8
1
  6
Continuous
 62
     7
100
AcDbLine
 10
261.5638898565576
 20
133.655247087937
 30
0.0
 11
261.5638898565576
 21
133.3525851437564
 31
0.0
  0
LINE
  5
298
330
1F
100
AcDbEntity
  8
1
  6
Continuous
 62
     7
100
AcDbLine
 10
261.011202826272
 20
132.8262165443713
 30
0.0
 11
262.8271744950816
 21
132.8262165443713
 31
0.0
  0
LINE
  5
299
330
1F
100
AcDbEntity
  8
1
  6
Continuous
 62
     7
100
AcDbLine
 10
221.7341430853537
 20
144.3237936359498
 30
0.0
 11
221.7341430853537
 21
134.285392817356
 31
0.0
  0
LINE
  5
29A
330
1F
100
AcDbEntity
  8
FUTOSEN
  6
Continuous
 62
     7
100
AcDbLine
 10
221.7341430853537
 20
134.285392817356
 30
0.0
 11
214.6352900737381
 21
134.285392817356
 31
0.0
  0
LINE
  5
29B
330
1F
100
AcDbEntity
  8
FUTOSEN
  6
Continuous
 62
     7
100
AcDbLine
 10
221.7341430853537
 20
144.3237936359498
 30
0.0
 11
214.6352900737381
 21
144.3237936359498
 31
0.0
  0
LINE
  5
29C
330
1F
100
AcDbEntity
  8
1
  6
Continuous
 62
     7
100
AcDbLine
 10
158.7702876641831
 20
144.3237936359498
 30
0.0
 11
158.7702876641831
 21
134.285392817356
 31
0.0
  0
LINE
  5
29D
330
1F
100
AcDbEntity
  8
FUTOSEN
  6
Continuous
 62
     7
100
AcDbLine
 10
158.7702876641831
 20
134.285392817356
 30
0.0
 11
158.2873949106267
 21
134.285392817356
 31
0.0
  0
LINE
  5
29E
330
1F
100
AcDbEntity
  8
FUTOSEN
  6
Continuous
 62
     7
100
AcDbLine
 10
158.7702876641831
 20
144.3237936359498
 30
0.0
 11
158.2873949106267
 21
144.3237936359498
 31
0.0
  0
ARC
  5
29F
330
1F
100
AcDbEntity
  8
FUTOSEN
  6
Continuous
 62
     7
100
AcDbCircle
 10
251.9227377879849
 20
161.9993227312941
 30
0.0
 40
0.9975903611630201
100
AcDbArc
 50
90.0
 51
180.0
  0
ARC
  5
2A0
330
1F
100
AcDbEntity
  8
FUTOSEN
  6
Continuous
 62
     7
100
AcDbCircle
 10
251.9227377879849
 20
116.608961285338
 30
0.0
 40
0.9975903611629917
100
AcDbArc
 50
180.0
 51
270.0
  0
ARC
  5
2A1
330
1F
100
AcDbEntity
  8
1
  6
Continuous
 62
     7
100
AcDbCircle
 10
214.0046747574068
 20
130.6849612856883
 30
0.0
 40
1.512126395906828
100
AcDbArc
 50
349.2991122479199
 51
11.7670584676064
  0
ARC
  5
2A2
330
1F
100
AcDbEntity
  8
1
  6
Continuous
 62
     7
100
AcDbCircle
 10
214.0046747572221
 20
130.6849612853096
 30
0.0
 40
1.512126396017939
100
AcDbArc
 50
318.720956978386
 51
349.2991122633206
  0
ARC
  5
2A3
330
1F
100
AcDbEntity
  8
1
  6
Continuous
 62
     7
100
AcDbCircle
 10
214.0046747576842
 20
130.6849612851325
 30
0.0
 40
1.51212639567286
100
AcDbArc
 50
11.76705849036867
 51
41.27904303325723
  0
ARC
  5
2A4
330
1F
100
AcDbEntity
  8
1
  6
Continuous
 62
     7
100
AcDbCircle
 10
166.4997559911988
 20
130.6849612856883
 30
0.0
 40
1.51212639491946
100
AcDbArc
 50
168.2329415251982
 51
190.7008877586324
  0
ARC
  5
2A5
330
1F
100
AcDbEntity
  8
1
  6
Continuous
 62
     7
100
AcDbCircle
 10
166.4997559909808
 20
130.6849612861355
 30
0.0
 40
1.512126394860532
100
AcDbArc
 50
190.700887776816
 51
221.2790431017568
  0
ARC
  5
2A6
330
1F
100
AcDbEntity
  8
1
  6
Continuous
 62
     7
100
AcDbCircle
 10
166.4997559904936
 20
130.6849612842752
 30
0.0
 40
1.512126394517195
100
AcDbArc
 50
138.7209568850786
 51
168.2329414673302
  0
ARC
  5
2A7
330
1F
100
AcDbEntity
  8
1
  6
Continuous
 62
     7
100
AcDbCircle
 10
214.0046747574068
 20
147.9233227309438
 30
0.0
 40
1.512126395831048
100
AcDbArc
 50
348.2329415323978
 51
10.70088775207696
  0
ARC
  5
2A8
330
1F
100
AcDbEntity
  8
1
  6
Continuous
 62
     7
100
AcDbCircle
 10
214.0046747577327
 20
147.9233227302753
 30
0.0
 40
1.512126395710715
100
AcDbArc
 50
10.70088777925745
 51
41.27904303767581
  0
ARC
  5
2A9
330
1F
100
AcDbEntity
  8
1
  6
Continuous
 62
     7
100
AcDbCircle
 10
214.0046747576843
 20
147.9233227314997
 30
0.0
 40
1.512126395672799
100
AcDbArc
 50
318.7209569667422
 51
348.232941509633
  0
ARC
  5
2AA
330
1F
100
AcDbEntity
  8
1
  6
Continuous
 62
     7
100
AcDbCircle
 10
166.4997559911988
 20
147.9233227309438
 30
0.0
 40
1.512126394991713
100
AcDbArc
 50
169.2991122413708
 51
191.7670584747976
  0
ARC
  5
2AB
330
1F
100
AcDbEntity
  8
1
  6
Continuous
 62
     7
100
AcDbCircle
 10
166.4997559904703
 20
147.9233227294494
 30
0.0
 40
1.512126394553328
100
AcDbArc
 50
138.7209568821821
 51
169.2991121806062
  0
ARC
  5
2AC
330
1F
100
AcDbEntity
  8
1
  6
Continuous
 62
     7
100
AcDbCircle
 10
166.4997559904935
 20
147.923322732357
 30
0.0
 40
1.512126394517163
100
AcDbArc
 50
191.7670585326679
 51
221.2790431149213
  0
ARC
  5
2AD
330
1F
100
AcDbEntity
  8
FUTOSEN
  6
Continuous
 62
     7
100
AcDbCircle
 10
162.9102876638478
 20
156.2631781527439
 30
0.0
 40
1.097349397372426
100
AcDbArc
 50
270.0
 51
90.0
  0
ARC
  5
2AE
330
1F
100
AcDbEntity
  8
FUTOSEN
  6
Continuous
 62
     7
100
AcDbCircle
 10
162.1122153751037
 20
156.2631781527439
 30
0.0
 40
1.097349397372454
100
AcDbArc
 50
90.0
 51
270.0
  0
ARC
  5
2AF
330
1F
100
AcDbEntity
  8
FUTOSEN
  6
Continuous
 62
     7
100
AcDbCircle
 10
162.9102876638478
 20
122.3451058634225
 30
0.0
 40
1.097349397838101
100
AcDbArc
 50
270.0
 51
90.0
  0
ARC
  5
2B0
330
1F
100
AcDbEntity
  8
FUTOSEN
  6
Continuous
 62
     7
100
AcDbCircle
 10
162.1122153751037
 20
122.3451058634225
 30
0.0
 40
1.097349397838002
100
AcDbArc
 50
90.0
 51
270.0
  0
ARC
  5
2B1
330
1F
100
AcDbEntity
  8
1
  6
Continuous
 62
     7
100
AcDbCircle
 10
258.3360617985434
 20
136.6407848729419
 30
0.0
 40
1.476025283217311
100
AcDbArc
 50
329.0209011736353
 51
30.97909882636468
  0
ARC
  5
2B2
330
1F
100
AcDbEntity
  8
1
  6
Continuous
 62
     7
100
AcDbCircle
 10
260.2352642217136
 20
136.6407848729419
 30
0.0
 40
1.475930166883404
100
AcDbArc
 50
149.0186843467535
 51
210.9813156532465
  0
ARC
  5
2B3
330
1F
100
AcDbEntity
  8
1
  6
Continuous
 62
     7
100
AcDbCircle
 10
258.3360617985434
 20
142.4308394675742
 30
0.0
 40
1.476025282977652
100
AcDbArc
 50
329.0209011891309
 51
30.97909881086914
  0
ARC
  5
2B4
330
1F
100
AcDbEntity
  8
1
  6
Continuous
 62
     7
100
AcDbCircle
 10
260.2352642217136
 20
142.4308394675742
 30
0.0
 40
1.47593016664373
100
AcDbArc
 50
149.0186843622497
 51
210.9813156377503
  0
ARC
  5
2B5
330
1F
100
AcDbEntity
  8
FUTOSEN
  6
Continuous
 62
     7
100
AcDbCircle
 10
222.2170358384445
 20
145.2979844350035
 30
0.0
 40
0.4235612149350345
100
AcDbArc
 50
359.9999999370131
 51
89.99999993701313
  0
ARC
  5
2B6
330
1F
100
AcDbEntity
  8
FUTOSEN
  6
Continuous
 62
     7
100
AcDbCircle
 10
222.2170358379788
 20
144.7473548513505
 30
0.0
 40
0.4235612154007242
100
AcDbArc
 50
270.0000001259776
 51
0.00000012597375
  0
ARC
  5
2B7
330
1F
100
AcDbEntity
  8
FUTOSEN
  6
Continuous
 62
     7
100
AcDbCircle
 10
222.2170358375132
 20
139.579908017781
 30
0.0
 40
0.4235612158663571
100
AcDbArc
 50
359.9999998110317
 51
89.99999981103169
  0
ARC
  5
2B8
330
1F
100
AcDbEntity
  8
FUTOSEN
  6
Continuous
 62
     7
100
AcDbCircle
 10
222.2170358384444
 20
139.0292784364563
 30
0.0
 40
0.4235612149350914
100
AcDbArc
 50
270.0000000629907
 51
0.00000006298688
  0
ARC
  5
2B9
330
1F
100
AcDbEntity
  8
FUTOSEN
  6
Continuous
 62
     7
100
AcDbCircle
 10
222.2170358389101
 20
133.8618316028865
 30
0.0
 40
0.4235612144694016
100
AcDbArc
 50
0.0
 51
90.0
  0
ARC
  5
2BA
330
1F
100
AcDbEntity
  8
FUTOSEN
  6
Continuous
 62
     7
100
AcDbCircle
 10
222.2170358375131
 20
133.3112020192336
 30
0.0
 40
0.4235612158664139
100
AcDbArc
 50
270.0000001889721
 51
0.00000018897216
  0
ARC
  5
2BB
330
1F
100
AcDbEntity
  8
FUTOSEN
  6
Continuous
 62
     7
100
AcDbCircle
 10
158.2873949106267
 20
145.2979844345379
 30
0.0
 40
0.4235612154006958
100
AcDbArc
 50
90.0
 51
180.0
  0
ARC
  5
2BC
330
1F
100
AcDbEntity
  8
FUTOSEN
  6
Continuous
 62
     7
100
AcDbCircle
 10
158.2873949110924
 20
144.7473548518161
 30
0.0
 40
0.4235612158662718
100
AcDbArc
 50
179.9999999370054
 51
269.9999999370054
  0
ARC
  5
2BD
330
1F
100
AcDbEntity
  8
FUTOSEN
  6
Continuous
 62
     7
100
AcDbCircle
 10
158.287394911558
 20
139.5799080173153
 30
0.0
 40
0.4235612163319615
100
AcDbArc
 50
90.00000012598531
 51
180.0000001259853
  0
ARC
  5
2BE
330
1F
100
AcDbEntity
  8
FUTOSEN
  6
Continuous
 62
     7
100
AcDbCircle
 10
158.2873949106267
 20
139.0292784369219
 30
0.0
 40
0.4235612154005821
100
AcDbArc
 50
180.0
 51
270.0
  0
ARC
  5
2BF
330
1F
100
AcDbEntity
  8
FUTOSEN
  6
Continuous
 62
     7
100
AcDbCircle
 10
158.2873949101612
 20
133.861831602421
 30
0.0
 40
0.4235612149350345
100
AcDbArc
 50
89.9999999370285
 51
179.9999999370285
  0
ARC
  5
2C0
330
1F
100
AcDbEntity
  8
FUTOSEN
  6
Continuous
 62
     7
100
AcDbCircle
 10
158.2873949115581
 20
133.3112020196992
 30
0.0
 40
0.42356121633199
100
AcDbArc
 50
179.999999874007
 51
269.999999874007
  0
CIRCLE
  5
2C1
330
1F
100
AcDbEntity
  8
1
  6
Continuous
 62
     7
100
AcDbCircle
 10
260.3866570904336
 20
130.6849612856883
 30
0.0
 40
0.9838537545874146
  0
CIRCLE
  5
2C2
330
1F
100
AcDbEntity
  8
1
  6
Continuous
 62
     7
100
AcDbCircle
 10
260.3866570904336
 20
147.9233227309438
 30
0.0
 40
0.9838537545874146
  0
CIRCLE
  5
2C3
330
1F
100
AcDbEntity
  8
1
  6
Continuous
 62
     7
100
AcDbCircle
 10
275.2763281497589
 20
139.3041420078504
 30
0.0
 40
1.723350222110049
  0
CIRCLE
  5
2C4
330
1F
100
AcDbEntity
  8
FUTOSEN
  6
Continuous
 62
     7
100
AcDbCircle
 10
275.2763281497589
 20
139.3041420078504
 30
0.0
 40
1.396626506000814
  0
CIRCLE
  5
2C5
330
1F
100
AcDbEntity
  8
FUTOSEN
  6
Continuous
 62
     7
100
AcDbCircle
 10
275.2763281497589
 20
139.3041420078504
 30
0.0
 40
0.7980722887442084
  0
CIRCLE
  5
2C6
330
1F
100
AcDbEntity
  8
FUTOSEN
  6
Continuous
 62
     7
100
AcDbCircle
 10
217.9931792305267
 20
156.7619733337912
 30
0.0
 40
1.097349397838116
  0
CIRCLE
  5
2C7
330
1F
100
AcDbEntity
  8
FUTOSEN
  6
Continuous
 62
     7
100
AcDbCircle
 10
217.9931792305267
 20
121.846310682841
 30
0.0
 40
1.097349397838116
  0
CIRCLE
  5
2C8
330
1F
100
AcDbEntity
  8
1
  6
Continuous
 62
     7
100
AcDbCircle
 10
275.1833509081459
 20
145.4712474935355
 30
0.0
 40
1.583919190015977
  0
CIRCLE
  5
2C9
330
1F
100
AcDbEntity
  8
1
  6
Continuous
 62
     7
100
AcDbCircle
 10
217.1233560354865
 20
136.4455550185073
 30
0.0
 40
1.300023816525908
  0
CIRCLE
  5
2CA
330
1F
100
AcDbEntity
  8
1
  6
Continuous
 62
     7
100
AcDbCircle
 10
217.1233560354865
 20
136.4455550185073
 30
0.0
 40
1.463230269961088
  0
CIRCLE
  5
2CB
330
1F
100
AcDbEntity
  8
1
  6
Continuous
 62
     7
100
AcDbCircle
 10
217.1343012466512
 20
142.3702104485262
 30
0.0
 40
1.300023817457316
  0
CIRCLE
  5
2CC
330
1F
100
AcDbEntity
  8
1
  6
Continuous
 62
     7
100
AcDbCircle
 10
217.1343012466512
 20
142.3702104485262
 30
0.0
 40
1.46323027089241
  0
CIRCLE
  5
2CD
330
1F
100
AcDbEntity
  8
1
  6
Continuous
 62
     7
100
AcDbCircle
 10
163.3810747140503
 20
136.4455550185073
 30
0.0
 40
1.300023816525993
  0
CIRCLE
  5
2CE
330
1F
100
AcDbEntity
  8
1
  6
Continuous
 62
     7
100
AcDbCircle
 10
163.3810747140503
 20
136.4455550185073
 30
0.0
 40
1.463230269961088
  0
CIRCLE
  5
2CF
330
1F
100
AcDbEntity
  8
1
  6
Continuous
 62
     7
100
AcDbCircle
 10
163.3701295028857
 20
142.3702104485262
 30
0.0
 40
1.300023816525908
  0
CIRCLE
  5
2D0
330
1F
100
AcDbEntity
  8
1
  6
Continuous
 62
     7
100
AcDbCircle
 10
163.3701295028857
 20
142.3702104485262
 30
0.0
 40
1.46323027089241
  0
ARC
  5
2D1
330
1F
100
AcDbEntity
  8
1
  6
Continuous
 62
     7
100
AcDbCircle
 10
279.605870318175
 20
116.3595636945817
 30
0.0
 40
0.2493975898251932
100
AcDbArc
 50
270.0
 51
0.0
  0
ARC
  5
2D2
330
1F
100
AcDbEntity
  8
1
  6
Continuous
 62
     7
100
AcDbCircle
 10
279.605870318175
 20
162.248720321119
 30
0.0
 40
0.2493975907564163
100
AcDbArc
 50
0.0
 51
90.0
  0
ARC
  5
2D3
330
1F
100
AcDbEntity
  8
1
  6
Continuous
 62
     7
100
AcDbCircle
 10
263.4966672775752
 20
137.9567063714044
 30
0.0
 40
0.1315921507776352
100
AcDbArc
 50
180.0
 51
270.0
  0
ARC
  5
2D4
330
1F
100
AcDbEntity
  8
1
  6
Continuous
 62
     7
100
AcDbCircle
 10
263.1018908271051
 20
137.4303377729507
 30
0.0
 40
0.2631842996925116
100
AcDbArc
 50
0.0
 51
90.0
  0
ARC
  5
2D5
330
1F
100
AcDbEntity
  8
1
  6
Continuous
 62
     7
100
AcDbCircle
 10
263.1018908271051
 20
135.8512319738645
 30
0.0
 40
0.2631842996926821
100
AcDbArc
 50
270.0
 51
0.0
  0
ARC
  5
2D6
330
1F
100
AcDbEntity
  8
1
  6
Continuous
 62
     7
100
AcDbCircle
 10
263.4966672775752
 20
135.3248633744794
 30
0.0
 40
0.13159214891499
100
AcDbArc
 50
90.0
 51
180.0
  0
ARC
  5
2D7
330
1F
100
AcDbEntity
  8
1
  6
Continuous
 62
     7
100
AcDbCircle
 10
263.6282594264901
 20
135.0616790747869
 30
0.0
 40
0.5263685993851084
100
AcDbArc
 50
270.0
 51
0.0
  0
ARC
  5
2D8
330
1F
100
AcDbEntity
  8
1
  6
Continuous
 62
     7
100
AcDbCircle
 10
263.1018908271051
 20
141.6412865670997
 30
0.0
 40
0.2631842996926252
100
AcDbArc
 50
270.0
 51
0.0
  0
ARC
  5
2D9
330
1F
100
AcDbEntity
  8
1
  6
Continuous
 62
     7
100
AcDbCircle
 10
263.1018908271051
 20
143.2203923652547
 30
0.0
 40
0.2631842996925116
100
AcDbArc
 50
0.0
 51
90.0
  0
ARC
  5
2DA
330
1F
100
AcDbEntity
  8
1
  6
Continuous
 62
     7
100
AcDbCircle
 10
263.4966672775752
 20
143.7467609646398
 30
0.0
 40
0.1315921507776352
100
AcDbArc
 50
180.0
 51
270.0
  0
ARC
  5
2DB
330
1F
100
AcDbEntity
  8
1
  6
Continuous
 62
     7
100
AcDbCircle
 10
263.6282594264901
 20
144.0099452643323
 30
0.0
 40
0.5263685993850231
100
AcDbArc
 50
0.0
 51
90.0
  0
ARC
  5
2DC
330
1F
100
AcDbEntity
  8
1
  6
Continuous
 62
     7
100
AcDbCircle
 10
262.8387065274126
 20
145.7469616423028
 30
0.0
 40
0.5263685993849663
100
AcDbArc
 50
0.0
 51
90.0
  0
ARC
  5
2DD
330
1F
100
AcDbEntity
  8
1
  6
Continuous
 62
     7
100
AcDbCircle
 10
262.4834077214307
 20
145.5495734189304
 30
0.0
 40
0.1973882261664244
100
AcDbArc
 50
0.0
 51
90.0
  0
ARC
  5
2DE
330
1F
100
AcDbEntity
  8
1
  6
Continuous
 62
     7
100
AcDbCircle
 10
261.0227348586029
 20
145.9029000925498
 30
0.0
 40
0.2631842978298096
100
AcDbArc
 50
180.0
 51
241.2940476767541
  0
ARC
  5
2DF
330
1F
100
AcDbEntity
  8
1
  6
Continuous
 62
     7
100
AcDbCircle
 10
261.0227348586029
 20
146.0101459438579
 30
0.0
 40
0.2631842978299801
100
AcDbArc
 50
90.0
 51
180.0
  0
ARC
  5
2E0
330
1F
100
AcDbEntity
  8
1
  6
Continuous
 62
     7
100
AcDbCircle
 10
256.6275570546693
 20
139.1410357209522
 30
0.0
 40
0.2631843015552136
100
AcDbArc
 50
180.0
 51
270.0
  0
ARC
  5
2E1
330
1F
100
AcDbEntity
  8
1
  6
Continuous
 62
     7
100
AcDbCircle
 10
256.6275570546693
 20
139.9305886181671
 30
0.0
 40
0.2631843015550999
100
AcDbArc
 50
90.0
 51
180.0
  0
ARC
  5
2E2
330
1F
100
AcDbEntity
  8
1
  6
Continuous
 62
     7
100
AcDbCircle
 10
256.6275570546693
 20
139.1410357209522
 30
0.0
 40
0.2631843015552136
100
AcDbArc
 50
180.0
 51
270.0
  0
ARC
  5
2E3
330
1F
100
AcDbEntity
  8
1
  6
Continuous
 62
     7
100
AcDbCircle
 10
256.6275570546693
 20
139.9305886181671
 30
0.0
 40
0.2631843015550999
100
AcDbArc
 50
90.0
 51
180.0
  0
ARC
  5
2E4
330
1F
100
AcDbEntity
  8
1
  6
Continuous
 62
     7
100
AcDbCircle
 10
256.6275570546693
 20
145.4574589135723
 30
0.0
 40
0.2631842996926821
100
AcDbArc
 50
90.0
 51
180.0
  0
ARC
  5
2E5
330
1F
100
AcDbEntity
  8
1
  6
Continuous
 62
     7
100
AcDbCircle
 10
256.6275570546693
 20
144.9310903141874
 30
0.0
 40
0.2631843015552136
100
AcDbArc
 50
180.0
 51
270.0
  0
ARC
  5
2E6
330
1F
100
AcDbEntity
  8
1
  6
Continuous
 62
     7
100
AcDbCircle
 10
256.6275570546693
 20
134.1405340249318
 30
0.0
 40
0.2631843015551851
100
AcDbArc
 50
90.0
 51
180.0
  0
ARC
  5
2E7
330
1F
100
AcDbEntity
  8
1
  6
Continuous
 62
     7
100
AcDbCircle
 10
256.6275570546693
 20
133.6141654255467
 30
0.0
 40
0.2631843015552136
100
AcDbArc
 50
180.0
 51
270.0
  0
ARC
  5
2E8
330
1F
100
AcDbEntity
  8
1
  6
Continuous
 62
     7
100
AcDbCircle
 10
262.4176116479046
 20
145.4574589135723
 30
0.0
 40
0.2631842996925116
100
AcDbArc
 50
0.0
 51
90.0
  0
ARC
  5
2E9
330
1F
100
AcDbEntity
  8
1
  6
Continuous
 62
     7
100
AcDbCircle
 10
262.4176116479046
 20
145.128478538491
 30
0.0
 40
0.2631842996925116
100
AcDbArc
 50
270.0
 51
0.0
  0
ARC
  5
2EA
330
1F
100
AcDbEntity
  8
1
  6
Continuous
 62
     7
100
AcDbCircle
 10
262.4176116479046
 20
133.943145800628
 30
0.0
 40
0.2631842996925116
100
AcDbArc
 50
0.0
 51
90.0
  0
ARC
  5
2EB
330
1F
100
AcDbEntity
  8
1
  6
Continuous
 62
     7
100
AcDbCircle
 10
262.4176116479046
 20
139.3384239452558
 30
0.0
 40
0.2631842978298096
100
AcDbArc
 50
270.0
 51
0.0
  0
ARC
  5
2EC
330
1F
100
AcDbEntity
  8
1
  6
Continuous
 62
     7
100
AcDbCircle
 10
262.4176116479046
 20
139.7332003938632
 30
0.0
 40
0.2631842996925116
100
AcDbArc
 50
0.0
 51
90.0
  0
ARC
  5
2ED
330
1F
100
AcDbEntity
  8
1
  6
Continuous
 62
     7
100
AcDbCircle
 10
262.4176116479046
 20
139.3384239452558
 30
0.0
 40
0.2631842978298096
100
AcDbArc
 50
270.0
 51
0.0
  0
ARC
  5
2EE
330
1F
100
AcDbEntity
  8
1
  6
Continuous
 62
     7
100
AcDbCircle
 10
262.4176116479046
 20
139.7332003938632
 30
0.0
 40
0.2631842996925116
100
AcDbArc
 50
0.0
 51
90.0
  0
ARC
  5
2EF
330
1F
100
AcDbEntity
  8
1
  6
Continuous
 62
     7
100
AcDbCircle
 10
216.6506201033897
 20
135.9728190845477
 30
0.0
 40
0.3376685231923773
100
AcDbArc
 50
0.0
 51
90.0
  0
ARC
  5
2F0
330
1F
100
AcDbEntity
  8
1
  6
Continuous
 62
     7
100
AcDbCircle
 10
217.5960919703773
 20
135.9728190845477
 30
0.0
 40
0.3376685231924057
100
AcDbArc
 50
90.0
 51
180.0
  0
ARC
  5
2F1
330
1F
100
AcDbEntity
  8
1
  6
Continuous
 62
     7
100
AcDbCircle
 10
217.5960919703773
 20
136.9182909515354
 30
0.0
 40
0.3376685241236999
100
AcDbArc
 50
180.0
 51
270.0
  0
ARC
  5
2F2
330
1F
100
AcDbEntity
  8
1
  6
Continuous
 62
     7
100
AcDbCircle
 10
216.6506201033897
 20
136.9182909515354
 30
0.0
 40
0.3376685241237851
100
AcDbArc
 50
270.0
 51
0.0
  0
ARC
  5
2F3
330
1F
100
AcDbEntity
  8
1
  6
Continuous
 62
     7
100
AcDbCircle
 10
216.6615653154856
 20
141.8974745145666
 30
0.0
 40
0.3376685222610831
100
AcDbArc
 50
0.0
 51
90.0
  0
ARC
  5
2F4
330
1F
100
AcDbEntity
  8
1
  6
Continuous
 62
     7
100
AcDbCircle
 10
217.6070371806106
 20
141.8974745145666
 30
0.0
 40
0.3376685250551077
100
AcDbArc
 50
90.0
 51
180.0
  0
ARC
  5
2F5
330
1F
100
AcDbEntity
  8
1
  6
Continuous
 62
     7
100
AcDbCircle
 10
217.6070371806106
 20
142.842946380623
 30
0.0
 40
0.3376685222609979
100
AcDbArc
 50
180.0
 51
270.0
  0
ARC
  5
2F6
330
1F
100
AcDbEntity
  8
1
  6
Continuous
 62
     7
100
AcDbCircle
 10
216.6615653154856
 20
142.842946380623
 30
0.0
 40
0.337668523192491
100
AcDbArc
 50
270.0
 51
0.0
  0
ARC
  5
2F7
330
1F
100
AcDbEntity
  8
1
  6
Continuous
 62
     7
100
AcDbCircle
 10
163.8538106461472
 20
135.9728190845477
 30
0.0
 40
0.3376685231924057
100
AcDbArc
 50
90.0
 51
180.0
  0
ARC
  5
2F8
330
1F
100
AcDbEntity
  8
1
  6
Continuous
 62
     7
100
AcDbCircle
 10
162.9083387791595
 20
135.9728190845477
 30
0.0
 40
0.3376685231924057
100
AcDbArc
 50
0.0
 51
90.0
  0
ARC
  5
2F9
330
1F
100
AcDbEntity
  8
1
  6
Continuous
 62
     7
100
AcDbCircle
 10
162.9083387791595
 20
136.9182909515354
 30
0.0
 40
0.3376685241237851
100
AcDbArc
 50
270.0
 51
0.0
  0
ARC
  5
2FA
330
1F
100
AcDbEntity
  8
1
  6
Continuous
 62
     7
100
AcDbCircle
 10
163.8538106461472
 20
136.9182909515354
 30
0.0
 40
0.3376685231924057
100
AcDbArc
 50
180.0
 51
270.0
  0
ARC
  5
2FB
330
1F
100
AcDbEntity
  8
1
  6
Continuous
 62
     7
100
AcDbCircle
 10
163.8428654340512
 20
141.8974745145666
 30
0.0
 40
0.3376685250551077
100
AcDbArc
 50
90.0
 51
180.0
  0
ARC
  5
2FC
330
1F
100
AcDbEntity
  8
1
  6
Continuous
 62
     7
100
AcDbCircle
 10
162.8973935689262
 20
141.8974745145666
 30
0.0
 40
0.3376685213298174
100
AcDbArc
 50
0.0
 51
90.0
  0
ARC
  5
2FD
330
1F
100
AcDbEntity
  8
1
  6
Continuous
 62
     7
100
AcDbCircle
 10
162.8973935689262
 20
142.842946380623
 30
0.0
 40
0.337668523192491
100
AcDbArc
 50
270.0
 51
0.0
  0
ARC
  5
2FE
330
1F
100
AcDbEntity
  8
1
  6
Continuous
 62
     7
100
AcDbCircle
 10
163.8428654340512
 20
142.842946380623
 30
0.0
 40
0.3376685222610831
100
AcDbArc
 50
180.0
 51
270.0
  0
ARC
  5
2FF
330
1F
100
AcDbEntity
  8
1
  6
Continuous
 62
     7
100
AcDbCircle
 10
262.8271744950816
 20
133.3525851437564
 30
0.0
 40
0.52636859938508
100
AcDbArc
 50
270.0
 51
0.0
  0
ARC
  5
300
330
1F
100
AcDbEntity
  8
1
  6
Continuous
 62
     7
100
AcDbCircle
 10
262.5015556029064
 20
133.5299635549845
 30
0.0
 40
0.1794149102729418
100
AcDbArc
 50
267.4722969613958
 51
357.472296961529
  0
ARC
  5
301
330
1F
100
AcDbEntity
  8
1
  6
Continuous
 62
     7
100
AcDbCircle
 10
261.011202826272
 20
133.1966466935094
 30
0.0
 40
0.2631842994030973
100
AcDbArc
 50
118.7059523232231
 51
180.0
  0
ARC
  5
302
330
1F
100
AcDbEntity
  8
1
  6
Continuous
 62
     7
100
AcDbCircle
 10
261.011202826272
 20
133.0894008422013
 30
0.0
 40
0.2631842978298664
100
AcDbArc
 50
180.0
 51
270.0
  0
TEXT
  5
326
330
1F
100
AcDbEntity
  8
1
 62
     7
100
AcDbText
 10
161.4204236134372
 20
117.2542543106379
 30
0.0
 40
2.45
  1
IN
 50
-0.00000000000001
 41
0.9
  7
CONVERTER_11
100
AcDbText
  0
ENDSEC
  0
SECTION
  2
OBJECTS
  0
DICTIONARY
  5
C
330
0
100
AcDbDictionary
281
     1
  3
ACAD_GROUP
350
D
  3
ACAD_LAYOUT
350
1A
  3
ACAD_MATERIAL
350
3B
  3
ACAD_MLEADERSTYLE
350
329
  3
ACAD_MLINESTYLE
350
17
  3
ACAD_PLOTSETTINGS
350
19
  3
ACAD_PLOTSTYLENAME
350
E
  3
ACAD_SCALELIST
350
304
  3
ACAD_VISUALSTYLE
350
2A
  3
AcDbVariableDictionary
350
327
  0
DICTIONARY
  5
D
102
{ACAD_REACTORS
330
C
102
}
330
C
100
AcDbDictionary
281
     1
  0
DICTIONARY
  5
1A
102
{ACAD_REACTORS
330
C
102
}
330
C
100
AcDbDictionary
281
     1
  3
Layout1
350
1E
  3
Layout2
350
26
  3
Model
350
22
  0
DICTIONARY
  5
3B
102
{ACAD_REACTORS
330
C
102
}
330
C
100
AcDbDictionary
281
     1
  3
ByBlock
350
3D
  3
ByLayer
350
3C
  3
Global
350
3E
  0
DICTIONARY
  5
329
102
{ACAD_REACTORS
330
C
102
}
330
C
100
AcDbDictionary
281
     1
  0
DICTIONARY
  5
17
102
{ACAD_REACTORS
330
C
102
}
330
C
100
AcDbDictionary
281
     1
  3
Standard
350
18
  0
DICTIONARY
  5
19
102
{ACAD_REACTORS
330
C
102
}
330
C
100
AcDbDictionary
281
     1
  0
ACDBDICTIONARYWDFLT
  5
E
102
{ACAD_REACTORS
330
C
102
}
330
C
100
AcDbDictionary
281
     1
  3
Normal
350
F
100
AcDbDictionaryWithDefault
340
F
  0
DICTIONARY
  5
304
102
{ACAD_REACTORS
330
C
102
}
330
C
100
AcDbDictionary
281
     1
  3
A0
350
305
  3
A1
350
306
  3
A2
350
307
  3
A3
350
308
  3
A4
350
309
  3
A5
350
30A
  3
A6
350
30B
  3
A7
350
30C
  3
A8
350
30D
  3
A9
350
30E
  3
B0
350
30F
  3
B1
350
310
  3
B2
350
311
  3
B3
350
312
  3
B4
350
313
  3
B5
350
314
  3
B6
350
315
  3
B7
350
316
  3
B8
350
317
  3
B9
350
318
  3
C0
350
319
  3
C1
350
31A
  3
C2
350
31B
  3
C3
350
31C
  3
C4
350
31D
  3
C5
350
31E
  3
C6
350
31F
  3
C7
350
320
  3
C8
350
321
  3
C9
350
322
  3
D0
350
323
  3
D1
350
324
  3
D2
350
325
  0
DICTIONARY
  5
2A
102
{ACAD_REACTORS
330
C
102
}
330
C
100
AcDbDictionary
281
     1
  3
2dWireframe
350
2F
  3
3D Hidden
350
31
  3
3dWireframe
350
30
  3
Basic
350
32
  3
Brighten
350
36
  3
ColorChange
350
3A
  3
Conceptual
350
34
  3
Dim
350
35
  3
Facepattern
350
39
  3
Flat
350
2B
  3
FlatWithEdges
350
2C
  3
Gouraud
350
2D
  3
GouraudWithEdges
350
2E
  3
Linepattern
350
38
  3
Realistic
350
33
  3
Thicken
350
37
  0
DICTIONARY
  5
327
102
{ACAD_REACTORS
330
C
102
}
330
C
100
AcDbDictionary
281
     1
  3
CANNOSCALE
350
32A
  3
DIMASSOC
350
32B
  3
HIDETEXT
350
32C
  0
LAYOUT
  5
1E
102
{ACAD_REACTORS
330
1A
102
}
330
1A
100
AcDbPlotSettings
  1

  2
none_device
  4

  6

 40
0.0
 41
0.0
 42
0.0
 43
0.0
 44
0.0
 45
0.0
 46
0.0
 47
0.0
 48
0.0
 49
0.0
140
0.0
141
0.0
142
1.0
143
1.0
 70
   688
 72
     0
 73
     0
 74
     5
  7

 75
    16
147
1.0
148
0.0
149
0.0
100
AcDbLayout
  1
Layout1
 70
     1
 71
     1
 10
0.0
 20
0.0
 11
12.0
 21
9.0
 12
0.0
 22
0.0
 32
0.0
 14
1.00000000000000E+20
 24
1.00000000000000E+20
 34
1.00000000000000E+20
 15
-1.00000000000000E+20
 25
-1.00000000000000E+20
 35
-1.00000000000000E+20
146
0.0
 13
0.0
 23
0.0
 33
0.0
 16
1.0
 26
0.0
 36
0.0
 17
0.0
 27
1.0
 37
0.0
 76
     0
330
1B
  0
LAYOUT
  5
26
102
{ACAD_REACTORS
330
1A
102
}
330
1A
100
AcDbPlotSettings
  1

  2
none_device
  4

  6

 40
0.0
 41
0.0
 42
0.0
 43
0.0
 44
0.0
 45
0.0
 46
0.0
 47
0.0
 48
0.0
 49
0.0
140
0.0
141
0.0
142
1.0
143
1.0
 70
   688
 72
     0
 73
     0
 74
     5
  7

 75
    16
147
1.0
148
0.0
149
0.0
100
AcDbLayout
  1
Layout2
 70
     1
 71
     2
 10
0.0
 20
0.0
 11
0.0
 21
0.0
 12
0.0
 22
0.0
 32
0.0
 14
0.0
 24
0.0
 34
0.0
 15
0.0
 25
0.0
 35
0.0
146
0.0
 13
0.0
 23
0.0
 33
0.0
 16
1.0
 26
0.0
 36
0.0
 17
0.0
 27
1.0
 37
0.0
 76
     0
330
23
  0
LAYOUT
  5
22
102
{ACAD_REACTORS
330
1A
102
}
330
1A
100
AcDbPlotSettings
  1

  2
none_device
  4

  6

 40
0.0
 41
0.0
 42
0.0
 43
0.0
 44
0.0
 45
0.0
 46
0.0
 47
0.0
 48
0.0
 49
0.0
140
0.0
141
0.0
142
1.0
143
1.0
 70
  1712
 72
     0
 73
     0
 74
     0
  7

 75
     0
147
1.0
148
0.0
149
0.0
100
AcDbLayout
  1
Model
 70
     1
 71
     0
 10
0.0
 20
0.0
 11
12.0
 21
9.0
 12
0.0
 22
0.0
 32
0.0
 14
157.8638336952261
 24
115.611370924175
 34
0.0
 15
279.8552679089314
 25
162.9969130924571
 35
0.0
146
0.0
 13
0.0
 23
0.0
 33
0.0
 16
1.0
 26
0.0
 36
0.0
 17
0.0
 27
1.0
 37
0.0
 76
     0
330
1F
331
29
  0
MATERIAL
  5
3D
102
{ACAD_REACTORS
330
3B
102
}
102
{ACAD_XDICTIONARY
360
34F
102
}
330
3B
100
AcDbMaterial
  1
ByBlock
  0
MATERIAL
  5
3C
102
{ACAD_REACTORS
330
3B
102
}
102
{ACAD_XDICTIONARY
360
34D
102
}
330
3B
100
AcDbMaterial
  1
ByLayer
  0
MATERIAL
  5
3E
102
{ACAD_REACTORS
330
3B
102
}
102
{ACAD_XDICTIONARY
360
351
102
}
330
3B
100
AcDbMaterial
  1
Global
  0
MLINESTYLE
  5
18
102
{ACAD_REACTORS
330
17
102
}
330
17
100
AcDbMlineStyle
  2
Standard
 70
     0
  3

 62
   256
 51
90.0
 52
90.0
 71
     2
 49
0.5
 62
   256
  6
BYLAYER
 49
-0.5
 62
   256
  6
BYLAYER
  0
ACDBPLACEHOLDER
  5
F
102
{ACAD_REACTORS
330
E
102
}
330
E
  0
SCALE
  5
305
102
{ACAD_REACTORS
330
304
102
}
330
304
100
AcDbScale
 70
     0
300
1:1
140
1.0
141
1.0
290
     1
  0
SCALE
  5
306
102
{ACAD_REACTORS
330
304
102
}
330
304
100
AcDbScale
 70
     0
300
1:2
140
1.0
141
2.0
290
     0
  0
SCALE
  5
307
102
{ACAD_REACTORS
330
304
102
}
330
304
100
AcDbScale
 70
     0
300
1:4
140
1.0
141
4.0
290
     0
  0
SCALE
  5
308
102
{ACAD_REACTORS
330
304
102
}
330
304
100
AcDbScale
 70
     0
300
1:5
140
1.0
141
5.0
290
     0
  0
SCALE
  5
309
102
{ACAD_REACTORS
330
304
102
}
330
304
100
AcDbScale
 70
     0
300
1:8
140
1.0
141
8.0
290
     0
  0
SCALE
  5
30A
102
{ACAD_REACTORS
330
304
102
}
330
304
100
AcDbScale
 70
     0
300
1:10
140
1.0
141
10.0
290
     0
  0
SCALE
  5
30B
102
{ACAD_REACTORS
330
304
102
}
330
304
100
AcDbScale
 70
     0
300
1:16
140
1.0
141
16.0
290
     0
  0
SCALE
  5
30C
102
{ACAD_REACTORS
330
304
102
}
330
304
100
AcDbScale
 70
     0
300
1:20
140
1.0
141
20.0
290
     0
  0
SCALE
  5
30D
102
{ACAD_REACTORS
330
304
102
}
330
304
100
AcDbScale
 70
     0
300
1:30
140
1.0
141
30.0
290
     0
  0
SCALE
  5
30E
102
{ACAD_REACTORS
330
304
102
}
330
304
100
AcDbScale
 70
     0
300
1:40
140
1.0
141
40.0
290
     0
  0
SCALE
  5
30F
102
{ACAD_REACTORS
330
304
102
}
330
304
100
AcDbScale
 70
     0
300
1:50
140
1.0
141
50.0
290
     0
  0
SCALE
  5
310
102
{ACAD_REACTORS
330
304
102
}
330
304
100
AcDbScale
 70
     0
300
1:100
140
1.0
141
100.0
290
     0
  0
SCALE
  5
311
102
{ACAD_REACTORS
330
304
102
}
330
304
100
AcDbScale
 70
     0
300
2:1
140
2.0
141
1.0
290
     0
  0
SCALE
  5
312
102
{ACAD_REACTORS
330
304
102
}
330
304
100
AcDbScale
 70
     0
300
4:1
140
4.0
141
1.0
290
     0
  0
SCALE
  5
313
102
{ACAD_REACTORS
330
304
102
}
330
304
100
AcDbScale
 70
     0
300
8:1
140
8.0
141
1.0
290
     0
  0
SCALE
  5
314
102
{ACAD_REACTORS
330
304
102
}
330
304
100
AcDbScale
 70
     0
300
10:1
140
10.0
141
1.0
290
     0
  0
SCALE
  5
315
102
{ACAD_REACTORS
330
304
102
}
330
304
100
AcDbScale
 70
     0
300
100:1
140
100.0
141
1.0
290
     0
  0
SCALE
  5
316
102
{ACAD_REACTORS
330
304
102
}
330
304
100
AcDbScale
 70
     0
300
1/128" = 1'-0"
140
0.0078125
141
12.0
290
     0
  0
SCALE
  5
317
102
{ACAD_REACTORS
330
304
102
}
330
304
100
AcDbScale
 70
     0
300
1/64" = 1'-0"
140
0.015625
141
12.0
290
     0
  0
SCALE
  5
318
102
{ACAD_REACTORS
330
304
102
}
330
304
100
AcDbScale
 70
     0
300
1/32" = 1'-0"
140
0.03125
141
12.0
290
     0
  0
SCALE
  5
319
102
{ACAD_REACTORS
330
304
102
}
330
304
100
AcDbScale
 70
     0
300
1/16" = 1'-0"
140
0.0625
141
12.0
290
     0
  0
SCALE
  5
31A
102
{ACAD_REACTORS
330
304
102
}
330
304
100
AcDbScale
 70
     0
300
3/32" = 1'-0"
140
0.09375
141
12.0
290
     0
  0
SCALE
  5
31B
102
{ACAD_REACTORS
330
304
102
}
330
304
100
AcDbScale
 70
     0
300
1/8" = 1'-0"
140
0.125
141
12.0
290
     0
  0
SCALE
  5
31C
102
{ACAD_REACTORS
330
304
102
}
330
304
100
AcDbScale
 70
     0
300
3/16" = 1'-0"
140
0.1875
141
12.0
290
     0
  0
SCALE
  5
31D
102
{ACAD_REACTORS
330
304
102
}
330
304
100
AcDbScale
 70
     0
300
1/4" = 1'-0"
140
0.25
141
12.0
290
     0
  0
SCALE
  5
31E
102
{ACAD_REACTORS
330
304
102
}
330
304
100
AcDbScale
 70
     0
300
3/8" = 1'-0"
140
0.375
141
12.0
290
     0
  0
SCALE
  5
31F
102
{ACAD_REACTORS
330
304
102
}
330
304
100
AcDbScale
 70
     0
300
1/2" = 1'-0"
140
0.5
141
12.0
290
     0
  0
SCALE
  5
320
102
{ACAD_REACTORS
330
304
102
}
330
304
100
AcDbScale
 70
     0
300
3/4" = 1'-0"
140
0.75
141
12.0
290
     0
  0
SCALE
  5
321
102
{ACAD_REACTORS
330
304
102
}
330
304
100
AcDbScale
 70
     0
300
1" = 1'-0"
140
1.0
141
12.0
290
     0
  0
SCALE
  5
322
102
{ACAD_REACTORS
330
304
102
}
330
304
100
AcDbScale
 70
     0
300
1-1/2" = 1'-0"
140
1.5
141
12.0
290
     0
  0
SCALE
  5
323
102
{ACAD_REACTORS
330
304
102
}
330
304
100
AcDbScale
 70
     0
300
3" = 1'-0"
140
3.0
141
12.0
290
     0
  0
SCALE
  5
324
102
{ACAD_REACTORS
330
304
102
}
330
304
100
AcDbScale
 70
     0
300
6" = 1'-0"
140
6.0
141
12.0
290
     0
  0
SCALE
  5
325
102
{ACAD_REACTORS
330
304
102
}
330
304
100
AcDbScale
 70
     0
300
1'-0" = 1'-0"
140
12.0
141
12.0
290
     0
  0
VISUALSTYLE
  5
2F
102
{ACAD_REACTORS
330
2A
102
}
102
{ACAD_XDICTIONARY
360
335
102
}
330
2A
100
AcDbVisualStyle
  2
2dWireframe
 70
     4
 71
     0
 72
     2
 73
     0
 90
        0
 40
-0.6
 41
-30.0
 62
     5
 63
     7
 74
     1
 91
        4
 64
     7
 65
   257
 75
     1
175
     1
 42
1.0
 92
        0
 66
   257
 43
1.0
 76
     1
 77
     6
 78
     2
 67
     7
 79
     5
170
     0
171
     0
290
     0
174
     0
 93
        1
 44
0.0
173
     0
291
     0
 45
0.0
1001
ACAD
1000
AcDbSavedByObjectVersion
1070
     0
  0
VISUALSTYLE
  5
31
102
{ACAD_REACTORS
330
2A
102
}
102
{ACAD_XDICTIONARY
360
339
102
}
330
2A
100
AcDbVisualStyle
  2
3D Hidden
 70
     6
 71
     1
 72
     2
 73
     2
 90
        0
 40
-0.6
 41
-30.0
 62
     5
 63
     7
 74
     2
 91
        2
 64
     7
 65
   257
 75
     2
175
     1
 42
40.0
 92
        0
 66
   257
 43
1.0
 76
     1
 77
     6
 78
     2
 67
     7
 79
     3
170
     0
171
     0
290
     0
174
     0
 93
        1
 44
0.0
173
     0
291
     0
 45
0.0
1001
ACAD
1000
AcDbSavedByObjectVersion
1070
     0
  0
VISUALSTYLE
  5
30
102
{ACAD_REACTORS
330
2A
102
}
102
{ACAD_XDICTIONARY
360
337
102
}
330
2A
100
AcDbVisualStyle
  2
3dWireframe
 70
     5
 71
     0
 72
     2
 73
     0
 90
        0
 40
-0.6
 41
-30.0
 62
     5
 63
     7
 74
     1
 91
        4
 64
     7
 65
   257
 75
     1
175
     1
 42
1.0
 92
        0
 66
   257
 43
1.0
 76
     1
 77
     6
 78
     2
 67
     7
 79
     5
170
     0
171
     0
290
     0
174
     0
 93
        1
 44
0.0
173
     0
291
     0
 45
0.0
1001
ACAD
1000
AcDbSavedByObjectVersion
1070
     0
  0
VISUALSTYLE
  5
32
102
{ACAD_REACTORS
330
2A
102
}
102
{ACAD_XDICTIONARY
360
33B
102
}
330
2A
100
AcDbVisualStyle
  2
Basic
 70
     7
 71
     1
 72
     0
 73
     1
 90
        0
 40
-0.6
 41
-30.0
 62
     5
 63
     7
 74
     0
 91
        4
 64
     7
 65
   257
 75
     1
175
     1
 42
1.0
 92
        8
 66
     7
 43
1.0
 76
     1
 77
     6
 78
     2
 67
     7
 79
     5
170
     0
171
     0
290
     0
174
     0
 93
        1
 44
0.0
173
     0
291
     1
 45
0.0
1001
ACAD
1000
AcDbSavedByObjectVersion
1070
     0
  0
VISUALSTYLE
  5
36
102
{ACAD_REACTORS
330
2A
102
}
102
{ACAD_XDICTIONARY
360
343
102
}
330
2A
100
AcDbVisualStyle
  2
Brighten
 70
    12
 71
     2
 72
     2
 73
     0
 90
        0
 40
-0.6
 41
-30.0
 62
     5
 63
     7
 74
     1
 91
        4
 64
     7
 65
   257
 75
     1
175
     1
 42
1.0
 92
        8
 66
     7
 43
1.0
 76
     1
 77
     6
 78
     2
 67
     7
 79
     5
170
     0
171
     0
290
     0
174
     0
 93
        1
 44
50.0
173
     0
291
     1
 45
0.0
1001
ACAD
1000
AcDbSavedByObjectVersion
1070
     0
  0
VISUALSTYLE
  5
3A
102
{ACAD_REACTORS
330
2A
102
}
102
{ACAD_XDICTIONARY
360
34B
102
}
330
2A
100
AcDbVisualStyle
  2
ColorChange
 70
    16
 71
     2
 72
     2
 73
     3
 90
        0
 40
-0.6
 41
-30.0
 62
     5
 63
     8
 74
     1
 91
        4
 64
     7
 65
   257
 75
     1
175
     1
 42
1.0
 92
        8
 66
     8
 43
1.0
 76
     1
 77
     6
 78
     2
 67
     7
 79
     5
170
     0
171
     0
290
     0
174
     0
 93
        1
 44
0.0
173
     0
291
     1
 45
0.0
1001
ACAD
1000
AcDbSavedByObjectVersion
1070
     0
  0
VISUALSTYLE
  5
34
102
{ACAD_REACTORS
330
2A
102
}
102
{ACAD_XDICTIONARY
360
33F
102
}
330
2A
100
AcDbVisualStyle
  2
Conceptual
 70
     9
 71
     3
 72
     2
 73
     0
 90
        0
 40
-0.6
 41
-30.0
 62
     5
 63
     7
 74
     2
 91
        2
 64
     7
 65
   257
 75
     1
175
     1
 42
40.0
 92
        8
 66
     7
 43
1.0
 76
     1
 77
     6
 78
     2
 67
     7
 79
     3
170
     0
171
     0
290
     0
174
     0
 93
        1
 44
0.0
173
     0
291
     0
 45
0.0
1001
ACAD
1000
AcDbSavedByObjectVersion
1070
     0
  0
VISUALSTYLE
  5
35
102
{ACAD_REACTORS
330
2A
102
}
102
{ACAD_XDICTIONARY
360
341
102
}
330
2A
100
AcDbVisualStyle
  2
Dim
 70
    11
 71
     2
 72
     2
 73
     0
 90
        0
 40
-0.6
 41
-30.0
 62
     5
 63
     7
 74
     1
 91
        4
 64
     7
 65
   257
 75
     1
175
     1
 42
1.0
 92
        8
 66
     7
 43
1.0
 76
     1
 77
     6
 78
     2
 67
     7
 79
     5
170
     0
171
     0
290
     0
174
     0
 93
        1
 44
-50.0
173
     0
291
     1
 45
0.0
1001
ACAD
1000
AcDbSavedByObjectVersion
1070
     0
  0
VISUALSTYLE
  5
39
102
{ACAD_REACTORS
330
2A
102
}
102
{ACAD_XDICTIONARY
360
349
102
}
330
2A
100
AcDbVisualStyle
  2
Facepattern
 70
    15
 71
     2
 72
     2
 73
     0
 90
        0
 40
-0.6
 41
-30.0
 62
     5
 63
     7
 74
     1
 91
        4
 64
     7
 65
   257
 75
     1
175
     1
 42
1.0
 92
        8
 66
     7
 43
1.0
 76
     1
 77
     6
 78
     2
 67
     7
 79
     5
170
     0
171
     0
290
     0
174
     0
 93
        1
 44
0.0
173
     0
291
     1
 45
0.0
1001
ACAD
1000
AcDbSavedByObjectVersion
1070
     0
  0
VISUALSTYLE
  5
2B
102
{ACAD_REACTORS
330
2A
102
}
102
{ACAD_XDICTIONARY
360
32D
102
}
330
2A
100
AcDbVisualStyle
  2
Flat
 70
     0
 71
     2
 72
     1
 73
     1
 90
        2
 40
-0.6
 41
30.0
 62
     5
 63
     7
 74
     0
 91
        4
 64
     7
 65
   257
 75
     1
175
     1
 42
1.0
 92
        8
 66
     7
 43
1.0
 76
     1
 77
     6
 78
     2
 67
     7
 79
     5
170
     0
171
     0
290
     0
174
     0
 93
       13
 44
0.0
173
     0
291
     1
 45
0.0
1001
ACAD
1000
AcDbSavedByObjectVersion
1070
     0
  0
VISUALSTYLE
  5
2C
102
{ACAD_REACTORS
330
2A
102
}
102
{ACAD_XDICTIONARY
360
32F
102
}
330
2A
100
AcDbVisualStyle
  2
FlatWithEdges
 70
     1
 71
     2
 72
     1
 73
     1
 90
        2
 40
-0.6
 41
30.0
 62
     5
 63
     7
 74
     1
 91
        4
 64
     7
 65
   257
 75
     1
175
     1
 42
1.0
 92
        0
 66
   257
 43
1.0
 76
     1
 77
     6
 78
     2
 67
     7
 79
     5
170
     0
171
     0
290
     0
174
     0
 93
       13
 44
0.0
173
     0
291
     1
 45
0.0
1001
ACAD
1000
AcDbSavedByObjectVersion
1070
     0
  0
VISUALSTYLE
  5
2D
102
{ACAD_REACTORS
330
2A
102
}
102
{ACAD_XDICTIONARY
360
331
102
}
330
2A
100
AcDbVisualStyle
  2
Gouraud
 70
     2
 71
     2
 72
     2
 73
     1
 90
        2
 40
-0.6
 41
30.0
 62
     5
 63
     7
 74
     0
 91
        4
 64
     7
 65
   257
 75
     1
175
     1
 42
1.0
 92
        0
 66
     7
 43
1.0
 76
     1
 77
     6
 78
     2
 67
     7
 79
     5
170
     0
171
     0
290
     0
174
     0
 93
       13
 44
0.0
173
     0
291
     1
 45
0.0
1001
ACAD
1000
AcDbSavedByObjectVersion
1070
     0
  0
VISUALSTYLE
  5
2E
102
{ACAD_REACTORS
330
2A
102
}
102
{ACAD_XDICTIONARY
360
333
102
}
330
2A
100
AcDbVisualStyle
  2
GouraudWithEdges
 70
     3
 71
     2
 72
     2
 73
     1
 90
        2
 40
-0.6
 41
30.0
 62
     5
 63
     7
 74
     1
 91
        4
 64
     7
 65
   257
 75
     1
175
     1
 42
1.0
 92
        0
 66
   257
 43
1.0
 76
     1
 77
     6
 78
     2
 67
     7
 79
     5
170
     0
171
     0
290
     0
174
     0
 93
       13
 44
0.0
173
     0
291
     1
 45
0.0
1001
ACAD
1000
AcDbSavedByObjectVersion
1070
     0
  0
VISUALSTYLE
  5
38
102
{ACAD_REACTORS
330
2A
102
}
102
{ACAD_XDICTIONARY
360
347
102
}
330
2A
100
AcDbVisualStyle
  2
Linepattern
 70
    14
 71
     2
 72
     2
 73
     0
 90
        0
 40
-0.6
 41
-30.0
 62
     5
 63
     7
 74
     1
 91
        4
 64
     7
 65
   257
 75
     7
175
     7
 42
1.0
 92
        8
 66
     7
 43
1.0
 76
     1
 77
     6
 78
     2
 67
     7
 79
     5
170
     0
171
     0
290
     0
174
     0
 93
        1
 44
0.0
173
     0
291
     1
 45
0.0
1001
ACAD
1000
AcDbSavedByObjectVersion
1070
     0
  0
VISUALSTYLE
  5
33
102
{ACAD_REACTORS
330
2A
102
}
102
{ACAD_XDICTIONARY
360
33D
102
}
330
2A
100
AcDbVisualStyle
  2
Realistic
 70
     8
 71
     2
 72
     2
 73
     0
 90
        0
 40
-0.6
 41
-30.0
 62
     5
 63
     7
 74
     1
 91
        0
 64
     7
 65
   257
 75
     1
175
     1
 42
1.0
 92
        8
 66
     8
 43
1.0
 76
     1
 77
     6
 78
     2
 67
     7
 79
     5
170
     0
171
     0
290
     0
174
     0
 93
       13
 44
0.0
173
     0
291
     0
 45
0.0
1001
ACAD
1000
AcDbSavedByObjectVersion
1070
     0
  0
VISUALSTYLE
  5
37
102
{ACAD_REACTORS
330
2A
102
}
102
{ACAD_XDICTIONARY
360
345
102
}
330
2A
100
AcDbVisualStyle
  2
Thicken
 70
    13
 71
     2
 72
     2
 73
     0
 90
        0
 40
-0.6
 41
-30.0
 62
     5
 63
     7
 74
     1
 91
        4
 64
     7
 65
   257
 75
     1
175
     1
 42
1.0
 92
       12
 66
     7
 43
1.0
 76
     1
 77
     6
 78
     2
 67
     7
 79
     5
170
     0
171
     0
290
     0
174
     0
 93
        1
 44
0.0
173
     0
291
     1
 45
0.0
1001
ACAD
1000
AcDbSavedByObjectVersion
1070
     0
  0
DICTIONARYVAR
  5
32A
102
{ACAD_REACTORS
330
327
102
}
330
327
100
DictionaryVariables
280
     0
  1
1:1
  0
DICTIONARYVAR
  5
32B
102
{ACAD_REACTORS
330
327
102
}
330
327
100
DictionaryVariables
280
     0
  1
2
  0
DICTIONARYVAR
  5
32C
102
{ACAD_REACTORS
330
327
102
}
330
327
100
DictionaryVariables
280
     0
  1
1
  0
DICTIONARY
  5
34F
330
3D
100
AcDbDictionary
280
     1
281
     1
  3
ACAD_XREC_ROUNDTRIP
360
350
  0
DICTIONARY
  5
34D
330
3C
100
AcDbDictionary
280
     1
281
     1
  3
ACAD_XREC_ROUNDTRIP
360
34E
  0
DICTIONARY
  5
351
330
3E
100
AcDbDictionary
280
     1
281
     1
  3
ACAD_XREC_ROUNDTRIP
360
352
  0
DICTIONARY
  5
335
330
2F
100
AcDbDictionary
280
     1
281
     1
  3
ACAD_XREC_ROUNDTRIP
360
336
  0
DICTIONARY
  5
339
330
31
100
AcDbDictionary
280
     1
281
     1
  3
ACAD_XREC_ROUNDTRIP
360
33A
  0
DICTIONARY
  5
337
330
30
100
AcDbDictionary
280
     1
281
     1
  3
ACAD_XREC_ROUNDTRIP
360
338
  0
DICTIONARY
  5
33B
330
32
100
AcDbDictionary
280
     1
281
     1
  3
ACAD_XREC_ROUNDTRIP
360
33C
  0
DICTIONARY
  5
343
330
36
100
AcDbDictionary
280
     1
281
     1
  3
ACAD_XREC_ROUNDTRIP
360
344
  0
DICTIONARY
  5
34B
330
3A
100
AcDbDictionary
280
     1
281
     1
  3
ACAD_XREC_ROUNDTRIP
360
34C
  0
DICTIONARY
  5
33F
330
34
100
AcDbDictionary
280
     1
281
     1
  3
ACAD_XREC_ROUNDTRIP
360
340
  0
DICTIONARY
  5
341
330
35
100
AcDbDictionary
280
     1
281
     1
  3
ACAD_XREC_ROUNDTRIP
360
342
  0
DICTIONARY
  5
349
330
39
100
AcDbDictionary
280
     1
281
     1
  3
ACAD_XREC_ROUNDTRIP
360
34A
  0
DICTIONARY
  5
32D
330
2B
100
AcDbDictionary
280
     1
281
     1
  3
ACAD_XREC_ROUNDTRIP
360
32E
  0
DICTIONARY
  5
32F
330
2C
100
AcDbDictionary
280
     1
281
     1
  3
ACAD_XREC_ROUNDTRIP
360
330
  0
DICTIONARY
  5
331
330
2D
100
AcDbDictionary
280
     1
281
     1
  3
ACAD_XREC_ROUNDTRIP
360
332
  0
DICTIONARY
  5
333
330
2E
100
AcDbDictionary
280
     1
281
     1
  3
ACAD_XREC_ROUNDTRIP
360
334
  0
DICTIONARY
  5
347
330
38
100
AcDbDictionary
280
     1
281
     1
  3
ACAD_XREC_ROUNDTRIP
360
348
  0
DICTIONARY
  5
33D
330
33
100
AcDbDictionary
280
     1
281
     1
  3
ACAD_XREC_ROUNDTRIP
360
33E
  0
DICTIONARY
  5
345
330
37
100
AcDbDictionary
280
     1
281
     1
  3
ACAD_XREC_ROUNDTRIP
360
346
  0
XRECORD
  5
350
102
{ACAD_REACTORS
330
34F
102
}
330
34F
100
AcDbXrecord
280
     1
102
MATERIAL
148
0.0
149
0.0
149
0.0
 93
        0
 94
      127
282
     0
 72
     1
 77
     1
171
     1
175
     1
179
     1
273
     0
  0
XRECORD
  5
34E
102
{ACAD_REACTORS
330
34D
102
}
330
34D
100
AcDbXrecord
280
     1
102
MATERIAL
148
0.0
149
0.0
149
0.0
 93
        0
 94
      127
282
     0
 72
     1
 77
     1
171
     1
175
     1
179
     1
273
     0
  0
XRECORD
  5
352
102
{ACAD_REACTORS
330
351
102
}
330
351
100
AcDbXrecord
280
     1
102
MATERIAL
148
0.0
149
0.0
149
0.0
 93
        0
 94
      127
282
     0
 72
     1
 77
     1
171
     1
175
     1
179
     1
273
     0
  0
XRECORD
  5
336
102
{ACAD_REACTORS
330
335
102
}
330
335
100
AcDbXrecord
280
     1
102
RTVSPropertyOp0
 70
     1
102
RTVSPropertyOp1
 70
     1
102
RTVSPropertyOp2
 70
     1
102
RTVSPropertyOp3
 70
     1
102
RTVSPropertyOp4
 70
     1
102
RTVSPropertyOp5
 70
     1
102
RTVSPropertyOp6
 70
     1
102
RTVSPropertyOp7
 70
     1
102
RTVSPropertyOp8
 70
     1
102
RTVSPropertyOp9
 70
     1
102
RTVSPropertyOp10
 70
     1
102
RTVSPropertyOp11
 70
     1
102
RTVSPropertyOp12
 70
     1
102
RTVSPropertyOp13
 70
     1
102
RTVSPropertyOp14
 70
     1
102
RTVSPropertyOp15
 70
     1
102
RTVSPropertyOp16
 70
     1
102
RTVSPropertyOp17
 70
     1
102
RTVSPropertyOp18
 70
     1
102
RTVSPropertyOp19
 70
     1
102
RTVSPropertyOp20
 70
     1
102
RTVSPropertyOp21
 70
     1
102
RTVSPropertyOp22
 70
     1
102
RTVSPropertyOp23
 70
     1
102
RTVSPropertyOp24
 70
     1
102
RTVSPropertyOp25
 70
     1
102
RTVSPropertyOp26
 70
     1
102
RTVSPropertyOp27
 70
     1
  0
XRECORD
  5
33A
102
{ACAD_REACTORS
330
339
102
}
330
339
100
AcDbXrecord
280
     1
102
RTVSPropertyOp0
 70
     1
102
RTVSPropertyOp1
 70
     1
102
RTVSPropertyOp2
 70
     1
102
RTVSPropertyOp3
 70
     1
102
RTVSPropertyOp4
 70
     1
102
RTVSPropertyOp5
 70
     1
102
RTVSPropertyOp6
 70
     1
102
RTVSPropertyOp7
 70
     1
102
RTVSPropertyOp8
 70
     1
102
RTVSPropertyOp9
 70
     1
102
RTVSPropertyOp10
 70
     1
102
RTVSPropertyOp11
 70
     1
102
RTVSPropertyOp12
 70
     1
102
RTVSPropertyOp13
 70
     1
102
RTVSPropertyOp14
 70
     1
102
RTVSPropertyOp15
 70
     1
102
RTVSPropertyOp16
 70
     1
102
RTVSPropertyOp17
 70
     1
102
RTVSPropertyOp18
 70
     1
102
RTVSPropertyOp19
 70
     1
102
RTVSPropertyOp20
 70
     1
102
RTVSPropertyOp21
 70
     1
102
RTVSPropertyOp22
 70
     1
102
RTVSPropertyOp23
 70
     1
102
RTVSPropertyOp24
 70
     1
102
RTVSPropertyOp25
 70
     1
102
RTVSPropertyOp26
 70
     1
102
RTVSPropertyOp27
 70
     1
  0
XRECORD
  5
338
102
{ACAD_REACTORS
330
337
102
}
330
337
100
AcDbXrecord
280
     1
102
RTVSPropertyOp0
 70
     1
102
RTVSPropertyOp1
 70
     1
102
RTVSPropertyOp2
 70
     1
102
RTVSPropertyOp3
 70
     1
102
RTVSPropertyOp4
 70
     1
102
RTVSPropertyOp5
 70
     1
102
RTVSPropertyOp6
 70
     1
102
RTVSPropertyOp7
 70
     1
102
RTVSPropertyOp8
 70
     1
102
RTVSPropertyOp9
 70
     1
102
RTVSPropertyOp10
 70
     1
102
RTVSPropertyOp11
 70
     1
102
RTVSPropertyOp12
 70
     1
102
RTVSPropertyOp13
 70
     1
102
RTVSPropertyOp14
 70
     1
102
RTVSPropertyOp15
 70
     1
102
RTVSPropertyOp16
 70
     1
102
RTVSPropertyOp17
 70
     1
102
RTVSPropertyOp18
 70
     1
102
RTVSPropertyOp19
 70
     1
102
RTVSPropertyOp20
 70
     1
102
RTVSPropertyOp21
 70
     1
102
RTVSPropertyOp22
 70
     1
102
RTVSPropertyOp23
 70
     1
102
RTVSPropertyOp24
 70
     1
102
RTVSPropertyOp25
 70
     1
102
RTVSPropertyOp26
 70
     1
102
RTVSPropertyOp27
 70
     1
  0
XRECORD
  5
33C
102
{ACAD_REACTORS
330
33B
102
}
330
33B
100
AcDbXrecord
280
     1
102
RTVSPropertyOp0
 70
     1
102
RTVSPropertyOp1
 70
     1
102
RTVSPropertyOp2
 70
     1
102
RTVSPropertyOp3
 70
     1
102
RTVSPropertyOp4
 70
     1
102
RTVSPropertyOp5
 70
     1
102
RTVSPropertyOp6
 70
     1
102
RTVSPropertyOp7
 70
     1
102
RTVSPropertyOp8
 70
     1
102
RTVSPropertyOp9
 70
     1
102
RTVSPropertyOp10
 70
     1
102
RTVSPropertyOp11
 70
     1
102
RTVSPropertyOp12
 70
     1
102
RTVSPropertyOp13
 70
     1
102
RTVSPropertyOp14
 70
     1
102
RTVSPropertyOp15
 70
     1
102
RTVSPropertyOp16
 70
     1
102
RTVSPropertyOp17
 70
     1
102
RTVSPropertyOp18
 70
     1
102
RTVSPropertyOp19
 70
     1
102
RTVSPropertyOp20
 70
     1
102
RTVSPropertyOp21
 70
     1
102
RTVSPropertyOp22
 70
     1
102
RTVSPropertyOp23
 70
     1
102
RTVSPropertyOp24
 70
     1
102
RTVSPropertyOp25
 70
     1
102
RTVSPropertyOp26
 70
     1
102
RTVSPropertyOp27
 70
     1
  0
XRECORD
  5
344
102
{ACAD_REACTORS
330
343
102
}
330
343
100
AcDbXrecord
280
     1
102
RTVSPropertyOp0
 70
     1
102
RTVSPropertyOp1
 70
     1
102
RTVSPropertyOp2
 70
     1
102
RTVSPropertyOp3
 70
     1
102
RTVSPropertyOp4
 70
     1
102
RTVSPropertyOp5
 70
     1
102
RTVSPropertyOp6
 70
     1
102
RTVSPropertyOp7
 70
     1
102
RTVSPropertyOp8
 70
     1
102
RTVSPropertyOp9
 70
     1
102
RTVSPropertyOp10
 70
     1
102
RTVSPropertyOp11
 70
     1
102
RTVSPropertyOp12
 70
     1
102
RTVSPropertyOp13
 70
     1
102
RTVSPropertyOp14
 70
     1
102
RTVSPropertyOp15
 70
     1
102
RTVSPropertyOp16
 70
     1
102
RTVSPropertyOp17
 70
     1
102
RTVSPropertyOp18
 70
     1
102
RTVSPropertyOp19
 70
     1
102
RTVSPropertyOp20
 70
     1
102
RTVSPropertyOp21
 70
     1
102
RTVSPropertyOp22
 70
     1
102
RTVSPropertyOp23
 70
     1
102
RTVSPropertyOp24
 70
     1
102
RTVSPropertyOp25
 70
     1
102
RTVSPropertyOp26
 70
     1
102
RTVSPropertyOp27
 70
     1
  0
XRECORD
  5
34C
102
{ACAD_REACTORS
330
34B
102
}
330
34B
100
AcDbXrecord
280
     1
102
RTVSPropertyOp0
 70
     1
102
RTVSPropertyOp1
 70
     1
102
RTVSPropertyOp2
 70
     1
102
RTVSPropertyOp3
 70
     1
102
RTVSPropertyOp4
 70
     1
102
RTVSPropertyOp5
 70
     1
102
RTVSPropertyOp6
 70
     1
102
RTVSPropertyOp7
 70
     1
102
RTVSPropertyOp8
 70
     1
102
RTVSPropertyOp9
 70
     1
102
RTVSPropertyOp10
 70
     1
102
RTVSPropertyOp11
 70
     1
102
RTVSPropertyOp12
 70
     1
102
RTVSPropertyOp13
 70
     1
102
RTVSPropertyOp14
 70
     1
102
RTVSPropertyOp15
 70
     1
102
RTVSPropertyOp16
 70
     1
102
RTVSPropertyOp17
 70
     1
102
RTVSPropertyOp18
 70
     1
102
RTVSPropertyOp19
 70
     1
102
RTVSPropertyOp20
 70
     1
102
RTVSPropertyOp21
 70
     1
102
RTVSPropertyOp22
 70
     1
102
RTVSPropertyOp23
 70
     1
102
RTVSPropertyOp24
 70
     1
102
RTVSPropertyOp25
 70
     1
102
RTVSPropertyOp26
 70
     1
102
RTVSPropertyOp27
 70
     1
  0
XRECORD
  5
340
102
{ACAD_REACTORS
330
33F
102
}
330
33F
100
AcDbXrecord
280
     1
102
RTVSPropertyOp0
 70
     1
102
RTVSPropertyOp1
 70
     1
102
RTVSPropertyOp2
 70
     1
102
RTVSPropertyOp3
 70
     1
102
RTVSPropertyOp4
 70
     1
102
RTVSPropertyOp5
 70
     1
102
RTVSPropertyOp6
 70
     1
102
RTVSPropertyOp7
 70
     1
102
RTVSPropertyOp8
 70
     1
102
RTVSPropertyOp9
 70
     1
102
RTVSPropertyOp10
 70
     1
102
RTVSPropertyOp11
 70
     1
102
RTVSPropertyOp12
 70
     1
102
RTVSPropertyOp13
 70
     1
102
RTVSPropertyOp14
 70
     1
102
RTVSPropertyOp15
 70
     1
102
RTVSPropertyOp16
 70
     1
102
RTVSPropertyOp17
 70
     1
102
RTVSPropertyOp18
 70
     1
102
RTVSPropertyOp19
 70
     1
102
RTVSPropertyOp20
 70
     1
102
RTVSPropertyOp21
 70
     1
102
RTVSPropertyOp22
 70
     1
102
RTVSPropertyOp23
 70
     1
102
RTVSPropertyOp24
 70
     1
102
RTVSPropertyOp25
 70
     1
102
RTVSPropertyOp26
 70
     1
102
RTVSPropertyOp27
 70
     1
  0
XRECORD
  5
342
102
{ACAD_REACTORS
330
341
102
}
330
341
100
AcDbXrecord
280
     1
102
RTVSPropertyOp0
 70
     1
102
RTVSPropertyOp1
 70
     1
102
RTVSPropertyOp2
 70
     1
102
RTVSPropertyOp3
 70
     1
102
RTVSPropertyOp4
 70
     1
102
RTVSPropertyOp5
 70
     1
102
RTVSPropertyOp6
 70
     1
102
RTVSPropertyOp7
 70
     1
102
RTVSPropertyOp8
 70
     1
102
RTVSPropertyOp9
 70
     1
102
RTVSPropertyOp10
 70
     1
102
RTVSPropertyOp11
 70
     1
102
RTVSPropertyOp12
 70
     1
102
RTVSPropertyOp13
 70
     1
102
RTVSPropertyOp14
 70
     1
102
RTVSPropertyOp15
 70
     1
102
RTVSPropertyOp16
 70
     1
102
RTVSPropertyOp17
 70
     1
102
RTVSPropertyOp18
 70
     1
102
RTVSPropertyOp19
 70
     1
102
RTVSPropertyOp20
 70
     1
102
RTVSPropertyOp21
 70
     1
102
RTVSPropertyOp22
 70
     1
102
RTVSPropertyOp23
 70
     1
102
RTVSPropertyOp24
 70
     1
102
RTVSPropertyOp25
 70
     1
102
RTVSPropertyOp26
 70
     1
102
RTVSPropertyOp27
 70
     1
  0
XRECORD
  5
34A
102
{ACAD_REACTORS
330
349
102
}
330
349
100
AcDbXrecord
280
     1
102
RTVSPropertyOp0
 70
     1
102
RTVSPropertyOp1
 70
     1
102
RTVSPropertyOp2
 70
     1
102
RTVSPropertyOp3
 70
     1
102
RTVSPropertyOp4
 70
     1
102
RTVSPropertyOp5
 70
     1
102
RTVSPropertyOp6
 70
     1
102
RTVSPropertyOp7
 70
     1
102
RTVSPropertyOp8
 70
     1
102
RTVSPropertyOp9
 70
     1
102
RTVSPropertyOp10
 70
     1
102
RTVSPropertyOp11
 70
     1
102
RTVSPropertyOp12
 70
     1
102
RTVSPropertyOp13
 70
     1
102
RTVSPropertyOp14
 70
     1
102
RTVSPropertyOp15
 70
     1
102
RTVSPropertyOp16
 70
     1
102
RTVSPropertyOp17
 70
     1
102
RTVSPropertyOp18
 70
     1
102
RTVSPropertyOp19
 70
     1
102
RTVSPropertyOp20
 70
     1
102
RTVSPropertyOp21
 70
     1
102
RTVSPropertyOp22
 70
     1
102
RTVSPropertyOp23
 70
     1
102
RTVSPropertyOp24
 70
     1
102
RTVSPropertyOp25
 70
     1
102
RTVSPropertyOp26
 70
     1
102
RTVSPropertyOp27
 70
     1
  0
XRECORD
  5
32E
102
{ACAD_REACTORS
330
32D
102
}
330
32D
100
AcDbXrecord
280
     1
102
RTVSPropertyOp0
 70
     1
102
RTVSPropertyOp1
 70
     1
102
RTVSPropertyOp2
 70
     1
102
RTVSPropertyOp3
 70
     1
102
RTVSPropertyOp4
 70
     1
102
RTVSPropertyOp5
 70
     1
102
RTVSPropertyOp6
 70
     1
102
RTVSPropertyOp7
 70
     1
102
RTVSPropertyOp8
 70
     1
102
RTVSPropertyOp9
 70
     1
102
RTVSPropertyOp10
 70
     1
102
RTVSPropertyOp11
 70
     1
102
RTVSPropertyOp12
 70
     1
102
RTVSPropertyOp13
 70
     1
102
RTVSPropertyOp14
 70
     1
102
RTVSPropertyOp15
 70
     1
102
RTVSPropertyOp16
 70
     1
102
RTVSPropertyOp17
 70
     1
102
RTVSPropertyOp18
 70
     1
102
RTVSPropertyOp19
 70
     1
102
RTVSPropertyOp20
 70
     1
102
RTVSPropertyOp21
 70
     1
102
RTVSPropertyOp22
 70
     1
102
RTVSPropertyOp23
 70
     1
102
RTVSPropertyOp24
 70
     1
102
RTVSPropertyOp25
 70
     1
102
RTVSPropertyOp26
 70
     1
102
RTVSPropertyOp27
 70
     1
  0
XRECORD
  5
330
102
{ACAD_REACTORS
330
32F
102
}
330
32F
100
AcDbXrecord
280
     1
102
RTVSPropertyOp0
 70
     1
102
RTVSPropertyOp1
 70
     1
102
RTVSPropertyOp2
 70
     1
102
RTVSPropertyOp3
 70
     1
102
RTVSPropertyOp4
 70
     1
102
RTVSPropertyOp5
 70
     1
102
RTVSPropertyOp6
 70
     1
102
RTVSPropertyOp7
 70
     1
102
RTVSPropertyOp8
 70
     1
102
RTVSPropertyOp9
 70
     1
102
RTVSPropertyOp10
 70
     1
102
RTVSPropertyOp11
 70
     1
102
RTVSPropertyOp12
 70
     1
102
RTVSPropertyOp13
 70
     1
102
RTVSPropertyOp14
 70
     1
102
RTVSPropertyOp15
 70
     1
102
RTVSPropertyOp16
 70
     1
102
RTVSPropertyOp17
 70
     1
102
RTVSPropertyOp18
 70
     1
102
RTVSPropertyOp19
 70
     1
102
RTVSPropertyOp20
 70
     1
102
RTVSPropertyOp21
 70
     1
102
RTVSPropertyOp22
 70
     1
102
RTVSPropertyOp23
 70
     1
102
RTVSPropertyOp24
 70
     1
102
RTVSPropertyOp25
 70
     1
102
RTVSPropertyOp26
 70
     1
102
RTVSPropertyOp27
 70
     1
  0
XRECORD
  5
332
102
{ACAD_REACTORS
330
331
102
}
330
331
100
AcDbXrecord
280
     1
102
RTVSPropertyOp0
 70
     1
102
RTVSPropertyOp1
 70
     1
102
RTVSPropertyOp2
 70
     1
102
RTVSPropertyOp3
 70
     1
102
RTVSPropertyOp4
 70
     1
102
RTVSPropertyOp5
 70
     1
102
RTVSPropertyOp6
 70
     1
102
RTVSPropertyOp7
 70
     1
102
RTVSPropertyOp8
 70
     1
102
RTVSPropertyOp9
 70
     1
102
RTVSPropertyOp10
 70
     1
102
RTVSPropertyOp11
 70
     1
102
RTVSPropertyOp12
 70
     1
102
RTVSPropertyOp13
 70
     1
102
RTVSPropertyOp14
 70
     1
102
RTVSPropertyOp15
 70
     1
102
RTVSPropertyOp16
 70
     1
102
RTVSPropertyOp17
 70
     1
102
RTVSPropertyOp18
 70
     1
102
RTVSPropertyOp19
 70
     1
102
RTVSPropertyOp20
 70
     1
102
RTVSPropertyOp21
 70
     1
102
RTVSPropertyOp22
 70
     1
102
RTVSPropertyOp23
 70
     1
102
RTVSPropertyOp24
 70
     1
102
RTVSPropertyOp25
 70
     1
102
RTVSPropertyOp26
 70
     1
102
RTVSPropertyOp27
 70
     1
  0
XRECORD
  5
334
102
{ACAD_REACTORS
330
333
102
}
330
333
100
AcDbXrecord
280
     1
102
RTVSPropertyOp0
 70
     1
102
RTVSPropertyOp1
 70
     1
102
RTVSPropertyOp2
 70
     1
102
RTVSPropertyOp3
 70
     1
102
RTVSPropertyOp4
 70
     1
102
RTVSPropertyOp5
 70
     1
102
RTVSPropertyOp6
 70
     1
102
RTVSPropertyOp7
 70
     1
102
RTVSPropertyOp8
 70
     1
102
RTVSPropertyOp9
 70
     1
102
RTVSPropertyOp10
 70
     1
102
RTVSPropertyOp11
 70
     1
102
RTVSPropertyOp12
 70
     1
102
RTVSPropertyOp13
 70
     1
102
RTVSPropertyOp14
 70
     1
102
RTVSPropertyOp15
 70
     1
102
RTVSPropertyOp16
 70
     1
102
RTVSPropertyOp17
 70
     1
102
RTVSPropertyOp18
 70
     1
102
RTVSPropertyOp19
 70
     1
102
RTVSPropertyOp20
 70
     1
102
RTVSPropertyOp21
 70
     1
102
RTVSPropertyOp22
 70
     1
102
RTVSPropertyOp23
 70
     1
102
RTVSPropertyOp24
 70
     1
102
RTVSPropertyOp25
 70
     1
102
RTVSPropertyOp26
 70
     1
102
RTVSPropertyOp27
 70
     1
  0
XRECORD
  5
348
102
{ACAD_REACTORS
330
347
102
}
330
347
100
AcDbXrecord
280
     1
102
RTVSPropertyOp0
 70
     1
102
RTVSPropertyOp1
 70
     1
102
RTVSPropertyOp2
 70
     1
102
RTVSPropertyOp3
 70
     1
102
RTVSPropertyOp4
 70
     1
102
RTVSPropertyOp5
 70
     1
102
RTVSPropertyOp6
 70
     1
102
RTVSPropertyOp7
 70
     1
102
RTVSPropertyOp8
 70
     1
102
RTVSPropertyOp9
 70
     1
102
RTVSPropertyOp10
 70
     1
102
RTVSPropertyOp11
 70
     1
102
RTVSPropertyOp12
 70
     1
102
RTVSPropertyOp13
 70
     1
102
RTVSPropertyOp14
 70
     1
102
RTVSPropertyOp15
 70
     1
102
RTVSPropertyOp16
 70
     1
102
RTVSPropertyOp17
 70
     1
102
RTVSPropertyOp18
 70
     1
102
RTVSPropertyOp19
 70
     1
102
RTVSPropertyOp20
 70
     1
102
RTVSPropertyOp21
 70
     1
102
RTVSPropertyOp22
 70
     1
102
RTVSPropertyOp23
 70
     1
102
RTVSPropertyOp24
 70
     1
102
RTVSPropertyOp25
 70
     1
102
RTVSPropertyOp26
 70
     1
102
RTVSPropertyOp27
 70
     1
  0
XRECORD
  5
33E
102
{ACAD_REACTORS
330
33D
102
}
330
33D
100
AcDbXrecord
280
     1
102
RTVSPropertyOp0
 70
     1
102
RTVSPropertyOp1
 70
     1
102
RTVSPropertyOp2
 70
     1
102
RTVSPropertyOp3
 70
     1
102
RTVSPropertyOp4
 70
     1
102
RTVSPropertyOp5
 70
     1
102
RTVSPropertyOp6
 70
     1
102
RTVSPropertyOp7
 70
     1
102
RTVSPropertyOp8
 70
     1
102
RTVSPropertyOp9
 70
     1
102
RTVSPropertyOp10
 70
     1
102
RTVSPropertyOp11
 70
     1
102
RTVSPropertyOp12
 70
     1
102
RTVSPropertyOp13
 70
     1
102
RTVSPropertyOp14
 70
     1
102
RTVSPropertyOp15
 70
     1
102
RTVSPropertyOp16
 70
     1
102
RTVSPropertyOp17
 70
     1
102
RTVSPropertyOp18
 70
     1
102
RTVSPropertyOp19
 70
     1
102
RTVSPropertyOp20
 70
     1
102
RTVSPropertyOp21
 70
     1
102
RTVSPropertyOp22
 70
     1
102
RTVSPropertyOp23
 70
     1
102
RTVSPropertyOp24
 70
     1
102
RTVSPropertyOp25
 70
     1
102
RTVSPropertyOp26
 70
     1
102
RTVSPropertyOp27
 70
     1
  0
XRECORD
  5
346
102
{ACAD_REACTORS
330
345
102
}
330
345
100
AcDbXrecord
280
     1
102
RTVSPropertyOp0
 70
     1
102
RTVSPropertyOp1
 70
     1
102
RTVSPropertyOp2
 70
     1
102
RTVSPropertyOp3
 70
     1
102
RTVSPropertyOp4
 70
     1
102
RTVSPropertyOp5
 70
     1
102
RTVSPropertyOp6
 70
     1
102
RTVSPropertyOp7
 70
     1
102
RTVSPropertyOp8
 70
     1
102
RTVSPropertyOp9
 70
     1
102
RTVSPropertyOp10
 70
     1
102
RTVSPropertyOp11
 70
     1
102
RTVSPropertyOp12
 70
     1
102
RTVSPropertyOp13
 70
     1
102
RTVSPropertyOp14
 70
     1
102
RTVSPropertyOp15
 70
     1
102
RTVSPropertyOp16
 70
     1
102
RTVSPropertyOp17
 70
     1
102
RTVSPropertyOp18
 70
     1
102
RTVSPropertyOp19
 70
     1
102
RTVSPropertyOp20
 70
     1
102
RTVSPropertyOp21
 70
     1
102
RTVSPropertyOp22
 70
     1
102
RTVSPropertyOp23
 70
     1
102
RTVSPropertyOp24
 70
     1
102
RTVSPropertyOp25
 70
     1
102
RTVSPropertyOp26
 70
     1
102
RTVSPropertyOp27
 70
     1
  0
ENDSEC
  0
EOF
