  0
SECTION
  2
HEADER
  9
$ACADVER
  1
AC1015
  9
$ACADMAINTVER
 70
     6
  9
$DWGCODEPAGE
  3
ANSI_1252
  9
$INSBASE
 10
0.0
 20
0.0
 30
0.0
  9
$EXTMIN
 10
137.6826529129825
 20
107.2235214003173
 30
0.0
  9
$EXTMAX
 10
290.0410529129817
 20
156.4164814003176
 30
0.0
  9
$LIMMIN
 10
0.0
 20
0.0
  9
$LIMMAX
 10
12.0
 20
9.0
  9
$ORTHOMODE
 70
     0
  9
$REGENMODE
 70
     1
  9
$FILLMODE
 70
     1
  9
$QTEXTMODE
 70
     0
  9
$MIRRTEXT
 70
     1
  9
$LTSCALE
 40
1.0
  9
$ATTMODE
 70
     1
  9
$TEXTSIZE
 40
0.2
  9
$TRACEWID
 40
0.05
  9
$TEXTSTYLE
  7
Standard
  9
$CLAYER
  8
0
  9
$CELTYPE
  6
ByLayer
  9
$CECOLOR
 62
   256
  9
$CELTSCALE
 40
1.0
  9
$DISPSILH
 70
     0
  9
$DIMSCALE
 40
1.0
  9
$DIMASZ
 40
0.18
  9
$DIMEXO
 40
0.0625
  9
$DIMDLI
 40
0.38
  9
$DIMRND
 40
0.0
  9
$DIMDLE
 40
0.0
  9
$DIMEXE
 40
0.18
  9
$DIMTP
 40
0.0
  9
$DIMTM
 40
0.0
  9
$DIMTXT
 40
0.18
  9
$DIMCEN
 40
0.09
  9
$DIMTSZ
 40
0.0
  9
$DIMTOL
 70
     0
  9
$DIMLIM
 70
     0
  9
$DIMTIH
 70
     1
  9
$DIMTOH
 70
     1
  9
$DIMSE1
 70
     0
  9
$DIMSE2
 70
     0
  9
$DIMTAD
 70
     0
  9
$DIMZIN
 70
     0
  9
$DIMBLK
  1

  9
$DIMASO
 70
     1
  9
$DIMSHO
 70
     1
  9
$DIMPOST
  1

  9
$DIMAPOST
  1

  9
$DIMALT
 70
     0
  9
$DIMALTD
 70
     2
  9
$DIMALTF
 40
25.4
  9
$DIMLFAC
 40
1.0
  9
$DIMTOFL
 70
     0
  9
$DIMTVP
 40
0.0
  9
$DIMTIX
 70
     0
  9
$DIMSOXD
 70
     0
  9
$DIMSAH
 70
     0
  9
$DIMBLK1
  1

  9
$DIMBLK2
  1

  9
$DIMSTYLE
  2
Standard
  9
$DIMCLRD
 70
     0
  9
$DIMCLRE
 70
     0
  9
$DIMCLRT
 70
     0
  9
$DIMTFAC
 40
1.0
  9
$DIMGAP
 40
0.09
  9
$DIMJUST
 70
     0
  9
$DIMSD1
 70
     0
  9
$DIMSD2
 70
     0
  9
$DIMTOLJ
 70
     1
  9
$DIMTZIN
 70
     0
  9
$DIMALTZ
 70
     0
  9
$DIMALTTZ
 70
     0
  9
$DIMUPT
 70
     0
  9
$DIMDEC
 70
     4
  9
$DIMTDEC
 70
     4
  9
$DIMALTU
 70
     2
  9
$DIMALTTD
 70
     2
  9
$DIMTXSTY
  7
Standard
  9
$DIMAUNIT
 70
     0
  9
$DIMADEC
 70
     0
  9
$DIMALTRND
 40
0.0
  9
$DIMAZIN
 70
     0
  9
$DIMDSEP
 70
    46
  9
$DIMATFIT
 70
     3
  9
$DIMFRAC
 70
     0
  9
$DIMLDRBLK
  1

  9
$DIMLUNIT
 70
     2
  9
$DIMLWD
 70
    -2
  9
$DIMLWE
 70
    -2
  9
$DIMTMOVE
 70
     0
  9
$LUNITS
 70
     2
  9
$LUPREC
 70
     4
  9
$SKETCHINC
 40
0.1
  9
$FILLETRAD
 40
0.5
  9
$AUNITS
 70
     0
  9
$AUPREC
 70
     0
  9
$MENU
  1
.
  9
$ELEVATION
 40
0.0
  9
$PELEVATION
 40
0.0
  9
$THICKNESS
 40
0.0
  9
$LIMCHECK
 70
     0
  9
$CHAMFERA
 40
0.5
  9
$CHAMFERB
 40
0.5
  9
$CHAMFERC
 40
1.0
  9
$CHAMFERD
 40
0.0
  9
$SKPOLY
 70
     0
  9
$TDCREATE
 40
2456541.471591944
  9
$TDUCREATE
 40
2456541.096591944
  9
$TDUPDATE
 40
2456541.471591956
  9
$TDUUPDATE
 40
2456541.096591956
  9
$TDINDWG
 40
0.0000000116
  9
$TDUSRTIMER
 40
0.0000000116
  9
$USRTIMER
 70
     1
  9
$ANGBASE
 50
0.0
  9
$ANGDIR
 70
     0
  9
$PDMODE
 70
     0
  9
$PDSIZE
 40
0.0
  9
$PLINEWID
 40
0.0
  9
$SPLFRAME
 70
     0
  9
$SPLINETYPE
 70
     6
  9
$SPLINESEGS
 70
     8
  9
$HANDSEED
  5
1D0
  9
$SURFTAB1
 70
     6
  9
$SURFTAB2
 70
     6
  9
$SURFTYPE
 70
     6
  9
$SURFU
 70
     6
  9
$SURFV
 70
     6
  9
$UCSBASE
  2

  9
$UCSNAME
  2

  9
$UCSORG
 10
0.0
 20
0.0
 30
0.0
  9
$UCSXDIR
 10
1.0
 20
0.0
 30
0.0
  9
$UCSYDIR
 10
0.0
 20
1.0
 30
0.0
  9
$UCSORTHOREF
  2

  9
$UCSORTHOVIEW
 70
     0
  9
$UCSORGTOP
 10
0.0
 20
0.0
 30
0.0
  9
$UCSORGBOTTOM
 10
0.0
 20
0.0
 30
0.0
  9
$UCSORGLEFT
 10
0.0
 20
0.0
 30
0.0
  9
$UCSORGRIGHT
 10
0.0
 20
0.0
 30
0.0
  9
$UCSORGFRONT
 10
0.0
 20
0.0
 30
0.0
  9
$UCSORGBACK
 10
0.0
 20
0.0
 30
0.0
  9
$PUCSBASE
  2

  9
$PUCSNAME
  2

  9
$PUCSORG
 10
0.0
 20
0.0
 30
0.0
  9
$PUCSXDIR
 10
1.0
 20
0.0
 30
0.0
  9
$PUCSYDIR
 10
0.0
 20
1.0
 30
0.0
  9
$PUCSORTHOREF
  2

  9
$PUCSORTHOVIEW
 70
     0
  9
$PUCSORGTOP
 10
0.0
 20
0.0
 30
0.0
  9
$PUCSORGBOTTOM
 10
0.0
 20
0.0
 30
0.0
  9
$PUCSORGLEFT
 10
0.0
 20
0.0
 30
0.0
  9
$PUCSORGRIGHT
 10
0.0
 20
0.0
 30
0.0
  9
$PUCSORGFRONT
 10
0.0
 20
0.0
 30
0.0
  9
$PUCSORGBACK
 10
0.0
 20
0.0
 30
0.0
  9
$USERI1
 70
     0
  9
$USERI2
 70
     0
  9
$USERI3
 70
     0
  9
$USERI4
 70
     0
  9
$USERI5
 70
     0
  9
$USERR1
 40
18.0
  9
$USERR2
 40
0.0
  9
$USERR3
 40
0.0
  9
$USERR4
 40
0.0
  9
$USERR5
 40
0.0
  9
$WORLDVIEW
 70
     1
  9
$SHADEDGE
 70
     3
  9
$SHADEDIF
 70
    70
  9
$TILEMODE
 70
     1
  9
$MAXACTVP
 70
    64
  9
$PINSBASE
 10
0.0
 20
0.0
 30
0.0
  9
$PLIMCHECK
 70
     0
  9
$PEXTMIN
 10
1.00000000000000E+20
 20
1.00000000000000E+20
 30
1.00000000000000E+20
  9
$PEXTMAX
 10
-1.00000000000000E+20
 20
-1.00000000000000E+20
 30
-1.00000000000000E+20
  9
$PLIMMIN
 10
0.0
 20
0.0
  9
$PLIMMAX
 10
12.0
 20
9.0
  9
$UNITMODE
 70
     0
  9
$VISRETAIN
 70
     1
  9
$PLINEGEN
 70
     0
  9
$PSLTSCALE
 70
     1
  9
$TREEDEPTH
 70
  3020
  9
$CMLSTYLE
  2
Standard
  9
$CMLJUST
 70
     0
  9
$CMLSCALE
 40
1.0
  9
$PROXYGRAPHICS
 70
     1
  9
$MEASUREMENT
 70
     1
  9
$CELWEIGHT
370
    -1
  9
$ENDCAPS
280
     0
  9
$JOINSTYLE
280
     0
  9
$LWDISPLAY
290
     0
  9
$INSUNITS
 70
     1
  9
$HYPERLINKBASE
  1

  9
$STYLESHEET
  1

  9
$XEDIT
290
     1
  9
$CEPSNTYPE
380
     0
  9
$PSTYLEMODE
290
     1
  9
$FINGERPRINTGUID
  2
{F41048E4-9CCD-489E-BE7F-4B415E1C5F1E}
  9
$VERSIONGUID
  2
{FAEB1C32-E019-11D5-929B-00C0DF256EC4}
  9
$EXTNAMES
290
     1
  9
$PSVPSCALE
 40
0.0
  9
$OLESTARTUP
290
     0
  0
ENDSEC
  0
SECTION
  2
CLASSES
  0
CLASS
  1
ACDBDICTIONARYWDFLT
  2
AcDbDictionaryWithDefault
  3
ObjectDBX Classes
 90
        0
280
     0
281
     0
  0
CLASS
  1
VISUALSTYLE
  2
AcDbVisualStyle
  3
ObjectDBX Classes
 90
     4095
280
     0
281
     0
  0
CLASS
  1
MATERIAL
  2
AcDbMaterial
  3
ObjectDBX Classes
 90
     1153
280
     0
281
     0
  0
CLASS
  1

  2
exOdDbCircle
  3

 90
        0
280
     0
281
     1
  0
CLASS
  1
SCALE
  2
AcDbScale
  3
ObjectDBX Classes
 90
     1153
280
     0
281
     0
  0
CLASS
  1
DICTIONARYVAR
  2
AcDbDictionaryVar
  3
ObjectDBX Classes
 90
        0
280
     0
281
     0
  0
CLASS
  1
ACDBPLACEHOLDER
  2
AcDbPlaceHolder
  3
ObjectDBX Classes
 90
        0
280
     0
281
     0
  0
CLASS
  1
LAYOUT
  2
AcDbLayout
  3
ObjectDBX Classes
 90
        0
280
     0
281
     0
  0
ENDSEC
  0
SECTION
  2
TABLES
  0
TABLE
  2
VPORT
  5
8
330
0
100
AcDbSymbolTable
 70
     1
  0
VPORT
  5
29
330
8
100
AcDbSymbolTableRecord
100
AcDbViewportTableRecord
  2
*Active
 70
     0
 10
0.0
 20
0.0
 11
1.0
 21
1.0
 12
213.8618529129821
 22
131.8200014003174
 13
0.0
 23
0.0
 14
0.5
 24
0.5
 15
0.5
 25
0.5
 16
0.0
 26
0.0
 36
1.0
 17
0.0
 27
0.0
 37
0.0
 40
104.5713363788296
 41
1.60267857142857
 42
50.0
 43
0.0
 44
0.0
 50
0.0
 51
0.0
 71
     0
 72
   100
 73
     1
 74
     3
 75
     0
 76
     0
 77
     0
 78
     0
281
     0
 65
     1
110
0.0
120
0.0
130
0.0
111
1.0
121
0.0
131
0.0
112
0.0
122
1.0
132
0.0
 79
     0
146
0.0
  0
ENDTAB
  0
TABLE
  2
LTYPE
  5
5
330
0
100
AcDbSymbolTable
 70
     8
  0
LTYPE
  5
14
330
5
100
AcDbSymbolTableRecord
100
AcDbLinetypeTableRecord
  2
ByBlock
 70
     0
  3

 72
    65
 73
     0
 40
0.0
  0
LTYPE
  5
15
330
5
100
AcDbSymbolTableRecord
100
AcDbLinetypeTableRecord
  2
ByLayer
 70
     0
  3

 72
    65
 73
     0
 40
0.0
  0
LTYPE
  5
16
330
5
100
AcDbSymbolTableRecord
100
AcDbLinetypeTableRecord
  2
Continuous
 70
     0
  3
Solid line
 72
    65
 73
     0
 40
0.0
  0
LTYPE
  5
3F
330
5
100
AcDbSymbolTableRecord
100
AcDbLinetypeTableRecord
  2
DASHED
 70
     0
  3
Dashed
 72
    65
 73
     2
 40
15.0
 49
7.0
 74
     0
 49
-8.0
 74
     0
  0
LTYPE
  5
40
330
5
100
AcDbSymbolTableRecord
100
AcDbLinetypeTableRecord
  2
DOTTED
 70
     0
  3
Dotted
 72
    65
 73
     2
 40
1.0
 49
0.0
 74
     0
 49
-1.0
 74
     0
  0
LTYPE
  5
41
330
5
100
AcDbSymbolTableRecord
100
AcDbLinetypeTableRecord
  2
DOT_CENTER
 70
     0
  3
Dot_Center
 72
    65
 73
     4
 40
14.0
 49
12.0
 74
     0
 49
-1.0
 74
     0
 49
0.0
 74
     0
 49
-1.0
 74
     0
  0
LTYPE
  5
42
330
5
100
AcDbSymbolTableRecord
100
AcDbLinetypeTableRecord
  2
LONG_DASHED
 70
     0
  3
Long_Dashed
 72
    65
 73
     2
 40
15.0
 49
10.0
 74
     0
 49
-5.0
 74
     0
  0
LTYPE
  5
43
330
5
100
AcDbSymbolTableRecord
100
AcDbLinetypeTableRecord
  2
DASH_CENTER
 70
     0
  3
Dash_Center
 72
    65
 73
     4
 40
14.0
 49
11.0
 74
     0
 49
-1.0
 74
     0
 49
1.0
 74
     0
 49
-1.0
 74
     0
  0
LTYPE
  5
44
330
5
100
AcDbSymbolTableRecord
100
AcDbLinetypeTableRecord
  2
PHANTOM
 70
     0
  3
Phantom
 72
    65
 73
     6
 40
13.0
 49
10.0
 74
     0
 49
-1.0
 74
     0
 49
0.0
 74
     0
 49
-1.0
 74
     0
 49
0.0
 74
     0
 49
-1.0
 74
     0
  0
LTYPE
  5
45
330
5
100
AcDbSymbolTableRecord
100
AcDbLinetypeTableRecord
  2
CENTER_DASH_DASH
 70
     0
  3
Center_Dash_Dash
 72
    65
 73
     6
 40
14.0
 49
9.0
 74
     0
 49
-1.0
 74
     0
 49
1.0
 74
     0
 49
-1.0
 74
     0
 49
1.0
 74
     0
 49
-1.0
 74
     0
  0
ENDTAB
  0
TABLE
  2
LAYER
  5
2
330
0
100
AcDbSymbolTable
 70
     4
  0
LAYER
  5
10
330
2
100
AcDbSymbolTableRecord
100
AcDbLayerTableRecord
  2
0
 70
     0
 62
     7
  6
Continuous
370
    -3
390
F
  0
LAYER
  5
46
330
2
100
AcDbSymbolTableRecord
100
AcDbLayerTableRecord
  2
1
 70
     0
 62
     7
  6
Continuous
370
    -3
390
F
  0
LAYER
  5
47
330
2
100
AcDbSymbolTableRecord
100
AcDbLayerTableRecord
  2
FUTOSEN
 70
     0
 62
     7
  6
Continuous
370
    -3
390
F
  0
LAYER
  5
48
330
2
100
AcDbSymbolTableRecord
100
AcDbLayerTableRecord
  2
SAISEN
 70
     0
 62
     7
  6
Continuous
370
    -3
390
F
  0
ENDTAB
  0
TABLE
  2
STYLE
  5
3
330
0
100
AcDbSymbolTable
 70
     2
  0
STYLE
  5
11
330
3
100
AcDbSymbolTableRecord
100
AcDbTextStyleTableRecord
  2
Standard
 70
     0
 40
0.0
 41
1.0
 50
0.0
 71
     0
 42
0.2
  3
txt
  4

  0
STYLE
  5
180
330
3
100
AcDbSymbolTableRecord
100
AcDbTextStyleTableRecord
  2
CONVERTER_11
 70
     0
 40
0.0
 41
0.792
 50
0.0
 71
     0
 42
0.2
  3
txt.shx
  4

  0
ENDTAB
  0
TABLE
  2
VIEW
  5
6
330
0
100
AcDbSymbolTable
 70
     0
  0
ENDTAB
  0
TABLE
  2
UCS
  5
7
330
0
100
AcDbSymbolTable
 70
     0
  0
ENDTAB
  0
TABLE
  2
APPID
  5
9
330
0
100
AcDbSymbolTable
 70
     1
  0
APPID
  5
12
330
9
100
AcDbSymbolTableRecord
100
AcDbRegAppTableRecord
  2
ACAD
 70
     0
  0
ENDTAB
  0
TABLE
  2
DIMSTYLE
  5
A
330
0
100
AcDbSymbolTable
 70
     1
100
AcDbDimStyleTable
  0
DIMSTYLE
105
27
330
A
100
AcDbSymbolTableRecord
100
AcDbDimStyleTableRecord
  2
Standard
 70
     0
340
11
  0
ENDTAB
  0
TABLE
  2
BLOCK_RECORD
  5
1
330
0
100
AcDbSymbolTable
 70
     1
  0
BLOCK_RECORD
  5
1F
330
1
100
AcDbSymbolTableRecord
100
AcDbBlockTableRecord
  2
*Model_Space
340
22
  0
BLOCK_RECORD
  5
1B
330
1
100
AcDbSymbolTableRecord
100
AcDbBlockTableRecord
  2
*Paper_Space
340
1E
  0
BLOCK_RECORD
  5
23
330
1
100
AcDbSymbolTableRecord
100
AcDbBlockTableRecord
  2
*Paper_Space0
340
26
  0
ENDTAB
  0
ENDSEC
  0
SECTION
  2
BLOCKS
  0
BLOCK
  5
20
330
1F
100
AcDbEntity
  8
0
100
AcDbBlockBegin
  2
*Model_Space
 70
     0
 10
0.0
 20
0.0
 30
0.0
  3
*Model_Space
  1

  0
ENDBLK
  5
21
330
1F
100
AcDbEntity
  8
0
100
AcDbBlockEnd
  0
BLOCK
  5
1C
330
1B
100
AcDbEntity
 67
     1
  8
0
100
AcDbBlockBegin
  2
*Paper_Space
 70
     0
 10
0.0
 20
0.0
 30
0.0
  3
*Paper_Space
  1

  0
ENDBLK
  5
1D
330
1B
100
AcDbEntity
 67
     1
  8
0
100
AcDbBlockEnd
  0
BLOCK
  5
24
330
23
100
AcDbEntity
  8
0
100
AcDbBlockBegin
  2
*Paper_Space0
 70
     0
 10
0.0
 20
0.0
 30
0.0
  3
*Paper_Space0
  1

  0
ENDBLK
  5
25
330
23
100
AcDbEntity
  8
0
100
AcDbBlockEnd
  0
ENDSEC
  0
SECTION
  2
ENTITIES
  0
LINE
  5
49
330
1F
100
AcDbEntity
  8
FUTOSEN
  6
Continuous
 62
     7
100
AcDbLine
 10
141.1402529129823
 20
107.2644814003175
 30
0.0
 11
146.2842529129825
 21
107.2644814003175
 31
0.0
  0
LINE
  5
4A
330
1F
100
AcDbEntity
  8
1
  6
Continuous
 62
     7
100
AcDbLine
 10
140.1402529129823
 20
155.4164814003176
 30
0.0
 11
141.1402529129823
 21
156.4164814003176
 31
0.0
  0
LINE
  5
4B
330
1F
100
AcDbEntity
  8
1
  6
Continuous
 62
     7
100
AcDbLine
 10
217.1562529129819
 20
156.4164814003176
 30
0.0
 11
218.1562529129819
 21
155.4164814003176
 31
0.0
  0
LINE
  5
4C
330
1F
100
AcDbEntity
  8
1
  6
Continuous
 62
     7
100
AcDbLine
 10
217.1562529129819
 20
107.2644814003175
 30
0.0
 11
218.1562529129819
 21
108.2644814003175
 31
0.0
  0
LINE
  5
4D
330
1F
100
AcDbEntity
  8
1
  6
Continuous
 62
     7
100
AcDbLine
 10
141.1402529129823
 20
107.2644814003175
 30
0.0
 11
140.1402529129823
 21
108.2644814003175
 31
0.0
  0
LINE
  5
4E
330
1F
100
AcDbEntity
  8
FUTOSEN
  6
Continuous
 62
     7
100
AcDbLine
 10
148.3342529129825
 20
156.4164814003176
 30
0.0
 11
151.2842529129825
 21
156.4164814003176
 31
0.0
  0
LINE
  5
4F
330
1F
100
AcDbEntity
  8
FUTOSEN
  6
Continuous
 62
     7
100
AcDbLine
 10
209.9622529129816
 20
156.4164814003176
 30
0.0
 11
210.0122529129816
 21
156.4164814003176
 31
0.0
  0
LINE
  5
50
330
1F
100
AcDbEntity
  8
1
  6
Continuous
 62
     7
100
AcDbLine
 10
217.1562529129819
 20
156.4164814003176
 30
0.0
 11
209.9622529129816
 21
156.4164814003176
 31
0.0
  0
LINE
  5
51
330
1F
100
AcDbEntity
  8
1
  6
Continuous
 62
     7
100
AcDbLine
 10
209.9622529129816
 20
107.2644814003175
 30
0.0
 11
217.1562529129819
 21
107.2644814003175
 31
0.0
  0
LINE
  5
52
330
1F
100
AcDbEntity
  8
1
  6
Continuous
 62
     7
100
AcDbLine
 10
209.9622529129816
 20
107.2644814003175
 30
0.0
 11
207.0122529129816
 21
107.2644814003175
 31
0.0
  0
LINE
  5
53
330
1F
100
AcDbEntity
  8
1
  6
Continuous
 62
     7
100
AcDbLine
 10
148.3342529129825
 20
107.2644814003175
 30
0.0
 11
146.2842529129825
 21
107.2644814003175
 31
0.0
  0
LINE
  5
54
330
1F
100
AcDbEntity
  8
FUTOSEN
  6
Continuous
 62
     7
100
AcDbLine
 10
151.2842529129825
 20
156.4164814003176
 30
0.0
 11
209.9622529129816
 21
156.4164814003176
 31
0.0
  0
LINE
  5
55
330
1F
100
AcDbEntity
  8
1
  6
Continuous
 62
     7
100
AcDbLine
 10
207.0122529129816
 20
156.4164814003176
 30
0.0
 11
209.9622529129816
 21
156.4164814003176
 31
0.0
  0
LINE
  5
56
330
1F
100
AcDbEntity
  8
FUTOSEN
  6
Continuous
 62
     7
100
AcDbLine
 10
290.0410529129817
 20
156.3755214003178
 30
0.0
 11
290.0410529129817
 21
107.2235214003176
 31
0.0
  0
LINE
  5
57
330
1F
100
AcDbEntity
  8
FUTOSEN
  6
Continuous
 62
     7
100
AcDbLine
 10
143.2122529129824
 20
114.3096014003164
 30
0.0
 11
143.8266529129828
 21
114.3096014003164
 31
0.0
  0
LINE
  5
58
330
1F
100
AcDbEntity
  8
1
  6
Continuous
 62
     7
100
AcDbLine
 10
151.2842529129825
 20
107.2644814003175
 30
0.0
 11
148.3342529129825
 21
107.2644814003175
 31
0.0
  0
LINE
  5
59
330
1F
100
AcDbEntity
  8
FUTOSEN
  6
Continuous
 62
     7
100
AcDbLine
 10
218.1562529129819
 20
136.6942414003166
 30
0.0
 11
218.1562529129819
 21
132.5163214003165
 31
0.0
  0
LINE
  5
5A
330
1F
100
AcDbEntity
  8
FUTOSEN
  6
Continuous
 62
     7
100
AcDbLine
 10
218.1562529129819
 20
138.0459214003164
 30
0.0
 11
220.1632929129823
 21
138.0459214003164
 31
0.0
  0
LINE
  5
5B
330
1F
100
AcDbEntity
  8
1
  6
Continuous
 62
     7
100
AcDbLine
 10
218.1562529129819
 20
155.4164814003176
 30
0.0
 11
218.1562529129819
 21
138.0459214003164
 31
0.0
  0
LINE
  5
5C
330
1F
100
AcDbEntity
  8
1
  6
Continuous
 62
     7
100
AcDbLine
 10
220.2042529129826
 20
125.6350414003169
 30
0.0
 11
212.0122529129926
 21
125.6350414003169
 31
0.0
  0
LINE
  5
5D
330
1F
100
AcDbEntity
  8
FUTOSEN
  6
Continuous
 62
     7
100
AcDbLine
 10
219.0164129129821
 20
125.4712014003177
 30
0.0
 11
219.0164129129821
 21
121.3752014003163
 31
0.0
  0
LINE
  5
5E
330
1F
100
AcDbEntity
  8
FUTOSEN
  6
Continuous
 62
     7
100
AcDbLine
 10
275.9917729129824
 20
122.9726414003177
 30
0.0
 11
275.9917729129824
 21
123.3822414003167
 31
0.0
  0
LINE
  5
5F
330
1F
100
AcDbEntity
  8
FUTOSEN
  6
Continuous
 62
     7
100
AcDbLine
 10
275.4592929129826
 20
123.3822414003167
 30
0.0
 11
275.9917729129824
 21
123.3822414003167
 31
0.0
  0
LINE
  5
60
330
1F
100
AcDbEntity
  8
FUTOSEN
  6
Continuous
 62
     7
100
AcDbLine
 10
275.4592929129826
 20
122.9726414003177
 30
0.0
 11
275.9917729129824
 21
122.9726414003177
 31
0.0
  0
LINE
  5
61
330
1F
100
AcDbEntity
  8
FUTOSEN
  6
Continuous
 62
     7
100
AcDbLine
 10
276.483292912982
 20
124.7339214003165
 30
0.0
 11
275.9917729129824
 21
124.7339214003165
 31
0.0
  0
LINE
  5
62
330
1F
100
AcDbEntity
  8
FUTOSEN
  6
Continuous
 62
     7
100
AcDbLine
 10
276.483292912982
 20
121.6209614003179
 30
0.0
 11
275.9917729129824
 21
121.6209614003179
 31
0.0
  0
LINE
  5
63
330
1F
100
AcDbEntity
  8
FUTOSEN
  6
Continuous
 62
     7
100
AcDbLine
 10
276.483292912982
 20
121.6209614003179
 30
0.0
 11
276.483292912982
 21
124.7339214003165
 31
0.0
  0
LINE
  5
64
330
1F
100
AcDbEntity
  8
FUTOSEN
  6
Continuous
 62
     7
100
AcDbLine
 10
277.2205729129814
 20
125.4302414003174
 30
0.0
 11
277.2205729129814
 21
124.0785614003176
 31
0.0
  0
LINE
  5
65
330
1F
100
AcDbEntity
  8
FUTOSEN
  6
Continuous
 62
     7
100
AcDbLine
 10
276.483292912982
 20
123.6280014003165
 30
0.0
 11
276.9338529129813
 21
123.8328014003179
 31
0.0
  0
LINE
  5
66
330
1F
100
AcDbEntity
  8
FUTOSEN
  6
Continuous
 62
     7
100
AcDbLine
 10
276.9338529129813
 20
122.8088014003166
 30
0.0
 11
276.483292912982
 21
122.5630414003168
 31
0.0
  0
LINE
  5
67
330
1F
100
AcDbEntity
  8
FUTOSEN
  6
Continuous
 62
     7
100
AcDbLine
 10
276.9338529129813
 20
121.5800014003176
 30
0.0
 11
276.483292912982
 21
121.5800014003176
 31
0.0
  0
LINE
  5
68
330
1F
100
AcDbEntity
  8
FUTOSEN
  6
Continuous
 62
     7
100
AcDbLine
 10
276.9338529129813
 20
125.4302414003174
 30
0.0
 11
276.9338529129813
 21
121.0065614003175
 31
0.0
  0
LINE
  5
69
330
1F
100
AcDbEntity
  8
FUTOSEN
  6
Continuous
 62
     7
100
AcDbLine
 10
276.483292912982
 20
124.8568014003173
 30
0.0
 11
276.9338529129813
 21
124.8568014003173
 31
0.0
  0
LINE
  5
6A
330
1F
100
AcDbEntity
  8
FUTOSEN
  6
Continuous
 62
     7
100
AcDbLine
 10
277.2205729129814
 20
121.0065614003175
 30
0.0
 11
276.9338529129813
 21
121.0065614003175
 31
0.0
  0
LINE
  5
6B
330
1F
100
AcDbEntity
  8
FUTOSEN
  6
Continuous
 62
     7
100
AcDbLine
 10
276.9338529129813
 20
125.4302414003174
 30
0.0
 11
277.2205729129814
 21
125.4302414003174
 31
0.0
  0
LINE
  5
6C
330
1F
100
AcDbEntity
  8
FUTOSEN
  6
Continuous
 62
     7
100
AcDbLine
 10
215.0842529129818
 20
129.8948814003176
 30
0.0
 11
215.4938529129826
 21
129.8948814003176
 31
0.0
  0
LINE
  5
6D
330
1F
100
AcDbEntity
  8
FUTOSEN
  6
Continuous
 62
     7
100
AcDbLine
 10
215.0842529129818
 20
128.2564814003177
 30
0.0
 11
215.4938529129826
 21
128.2564814003177
 31
0.0
  0
LINE
  5
6E
330
1F
100
AcDbEntity
  8
FUTOSEN
  6
Continuous
 62
     7
100
AcDbLine
 10
215.0842529129818
 20
129.2804814003172
 30
0.0
 11
215.0842529129818
 21
129.8948814003176
 31
0.0
  0
LINE
  5
6F
330
1F
100
AcDbEntity
  8
FUTOSEN
  6
Continuous
 62
     7
100
AcDbLine
 10
215.4938529129826
 20
129.2804814003172
 30
0.0
 11
215.4938529129826
 21
129.8948814003176
 31
0.0
  0
LINE
  5
70
330
1F
100
AcDbEntity
  8
FUTOSEN
  6
Continuous
 62
     7
100
AcDbLine
 10
215.4938529129826
 20
128.2564814003177
 30
0.0
 11
215.4938529129826
 21
128.8708814003163
 31
0.0
  0
LINE
  5
71
330
1F
100
AcDbEntity
  8
FUTOSEN
  6
Continuous
 62
     7
100
AcDbLine
 10
215.0842529129818
 20
128.8708814003163
 30
0.0
 11
215.0842529129818
 21
128.2564814003177
 31
0.0
  0
LINE
  5
72
330
1F
100
AcDbEntity
  8
FUTOSEN
  6
Continuous
 62
     7
100
AcDbLine
 10
215.4938529129826
 20
129.2804814003172
 30
0.0
 11
216.7226529129816
 21
129.2804814003172
 31
0.0
  0
LINE
  5
73
330
1F
100
AcDbEntity
  8
FUTOSEN
  6
Continuous
 62
     7
100
AcDbLine
 10
215.4938529129826
 20
128.8708814003163
 30
0.0
 11
216.7226529129816
 21
128.8708814003163
 31
0.0
  0
LINE
  5
74
330
1F
100
AcDbEntity
  8
FUTOSEN
  6
Continuous
 62
     7
100
AcDbLine
 10
213.8554529129828
 20
129.2804814003172
 30
0.0
 11
215.0842529129818
 21
129.2804814003172
 31
0.0
  0
LINE
  5
75
330
1F
100
AcDbEntity
  8
FUTOSEN
  6
Continuous
 62
     7
100
AcDbLine
 10
213.8554529129828
 20
128.8708814003163
 30
0.0
 11
215.0842529129818
 21
128.8708814003163
 31
0.0
  0
LINE
  5
76
330
1F
100
AcDbEntity
  8
FUTOSEN
  6
Continuous
 62
     7
100
AcDbLine
 10
142.597852912982
 20
114.3096014003164
 30
0.0
 11
143.2122529129824
 21
114.3096014003164
 31
0.0
  0
LINE
  5
77
330
1F
100
AcDbEntity
  8
FUTOSEN
  6
Continuous
 62
     7
100
AcDbLine
 10
142.597852912982
 20
116.6033614003169
 30
0.0
 11
143.8266529129828
 21
116.6033614003169
 31
0.0
  0
LINE
  5
78
330
1F
100
AcDbEntity
  8
FUTOSEN
  6
Continuous
 62
     7
100
AcDbLine
 10
289.6314529129826
 20
156.3755214003173
 30
0.0
 11
290.0410529129817
 21
156.3755214003178
 31
0.0
  0
LINE
  5
79
330
1F
100
AcDbEntity
  8
FUTOSEN
  6
Continuous
 62
     7
100
AcDbLine
 10
290.0410529129817
 20
107.2235214003176
 30
0.0
 11
289.6314529129826
 21
107.2235214003173
 31
0.0
  0
LINE
  5
7A
330
1F
100
AcDbEntity
  8
FUTOSEN
  6
Continuous
 62
     7
100
AcDbLine
 10
141.1402529129823
 20
156.4164814003176
 30
0.0
 11
148.3342529129825
 21
156.4164814003176
 31
0.0
  0
LINE
  5
7B
330
1F
100
AcDbEntity
  8
FUTOSEN
  6
Continuous
 62
     7
100
AcDbLine
 10
142.597852912982
 20
147.1185614003167
 30
0.0
 11
143.8266529129828
 21
147.1185614003167
 31
0.0
  0
LINE
  5
7C
330
1F
100
AcDbEntity
  8
FUTOSEN
  6
Continuous
 62
     7
100
AcDbLine
 10
142.597852912982
 20
149.4123214003172
 30
0.0
 11
143.8266529129828
 21
149.4123214003172
 31
0.0
  0
LINE
  5
7D
330
1F
100
AcDbEntity
  8
FUTOSEN
  6
Continuous
 62
     7
100
AcDbLine
 10
162.7642529129821
 20
142.0804814003164
 30
0.0
 11
195.5322529129821
 21
142.0804814003164
 31
0.0
  0
LINE
  5
7E
330
1F
100
AcDbEntity
  8
FUTOSEN
  6
Continuous
 62
     7
100
AcDbLine
 10
162.7642529129821
 20
121.6004814003169
 30
0.0
 11
162.7642529129821
 21
142.0804814003164
 31
0.0
  0
LINE
  5
7F
330
1F
100
AcDbEntity
  8
FUTOSEN
  6
Continuous
 62
     7
100
AcDbLine
 10
195.5322529129821
 20
121.6004814003169
 30
0.0
 11
162.7642529129821
 21
121.6004814003169
 31
0.0
  0
LINE
  5
80
330
1F
100
AcDbEntity
  8
FUTOSEN
  6
Continuous
 62
     7
100
AcDbLine
 10
195.5322529129821
 20
142.0804814003164
 30
0.0
 11
195.5322529129821
 21
121.6004814003169
 31
0.0
  0
LINE
  5
81
330
1F
100
AcDbEntity
  8
FUTOSEN
  6
Continuous
 62
     7
100
AcDbLine
 10
289.6314529129826
 20
155.4164814003174
 30
0.0
 11
290.0410529129817
 21
155.4164814003174
 31
0.0
  0
LINE
  5
82
330
1F
100
AcDbEntity
  8
FUTOSEN
  6
Continuous
 62
     7
100
AcDbLine
 10
289.6314529129826
 20
108.264481400318
 30
0.0
 11
290.0410529129817
 21
108.264481400318
 31
0.0
  0
LINE
  5
83
330
1F
100
AcDbEntity
  8
FUTOSEN
  6
Continuous
 62
     7
100
AcDbLine
 10
218.1562529129819
 20
131.1646414003168
 30
0.0
 11
218.1562529129819
 21
126.9867214003167
 31
0.0
  0
LINE
  5
84
330
1F
100
AcDbEntity
  8
FUTOSEN
  6
Continuous
 62
     7
100
AcDbLine
 10
218.1562529129819
 20
121.3752014003163
 30
0.0
 11
218.1562529129819
 21
108.2644814003175
 31
0.0
  0
LINE
  5
85
330
1F
100
AcDbEntity
  8
FUTOSEN
  6
Continuous
 62
     7
100
AcDbLine
 10
140.1402529129823
 20
136.6942414003166
 30
0.0
 11
140.1402529129823
 21
132.5163214003165
 31
0.0
  0
LINE
  5
86
330
1F
100
AcDbEntity
  8
FUTOSEN
  6
Continuous
 62
     7
100
AcDbLine
 10
140.1402529129823
 20
131.1646414003168
 30
0.0
 11
140.1402529129823
 21
126.9867214003167
 31
0.0
  0
LINE
  5
87
330
1F
100
AcDbEntity
  8
FUTOSEN
  6
Continuous
 62
     7
100
AcDbLine
 10
140.1402529129823
 20
125.6350414003169
 30
0.0
 11
140.1402529129823
 21
108.2644814003175
 31
0.0
  0
LINE
  5
88
330
1F
100
AcDbEntity
  8
FUTOSEN
  6
Continuous
 62
     7
100
AcDbLine
 10
145.2602529129812
 20
141.5172814003177
 30
0.0
 11
145.2602529129812
 21
141.9268814003168
 31
0.0
  0
LINE
  5
89
330
1F
100
AcDbEntity
  8
FUTOSEN
  6
Continuous
 62
     7
100
AcDbLine
 10
144.7687329129817
 20
141.9268814003168
 30
0.0
 11
145.2602529129812
 21
141.9268814003168
 31
0.0
  0
LINE
  5
8A
330
1F
100
AcDbEntity
  8
FUTOSEN
  6
Continuous
 62
     7
100
AcDbLine
 10
144.7687329129817
 20
141.5172814003177
 30
0.0
 11
145.2602529129812
 21
141.5172814003177
 31
0.0
  0
LINE
  5
8B
330
1F
100
AcDbEntity
  8
FUTOSEN
  6
Continuous
 62
     7
100
AcDbLine
 10
145.6698529129821
 20
143.1966414003178
 30
0.0
 11
145.2602529129812
 21
143.1966414003178
 31
0.0
  0
LINE
  5
8C
330
1F
100
AcDbEntity
  8
FUTOSEN
  6
Continuous
 62
     7
100
AcDbLine
 10
145.6698529129821
 20
140.288481400317
 30
0.0
 11
145.2602529129812
 21
140.288481400317
 31
0.0
  0
LINE
  5
8D
330
1F
100
AcDbEntity
  8
FUTOSEN
  6
Continuous
 62
     7
100
AcDbLine
 10
145.6698529129821
 20
140.288481400317
 30
0.0
 11
145.6698529129821
 21
143.1966414003178
 31
0.0
  0
LINE
  5
8E
330
1F
100
AcDbEntity
  8
FUTOSEN
  6
Continuous
 62
     7
100
AcDbLine
 10
145.6698529129821
 20
142.7460814003167
 30
0.0
 11
146.0794529129811
 21
142.7460814003167
 31
0.0
  0
LINE
  5
8F
330
1F
100
AcDbEntity
  8
FUTOSEN
  6
Continuous
 62
     7
100
AcDbLine
 10
145.6698529129821
 20
140.6980814003178
 30
0.0
 11
146.0794529129811
 21
140.6980814003178
 31
0.0
  0
LINE
  5
90
330
1F
100
AcDbEntity
  8
FUTOSEN
  6
Continuous
 62
     7
100
AcDbLine
 10
146.0794529129811
 20
140.288481400317
 30
0.0
 11
146.2842529129825
 21
140.288481400317
 31
0.0
  0
LINE
  5
91
330
1F
100
AcDbEntity
  8
FUTOSEN
  6
Continuous
 62
     7
100
AcDbLine
 10
146.0794529129811
 20
143.1966414003178
 30
0.0
 11
146.2842529129825
 21
143.1966414003178
 31
0.0
  0
LINE
  5
92
330
1F
100
AcDbEntity
  8
FUTOSEN
  6
Continuous
 62
     7
100
AcDbLine
 10
146.0794529129811
 20
140.288481400317
 30
0.0
 11
146.0794529129811
 21
143.1966414003178
 31
0.0
  0
LINE
  5
93
330
1F
100
AcDbEntity
  8
FUTOSEN
  6
Continuous
 62
     7
100
AcDbLine
 10
145.2602529129812
 20
123.1774414003172
 30
0.0
 11
145.2602529129812
 21
123.5870414003181
 31
0.0
  0
LINE
  5
94
330
1F
100
AcDbEntity
  8
FUTOSEN
  6
Continuous
 62
     7
100
AcDbLine
 10
144.7687329129817
 20
123.5870414003181
 30
0.0
 11
145.2602529129812
 21
123.5870414003181
 31
0.0
  0
LINE
  5
95
330
1F
100
AcDbEntity
  8
FUTOSEN
  6
Continuous
 62
     7
100
AcDbLine
 10
144.7687329129817
 20
123.1774414003172
 30
0.0
 11
145.2602529129812
 21
123.1774414003172
 31
0.0
  0
LINE
  5
96
330
1F
100
AcDbEntity
  8
FUTOSEN
  6
Continuous
 62
     7
100
AcDbLine
 10
145.6698529129821
 20
124.8568014003173
 30
0.0
 11
145.2602529129812
 21
124.8568014003173
 31
0.0
  0
LINE
  5
97
330
1F
100
AcDbEntity
  8
FUTOSEN
  6
Continuous
 62
     7
100
AcDbLine
 10
145.6698529129821
 20
121.9486414003164
 30
0.0
 11
145.2602529129812
 21
121.9486414003164
 31
0.0
  0
LINE
  5
98
330
1F
100
AcDbEntity
  8
FUTOSEN
  6
Continuous
 62
     7
100
AcDbLine
 10
145.6698529129821
 20
121.9486414003164
 30
0.0
 11
145.6698529129821
 21
124.8568014003173
 31
0.0
  0
LINE
  5
99
330
1F
100
AcDbEntity
  8
FUTOSEN
  6
Continuous
 62
     7
100
AcDbLine
 10
145.6698529129821
 20
124.406241400318
 30
0.0
 11
146.0794529129811
 21
124.406241400318
 31
0.0
  0
LINE
  5
9A
330
1F
100
AcDbEntity
  8
FUTOSEN
  6
Continuous
 62
     7
100
AcDbLine
 10
145.6698529129821
 20
122.3582414003173
 30
0.0
 11
146.0794529129811
 21
122.3582414003173
 31
0.0
  0
LINE
  5
9B
330
1F
100
AcDbEntity
  8
FUTOSEN
  6
Continuous
 62
     7
100
AcDbLine
 10
146.0794529129811
 20
121.9486414003164
 30
0.0
 11
146.2842529129825
 21
121.9486414003164
 31
0.0
  0
LINE
  5
9C
330
1F
100
AcDbEntity
  8
FUTOSEN
  6
Continuous
 62
     7
100
AcDbLine
 10
146.0794529129811
 20
124.8568014003173
 30
0.0
 11
146.2842529129825
 21
124.8568014003173
 31
0.0
  0
LINE
  5
9D
330
1F
100
AcDbEntity
  8
FUTOSEN
  6
Continuous
 62
     7
100
AcDbLine
 10
146.0794529129811
 20
121.9486414003164
 30
0.0
 11
146.0794529129811
 21
124.8568014003173
 31
0.0
  0
LINE
  5
9E
330
1F
100
AcDbEntity
  8
FUTOSEN
  6
Continuous
 62
     7
100
AcDbLine
 10
213.1181729129816
 20
141.0360014003178
 30
0.0
 11
213.1181729129816
 21
140.6264014003169
 31
0.0
  0
LINE
  5
9F
330
1F
100
AcDbEntity
  8
FUTOSEN
  6
Continuous
 62
     7
100
AcDbLine
 10
213.6096929129812
 20
140.6264014003169
 30
0.0
 11
213.1181729129816
 21
140.6264014003169
 31
0.0
  0
LINE
  5
A0
330
1F
100
AcDbEntity
  8
FUTOSEN
  6
Continuous
 62
     7
100
AcDbLine
 10
213.6096929129812
 20
141.0360014003178
 30
0.0
 11
213.1181729129816
 21
141.0360014003178
 31
0.0
  0
LINE
  5
A1
330
1F
100
AcDbEntity
  8
FUTOSEN
  6
Continuous
 62
     7
100
AcDbLine
 10
212.7085729129826
 20
139.3566414003177
 30
0.0
 11
213.1181729129816
 21
139.3566414003177
 31
0.0
  0
LINE
  5
A2
330
1F
100
AcDbEntity
  8
FUTOSEN
  6
Continuous
 62
     7
100
AcDbLine
 10
212.7085729129826
 20
142.2648014003167
 30
0.0
 11
213.1181729129816
 21
142.2648014003167
 31
0.0
  0
LINE
  5
A3
330
1F
100
AcDbEntity
  8
FUTOSEN
  6
Continuous
 62
     7
100
AcDbLine
 10
212.7085729129826
 20
142.2648014003167
 30
0.0
 11
212.7085729129826
 21
139.3566414003177
 31
0.0
  0
LINE
  5
A4
330
1F
100
AcDbEntity
  8
FUTOSEN
  6
Continuous
 62
     7
100
AcDbLine
 10
212.7085729129826
 20
139.807201400317
 30
0.0
 11
212.2989729129817
 21
139.807201400317
 31
0.0
  0
LINE
  5
A5
330
1F
100
AcDbEntity
  8
FUTOSEN
  6
Continuous
 62
     7
100
AcDbLine
 10
212.7085729129826
 20
141.8552014003177
 30
0.0
 11
212.2989729129817
 21
141.8552014003177
 31
0.0
  0
LINE
  5
A6
330
1F
100
AcDbEntity
  8
FUTOSEN
  6
Continuous
 62
     7
100
AcDbLine
 10
212.2989729129817
 20
142.2648014003167
 30
0.0
 11
212.0941729129822
 21
142.2648014003167
 31
0.0
  0
LINE
  5
A7
330
1F
100
AcDbEntity
  8
FUTOSEN
  6
Continuous
 62
     7
100
AcDbLine
 10
212.2989729129817
 20
139.3566414003177
 30
0.0
 11
212.0941729129822
 21
139.3566414003177
 31
0.0
  0
LINE
  5
A8
330
1F
100
AcDbEntity
  8
FUTOSEN
  6
Continuous
 62
     7
100
AcDbLine
 10
212.2989729129817
 20
142.2648014003167
 30
0.0
 11
212.2989729129817
 21
139.3566414003177
 31
0.0
  0
LINE
  5
A9
330
1F
100
AcDbEntity
  8
FUTOSEN
  6
Continuous
 62
     7
100
AcDbLine
 10
212.0122529129816
 20
121.3752014003163
 30
0.0
 11
219.0164129129821
 21
121.3752014003163
 31
0.0
  0
LINE
  5
AA
330
1F
100
AcDbEntity
  8
FUTOSEN
  6
Continuous
 62
     7
100
AcDbLine
 10
281.3165729129827
 20
123.0136014003179
 30
0.0
 11
281.3165729129827
 21
123.423201400317
 31
0.0
  0
LINE
  5
AB
330
1F
100
AcDbEntity
  8
FUTOSEN
  6
Continuous
 62
     7
100
AcDbLine
 10
280.7021729129824
 20
123.0136014003179
 30
0.0
 11
281.3165729129827
 21
123.0136014003179
 31
0.0
  0
LINE
  5
AC
330
1F
100
AcDbEntity
  8
FUTOSEN
  6
Continuous
 62
     7
100
AcDbLine
 10
280.7021729129824
 20
123.423201400317
 30
0.0
 11
281.3165729129827
 21
123.423201400317
 31
0.0
  0
LINE
  5
AD
330
1F
100
AcDbEntity
  8
FUTOSEN
  6
Continuous
 62
     7
100
AcDbLine
 10
280.7021729129824
 20
123.423201400317
 30
0.0
 11
280.7021729129824
 21
124.6520014003178
 31
0.0
  0
LINE
  5
AE
330
1F
100
AcDbEntity
  8
FUTOSEN
  6
Continuous
 62
     7
100
AcDbLine
 10
280.2925729129815
 20
123.9556814003168
 30
0.0
 11
280.2925729129815
 21
124.6520014003178
 31
0.0
  0
LINE
  5
AF
330
1F
100
AcDbEntity
  8
FUTOSEN
  6
Continuous
 62
     7
100
AcDbLine
 10
280.7021729129824
 20
121.7848014003172
 30
0.0
 11
280.7021729129824
 21
123.0136014003179
 31
0.0
  0
LINE
  5
B0
330
1F
100
AcDbEntity
  8
FUTOSEN
  6
Continuous
 62
     7
100
AcDbLine
 10
280.2925729129815
 20
121.7848014003172
 30
0.0
 11
280.2925729129815
 21
122.4811214003163
 31
0.0
  0
LINE
  5
B1
330
1F
100
AcDbEntity
  8
FUTOSEN
  6
Continuous
 62
     7
100
AcDbLine
 10
281.3165729129827
 20
141.0360014003178
 30
0.0
 11
281.3165729129827
 21
140.6264014003169
 31
0.0
  0
LINE
  5
B2
330
1F
100
AcDbEntity
  8
FUTOSEN
  6
Continuous
 62
     7
100
AcDbLine
 10
279.6781729129811
 20
141.0360014003178
 30
0.0
 11
279.6781729129811
 21
140.6264014003169
 31
0.0
  0
LINE
  5
B3
330
1F
100
AcDbEntity
  8
FUTOSEN
  6
Continuous
 62
     7
100
AcDbLine
 10
280.7021729129824
 20
141.0360014003178
 30
0.0
 11
281.3165729129827
 21
141.0360014003178
 31
0.0
  0
LINE
  5
B4
330
1F
100
AcDbEntity
  8
FUTOSEN
  6
Continuous
 62
     7
100
AcDbLine
 10
280.7021729129824
 20
140.6264014003169
 30
0.0
 11
281.3165729129827
 21
140.6264014003169
 31
0.0
  0
LINE
  5
B5
330
1F
100
AcDbEntity
  8
FUTOSEN
  6
Continuous
 62
     7
100
AcDbLine
 10
279.6781729129811
 20
140.6264014003169
 30
0.0
 11
280.2925729129815
 21
140.6264014003169
 31
0.0
  0
LINE
  5
B6
330
1F
100
AcDbEntity
  8
FUTOSEN
  6
Continuous
 62
     7
100
AcDbLine
 10
280.2925729129815
 20
141.0360014003178
 30
0.0
 11
279.6781729129811
 21
141.0360014003178
 31
0.0
  0
LINE
  5
B7
330
1F
100
AcDbEntity
  8
FUTOSEN
  6
Continuous
 62
     7
100
AcDbLine
 10
280.7021729129824
 20
140.6264014003169
 30
0.0
 11
280.7021729129824
 21
139.397601400318
 31
0.0
  0
LINE
  5
B8
330
1F
100
AcDbEntity
  8
FUTOSEN
  6
Continuous
 62
     7
100
AcDbLine
 10
280.2925729129815
 20
140.6264014003169
 30
0.0
 11
280.2925729129815
 21
139.397601400318
 31
0.0
  0
LINE
  5
B9
330
1F
100
AcDbEntity
  8
FUTOSEN
  6
Continuous
 62
     7
100
AcDbLine
 10
280.7021729129824
 20
142.2648014003167
 30
0.0
 11
280.7021729129824
 21
141.0360014003178
 31
0.0
  0
LINE
  5
BA
330
1F
100
AcDbEntity
  8
FUTOSEN
  6
Continuous
 62
     7
100
AcDbLine
 10
280.2925729129815
 20
142.2648014003167
 30
0.0
 11
280.2925729129815
 21
141.0360014003178
 31
0.0
  0
LINE
  5
BB
330
1F
100
AcDbEntity
  8
SAISEN
  6
Continuous
 62
     3
100
AcDbLine
 10
280.2106529129828
 20
124.0376014003174
 30
0.0
 11
280.2106529129828
 21
122.3992014003176
 31
0.0
  0
LINE
  5
BC
330
1F
100
AcDbEntity
  8
FUTOSEN
  6
Continuous
 62
     7
100
AcDbLine
 10
280.6202529129818
 20
122.8088014003166
 30
0.0
 11
280.2106529129828
 21
122.3992014003176
 31
0.0
  0
LINE
  5
BD
330
1F
100
AcDbEntity
  8
FUTOSEN
  6
Continuous
 62
     7
100
AcDbLine
 10
280.6202529129818
 20
123.6280014003165
 30
0.0
 11
280.2106529129828
 21
124.0376014003174
 31
0.0
  0
LINE
  5
BE
330
1F
100
AcDbEntity
  8
SAISEN
  6
Continuous
 62
     3
100
AcDbLine
 10
280.6202529129818
 20
123.6280014003165
 30
0.0
 11
277.8349729129818
 21
123.6280014003165
 31
0.0
  0
LINE
  5
BF
330
1F
100
AcDbEntity
  8
SAISEN
  6
Continuous
 62
     3
100
AcDbLine
 10
277.8349729129818
 20
122.8088014003166
 30
0.0
 11
280.6202529129818
 21
122.8088014003166
 31
0.0
  0
LINE
  5
C0
330
1F
100
AcDbEntity
  8
FUTOSEN
  6
Continuous
 62
     7
100
AcDbLine
 10
277.8349729129818
 20
124.0376014003174
 30
0.0
 11
280.2106529129828
 21
124.0376014003174
 31
0.0
  0
LINE
  5
C1
330
1F
100
AcDbEntity
  8
FUTOSEN
  6
Continuous
 62
     7
100
AcDbLine
 10
280.2106529129828
 20
122.3992014003176
 30
0.0
 11
277.8349729129818
 21
122.3992014003176
 31
0.0
  0
LINE
  5
C2
330
1F
100
AcDbEntity
  8
FUTOSEN
  6
Continuous
 62
     7
100
AcDbLine
 10
280.6202529129818
 20
123.6280014003165
 30
0.0
 11
280.6202529129818
 21
122.8088014003166
 31
0.0
  0
LINE
  5
C3
330
1F
100
AcDbEntity
  8
FUTOSEN
  6
Continuous
 62
     7
100
AcDbLine
 10
277.8349729129818
 20
125.6760014003172
 30
0.0
 11
277.8349729129818
 21
120.801761400318
 31
0.0
  0
LINE
  5
C4
330
1F
100
AcDbEntity
  8
FUTOSEN
  6
Continuous
 62
     7
100
AcDbLine
 10
283.8151329129827
 20
120.8427214003165
 30
0.0
 11
283.8151329129827
 21
125.6760014003172
 31
0.0
  0
LINE
  5
C5
330
1F
100
AcDbEntity
  8
FUTOSEN
  6
Continuous
 62
     7
100
AcDbLine
 10
277.2205729129814
 20
120.8427214003165
 30
0.0
 11
277.2205729129814
 21
125.0616014003168
 31
0.0
  0
LINE
  5
C6
330
1F
100
AcDbEntity
  8
FUTOSEN
  6
Continuous
 62
     7
100
AcDbLine
 10
277.1796129129811
 20
120.8427214003165
 30
0.0
 11
283.8151329129827
 21
120.8427214003165
 31
0.0
  0
LINE
  5
C7
330
1F
100
AcDbEntity
  8
FUTOSEN
  6
Continuous
 62
     7
100
AcDbLine
 10
212.0122529129816
 20
125.4712014003177
 30
0.0
 11
219.0164129129821
 21
125.4712014003177
 31
0.0
  0
LINE
  5
C8
330
1F
100
AcDbEntity
  8
FUTOSEN
  6
Continuous
 62
     7
100
AcDbLine
 10
137.6826529129825
 20
126.6590414003164
 30
0.0
 11
137.6826529129825
 21
125.9627214003173
 31
0.0
  0
LINE
  5
C9
330
1F
100
AcDbEntity
  8
SAISEN
  6
Continuous
 62
     3
100
AcDbLine
 10
146.2842529129825
 20
125.6350414003169
 30
0.0
 11
146.2842529129825
 21
120.7608014003177
 31
0.0
  0
LINE
  5
CA
330
1F
100
AcDbEntity
  8
SAISEN
  6
Continuous
 62
     3
100
AcDbLine
 10
146.2842529129825
 20
139.3054414003178
 30
0.0
 11
146.2842529129825
 21
143.9748814003175
 31
0.0
  0
LINE
  5
CB
330
1F
100
AcDbEntity
  8
SAISEN
  6
Continuous
 62
     3
100
AcDbLine
 10
146.2842529129825
 20
139.3054414003178
 30
0.0
 11
146.2842529129825
 21
143.9748814003175
 31
0.0
  0
LINE
  5
CC
330
1F
100
AcDbEntity
  8
SAISEN
  6
Continuous
 62
     3
100
AcDbLine
 10
146.2842529129825
 20
125.6350414003169
 30
0.0
 11
146.2842529129825
 21
120.7608014003177
 31
0.0
  0
LINE
  5
CD
330
1F
100
AcDbEntity
  8
FUTOSEN
  6
Continuous
 62
     7
100
AcDbLine
 10
143.2122529129824
 20
133.7860814003176
 30
0.0
 11
142.8026529129815
 21
133.7860814003176
 31
0.0
  0
LINE
  5
CE
330
1F
100
AcDbEntity
  8
FUTOSEN
  6
Continuous
 62
     7
100
AcDbLine
 10
143.2122529129824
 20
135.4244814003174
 30
0.0
 11
142.8026529129815
 21
135.4244814003174
 31
0.0
  0
LINE
  5
CF
330
1F
100
AcDbEntity
  8
FUTOSEN
  6
Continuous
 62
     7
100
AcDbLine
 10
143.2122529129824
 20
134.400481400318
 30
0.0
 11
143.2122529129824
 21
133.7860814003176
 31
0.0
  0
LINE
  5
D0
330
1F
100
AcDbEntity
  8
FUTOSEN
  6
Continuous
 62
     7
100
AcDbLine
 10
142.8026529129815
 20
134.400481400318
 30
0.0
 11
142.8026529129815
 21
133.7860814003176
 31
0.0
  0
LINE
  5
D1
330
1F
100
AcDbEntity
  8
FUTOSEN
  6
Continuous
 62
     7
100
AcDbLine
 10
142.8026529129815
 20
135.4244814003174
 30
0.0
 11
142.8026529129815
 21
134.810081400317
 31
0.0
  0
LINE
  5
D2
330
1F
100
AcDbEntity
  8
FUTOSEN
  6
Continuous
 62
     7
100
AcDbLine
 10
143.2122529129824
 20
134.810081400317
 30
0.0
 11
143.2122529129824
 21
135.4244814003174
 31
0.0
  0
LINE
  5
D3
330
1F
100
AcDbEntity
  8
FUTOSEN
  6
Continuous
 62
     7
100
AcDbLine
 10
142.8026529129815
 20
134.400481400318
 30
0.0
 11
141.5738529129826
 21
134.400481400318
 31
0.0
  0
LINE
  5
D4
330
1F
100
AcDbEntity
  8
FUTOSEN
  6
Continuous
 62
     7
100
AcDbLine
 10
142.8026529129815
 20
134.810081400317
 30
0.0
 11
141.5738529129826
 21
134.810081400317
 31
0.0
  0
LINE
  5
D5
330
1F
100
AcDbEntity
  8
FUTOSEN
  6
Continuous
 62
     7
100
AcDbLine
 10
144.4410529129813
 20
134.400481400318
 30
0.0
 11
143.2122529129824
 21
134.400481400318
 31
0.0
  0
LINE
  5
D6
330
1F
100
AcDbEntity
  8
FUTOSEN
  6
Continuous
 62
     7
100
AcDbLine
 10
144.4410529129813
 20
134.810081400317
 30
0.0
 11
143.2122529129824
 21
134.810081400317
 31
0.0
  0
LINE
  5
D7
330
1F
100
AcDbEntity
  8
FUTOSEN
  6
Continuous
 62
     7
100
AcDbLine
 10
143.2122529129824
 20
128.2564814003177
 30
0.0
 11
142.8026529129815
 21
128.2564814003177
 31
0.0
  0
LINE
  5
D8
330
1F
100
AcDbEntity
  8
FUTOSEN
  6
Continuous
 62
     7
100
AcDbLine
 10
143.2122529129824
 20
129.8948814003176
 30
0.0
 11
142.8026529129815
 21
129.8948814003176
 31
0.0
  0
LINE
  5
D9
330
1F
100
AcDbEntity
  8
FUTOSEN
  6
Continuous
 62
     7
100
AcDbLine
 10
143.2122529129824
 20
128.8708814003163
 30
0.0
 11
143.2122529129824
 21
128.2564814003177
 31
0.0
  0
LINE
  5
DA
330
1F
100
AcDbEntity
  8
FUTOSEN
  6
Continuous
 62
     7
100
AcDbLine
 10
142.8026529129815
 20
128.8708814003163
 30
0.0
 11
142.8026529129815
 21
128.2564814003177
 31
0.0
  0
LINE
  5
DB
330
1F
100
AcDbEntity
  8
FUTOSEN
  6
Continuous
 62
     7
100
AcDbLine
 10
142.8026529129815
 20
129.8948814003176
 30
0.0
 11
142.8026529129815
 21
129.2804814003172
 31
0.0
  0
LINE
  5
DC
330
1F
100
AcDbEntity
  8
FUTOSEN
  6
Continuous
 62
     7
100
AcDbLine
 10
143.2122529129824
 20
129.2804814003172
 30
0.0
 11
143.2122529129824
 21
129.8948814003176
 31
0.0
  0
LINE
  5
DD
330
1F
100
AcDbEntity
  8
FUTOSEN
  6
Continuous
 62
     7
100
AcDbLine
 10
142.8026529129815
 20
128.8708814003163
 30
0.0
 11
141.5738529129826
 21
128.8708814003163
 31
0.0
  0
LINE
  5
DE
330
1F
100
AcDbEntity
  8
FUTOSEN
  6
Continuous
 62
     7
100
AcDbLine
 10
142.8026529129815
 20
129.2804814003172
 30
0.0
 11
141.5738529129826
 21
129.2804814003172
 31
0.0
  0
LINE
  5
DF
330
1F
100
AcDbEntity
  8
FUTOSEN
  6
Continuous
 62
     7
100
AcDbLine
 10
144.4410529129813
 20
128.8708814003163
 30
0.0
 11
143.2122529129824
 21
128.8708814003163
 31
0.0
  0
LINE
  5
E0
330
1F
100
AcDbEntity
  8
FUTOSEN
  6
Continuous
 62
     7
100
AcDbLine
 10
144.4410529129813
 20
129.2804814003172
 30
0.0
 11
143.2122529129824
 21
129.2804814003172
 31
0.0
  0
LINE
  5
E1
330
1F
100
AcDbEntity
  8
FUTOSEN
  6
Continuous
 62
     7
100
AcDbLine
 10
140.9594529129822
 20
131.1646414003168
 30
0.0
 11
140.9594529129822
 21
126.9867214003167
 31
0.0
  0
LINE
  5
E2
330
1F
100
AcDbEntity
  8
FUTOSEN
  6
Continuous
 62
     7
100
AcDbLine
 10
140.9594529129822
 20
136.6942414003166
 30
0.0
 11
140.9594529129822
 21
132.5163214003165
 31
0.0
  0
LINE
  5
E3
330
1F
100
AcDbEntity
  8
FUTOSEN
  6
Continuous
 62
     7
100
AcDbLine
 10
140.5498529129813
 20
132.5163214003165
 30
0.0
 11
140.5498529129813
 21
136.6942414003166
 31
0.0
  0
LINE
  5
E4
330
1F
100
AcDbEntity
  8
FUTOSEN
  6
Continuous
 62
     7
100
AcDbLine
 10
140.5498529129813
 20
131.1646414003168
 30
0.0
 11
140.5498529129813
 21
126.9867214003167
 31
0.0
  0
LINE
  5
E5
330
1F
100
AcDbEntity
  8
FUTOSEN
  6
Continuous
 62
     7
100
AcDbLine
 10
137.6826529129825
 20
131.5742414003176
 30
0.0
 11
137.6826529129825
 21
132.1067214003175
 31
0.0
  0
LINE
  5
E6
330
1F
100
AcDbEntity
  8
FUTOSEN
  6
Continuous
 62
     7
100
AcDbLine
 10
137.6826529129825
 20
137.1038414003175
 30
0.0
 11
137.6826529129825
 21
137.6363214003173
 31
0.0
  0
LINE
  5
E7
330
1F
100
AcDbEntity
  8
FUTOSEN
  6
Continuous
 62
     7
100
AcDbLine
 10
145.4240929129823
 20
126.9867214003167
 30
0.0
 11
138.0922529129816
 21
126.9867214003167
 31
0.0
  0
LINE
  5
E8
330
1F
100
AcDbEntity
  8
FUTOSEN
  6
Continuous
 62
     7
100
AcDbLine
 10
145.4240929129823
 20
131.1646414003168
 30
0.0
 11
138.0922529129816
 21
131.1646414003168
 31
0.0
  0
LINE
  5
E9
330
1F
100
AcDbEntity
  8
FUTOSEN
  6
Continuous
 62
     7
100
AcDbLine
 10
145.4240929129823
 20
132.5163214003165
 30
0.0
 11
138.0922529129816
 21
132.5163214003165
 31
0.0
  0
LINE
  5
EA
330
1F
100
AcDbEntity
  8
FUTOSEN
  6
Continuous
 62
     7
100
AcDbLine
 10
145.4240929129823
 20
136.6942414003166
 30
0.0
 11
138.0922529129816
 21
136.6942414003166
 31
0.0
  0
LINE
  5
EB
330
1F
100
AcDbEntity
  8
FUTOSEN
  6
Continuous
 62
     7
100
AcDbLine
 10
146.2842529129825
 20
138.0459214003164
 30
0.0
 11
138.0922529129816
 21
138.0459214003164
 31
0.0
  0
LINE
  5
EC
330
1F
100
AcDbEntity
  8
FUTOSEN
  6
Continuous
 62
     7
100
AcDbLine
 10
145.4240929129823
 20
131.1646414003168
 30
0.0
 11
145.4240929129823
 21
126.9867214003167
 31
0.0
  0
LINE
  5
ED
330
1F
100
AcDbEntity
  8
FUTOSEN
  6
Continuous
 62
     7
100
AcDbLine
 10
145.4240929129823
 20
136.6942414003166
 30
0.0
 11
145.4240929129823
 21
132.5163214003165
 31
0.0
  0
LINE
  5
EE
330
1F
100
AcDbEntity
  8
FUTOSEN
  6
Continuous
 62
     7
100
AcDbLine
 10
137.6826529129825
 20
126.0446414003178
 30
0.0
 11
137.6826529129825
 21
126.5771214003176
 31
0.0
  0
LINE
  5
EF
330
1F
100
AcDbEntity
  8
FUTOSEN
  6
Continuous
 62
     7
100
AcDbLine
 10
146.2842529129825
 20
125.6350414003169
 30
0.0
 11
138.0922529129816
 21
125.6350414003169
 31
0.0
  0
LINE
  5
F0
330
1F
100
AcDbEntity
  8
FUTOSEN
  6
Continuous
 62
     7
100
AcDbLine
 10
220.6138529129816
 20
126.0446414003178
 30
0.0
 11
220.6138529129816
 21
126.5771214003176
 31
0.0
  0
LINE
  5
F1
330
1F
100
AcDbEntity
  8
SAISEN
  6
Continuous
 62
     3
100
AcDbLine
 10
212.0122529129816
 20
125.6350414003169
 30
0.0
 11
212.0122529129816
 21
120.9656014003173
 31
0.0
  0
LINE
  5
F2
330
1F
100
AcDbEntity
  8
SAISEN
  6
Continuous
 62
     3
100
AcDbLine
 10
212.0122529129816
 20
125.6350414003169
 30
0.0
 11
212.0122529129816
 21
120.9656014003173
 31
0.0
  0
LINE
  5
F3
330
1F
100
AcDbEntity
  8
FUTOSEN
  6
Continuous
 62
     7
100
AcDbLine
 10
215.0842529129818
 20
124.2424014003169
 30
0.0
 11
215.4938529129826
 21
124.2424014003169
 31
0.0
  0
LINE
  5
F4
330
1F
100
AcDbEntity
  8
FUTOSEN
  6
Continuous
 62
     7
100
AcDbLine
 10
215.0842529129818
 20
122.6040014003171
 30
0.0
 11
215.4938529129826
 21
122.6040014003171
 31
0.0
  0
LINE
  5
F5
330
1F
100
AcDbEntity
  8
FUTOSEN
  6
Continuous
 62
     7
100
AcDbLine
 10
215.0842529129818
 20
123.6280014003165
 30
0.0
 11
215.0842529129818
 21
124.2424014003169
 31
0.0
  0
LINE
  5
F6
330
1F
100
AcDbEntity
  8
FUTOSEN
  6
Continuous
 62
     7
100
AcDbLine
 10
215.4938529129826
 20
123.6280014003165
 30
0.0
 11
215.4938529129826
 21
124.2424014003169
 31
0.0
  0
LINE
  5
F7
330
1F
100
AcDbEntity
  8
FUTOSEN
  6
Continuous
 62
     7
100
AcDbLine
 10
215.4938529129826
 20
122.6040014003171
 30
0.0
 11
215.4938529129826
 21
123.2184014003175
 31
0.0
  0
LINE
  5
F8
330
1F
100
AcDbEntity
  8
FUTOSEN
  6
Continuous
 62
     7
100
AcDbLine
 10
215.0842529129818
 20
123.2184014003175
 30
0.0
 11
215.0842529129818
 21
122.6040014003171
 31
0.0
  0
LINE
  5
F9
330
1F
100
AcDbEntity
  8
FUTOSEN
  6
Continuous
 62
     7
100
AcDbLine
 10
215.4938529129826
 20
123.6280014003165
 30
0.0
 11
216.7226529129816
 21
123.6280014003165
 31
0.0
  0
LINE
  5
FA
330
1F
100
AcDbEntity
  8
FUTOSEN
  6
Continuous
 62
     7
100
AcDbLine
 10
215.4938529129826
 20
123.2184014003175
 30
0.0
 11
216.7226529129816
 21
123.2184014003175
 31
0.0
  0
LINE
  5
FB
330
1F
100
AcDbEntity
  8
FUTOSEN
  6
Continuous
 62
     7
100
AcDbLine
 10
213.8554529129828
 20
123.6280014003165
 30
0.0
 11
215.0842529129818
 21
123.6280014003165
 31
0.0
  0
LINE
  5
FC
330
1F
100
AcDbEntity
  8
FUTOSEN
  6
Continuous
 62
     7
100
AcDbLine
 10
213.8554529129828
 20
123.2184014003175
 30
0.0
 11
215.0842529129818
 21
123.2184014003175
 31
0.0
  0
LINE
  5
FD
330
1F
100
AcDbEntity
  8
FUTOSEN
  6
Continuous
 62
     7
100
AcDbLine
 10
215.0842529129818
 20
135.4244814003174
 30
0.0
 11
215.4938529129826
 21
135.4244814003174
 31
0.0
  0
LINE
  5
FE
330
1F
100
AcDbEntity
  8
FUTOSEN
  6
Continuous
 62
     7
100
AcDbLine
 10
215.0842529129818
 20
133.7860814003176
 30
0.0
 11
215.4938529129826
 21
133.7860814003176
 31
0.0
  0
LINE
  5
FF
330
1F
100
AcDbEntity
  8
FUTOSEN
  6
Continuous
 62
     7
100
AcDbLine
 10
215.0842529129818
 20
134.810081400317
 30
0.0
 11
215.0842529129818
 21
135.4244814003174
 31
0.0
  0
LINE
  5
100
330
1F
100
AcDbEntity
  8
FUTOSEN
  6
Continuous
 62
     7
100
AcDbLine
 10
215.4938529129826
 20
134.810081400317
 30
0.0
 11
215.4938529129826
 21
135.4244814003174
 31
0.0
  0
LINE
  5
101
330
1F
100
AcDbEntity
  8
FUTOSEN
  6
Continuous
 62
     7
100
AcDbLine
 10
215.4938529129826
 20
133.7860814003176
 30
0.0
 11
215.4938529129826
 21
134.400481400318
 31
0.0
  0
LINE
  5
102
330
1F
100
AcDbEntity
  8
FUTOSEN
  6
Continuous
 62
     7
100
AcDbLine
 10
215.0842529129818
 20
134.400481400318
 30
0.0
 11
215.0842529129818
 21
133.7860814003176
 31
0.0
  0
LINE
  5
103
330
1F
100
AcDbEntity
  8
FUTOSEN
  6
Continuous
 62
     7
100
AcDbLine
 10
215.4938529129826
 20
134.810081400317
 30
0.0
 11
216.7226529129816
 21
134.810081400317
 31
0.0
  0
LINE
  5
104
330
1F
100
AcDbEntity
  8
FUTOSEN
  6
Continuous
 62
     7
100
AcDbLine
 10
215.4938529129826
 20
134.400481400318
 30
0.0
 11
216.7226529129816
 21
134.400481400318
 31
0.0
  0
LINE
  5
105
330
1F
100
AcDbEntity
  8
FUTOSEN
  6
Continuous
 62
     7
100
AcDbLine
 10
213.8554529129828
 20
134.810081400317
 30
0.0
 11
215.0842529129818
 21
134.810081400317
 31
0.0
  0
LINE
  5
106
330
1F
100
AcDbEntity
  8
FUTOSEN
  6
Continuous
 62
     7
100
AcDbLine
 10
213.8554529129828
 20
134.400481400318
 30
0.0
 11
215.0842529129818
 21
134.400481400318
 31
0.0
  0
LINE
  5
107
330
1F
100
AcDbEntity
  8
FUTOSEN
  6
Continuous
 62
     7
100
AcDbLine
 10
217.746652912981
 20
131.1646414003168
 30
0.0
 11
217.746652912981
 21
126.9867214003167
 31
0.0
  0
LINE
  5
108
330
1F
100
AcDbEntity
  8
FUTOSEN
  6
Continuous
 62
     7
100
AcDbLine
 10
217.746652912981
 20
136.6942414003166
 30
0.0
 11
217.746652912981
 21
132.5163214003165
 31
0.0
  0
LINE
  5
109
330
1F
100
AcDbEntity
  8
FUTOSEN
  6
Continuous
 62
     7
100
AcDbLine
 10
220.6138529129816
 20
137.6363214003173
 30
0.0
 11
220.6138529129816
 21
137.1038414003175
 31
0.0
  0
LINE
  5
10A
330
1F
100
AcDbEntity
  8
FUTOSEN
  6
Continuous
 62
     7
100
AcDbLine
 10
220.6138529129816
 20
132.1067214003175
 30
0.0
 11
220.6138529129816
 21
131.5742414003176
 31
0.0
  0
LINE
  5
10B
330
1F
100
AcDbEntity
  8
FUTOSEN
  6
Continuous
 62
     7
100
AcDbLine
 10
212.0122529129816
 20
138.0459214003164
 30
0.0
 11
218.1562529129819
 21
138.0459214003164
 31
0.0
  0
LINE
  5
10C
330
1F
100
AcDbEntity
  8
FUTOSEN
  6
Continuous
 62
     7
100
AcDbLine
 10
212.8724129129818
 20
136.6942414003166
 30
0.0
 11
220.2042529129826
 21
136.6942414003166
 31
0.0
  0
LINE
  5
10D
330
1F
100
AcDbEntity
  8
FUTOSEN
  6
Continuous
 62
     7
100
AcDbLine
 10
212.8724129129818
 20
132.5163214003165
 30
0.0
 11
220.1632929129823
 21
132.5163214003165
 31
0.0
  0
LINE
  5
10E
330
1F
100
AcDbEntity
  8
FUTOSEN
  6
Continuous
 62
     7
100
AcDbLine
 10
212.8314529129816
 20
131.1646414003168
 30
0.0
 11
220.1632929129823
 21
131.1646414003168
 31
0.0
  0
LINE
  5
10F
330
1F
100
AcDbEntity
  8
FUTOSEN
  6
Continuous
 62
     7
100
AcDbLine
 10
212.8314529129816
 20
126.9867214003167
 30
0.0
 11
220.2042529129826
 21
126.9867214003167
 31
0.0
  0
LINE
  5
110
330
1F
100
AcDbEntity
  8
FUTOSEN
  6
Continuous
 62
     7
100
AcDbLine
 10
212.8724129129818
 20
132.5163214003165
 30
0.0
 11
212.8724129129818
 21
136.6942414003166
 31
0.0
  0
LINE
  5
111
330
1F
100
AcDbEntity
  8
FUTOSEN
  6
Continuous
 62
     7
100
AcDbLine
 10
212.8314529129816
 20
126.9867214003167
 30
0.0
 11
212.8314529129816
 21
131.1646414003168
 31
0.0
  0
LINE
  5
112
330
1F
100
AcDbEntity
  8
FUTOSEN
  6
Continuous
 62
     7
100
AcDbLine
 10
277.6301729129822
 20
132.5163214003165
 30
0.0
 11
280.497372912981
 21
132.5163214003165
 31
0.0
  0
LINE
  5
113
330
1F
100
AcDbEntity
  8
FUTOSEN
  6
Continuous
 62
     7
100
AcDbLine
 10
283.7741729129825
 20
126.7409614003169
 30
0.0
 11
283.7741729129825
 21
126.3723214003163
 31
0.0
  0
LINE
  5
114
330
1F
100
AcDbEntity
  8
FUTOSEN
  6
Continuous
 62
     7
100
AcDbLine
 10
277.2205729129814
 20
125.7169614003175
 30
0.0
 11
277.2205729129814
 21
125.4302414003174
 31
0.0
  0
LINE
  5
115
330
1F
100
AcDbEntity
  8
FUTOSEN
  6
Continuous
 62
     7
100
AcDbLine
 10
279.4733729129816
 20
128.8708814003163
 30
0.0
 11
279.4733729129816
 21
129.2804814003172
 31
0.0
  0
LINE
  5
116
330
1F
100
AcDbEntity
  8
FUTOSEN
  6
Continuous
 62
     7
100
AcDbLine
 10
278.981852912982
 20
129.2804814003172
 30
0.0
 11
279.4733729129816
 21
129.2804814003172
 31
0.0
  0
LINE
  5
117
330
1F
100
AcDbEntity
  8
FUTOSEN
  6
Continuous
 62
     7
100
AcDbLine
 10
278.981852912982
 20
128.8708814003163
 30
0.0
 11
279.4733729129816
 21
128.8708814003163
 31
0.0
  0
LINE
  5
118
330
1F
100
AcDbEntity
  8
FUTOSEN
  6
Continuous
 62
     7
100
AcDbLine
 10
279.8829729129824
 20
130.5502414003164
 30
0.0
 11
279.4733729129816
 21
130.5502414003164
 31
0.0
  0
LINE
  5
119
330
1F
100
AcDbEntity
  8
FUTOSEN
  6
Continuous
 62
     7
100
AcDbLine
 10
279.8829729129824
 20
127.6420814003173
 30
0.0
 11
279.4733729129816
 21
127.6420814003173
 31
0.0
  0
LINE
  5
11A
330
1F
100
AcDbEntity
  8
FUTOSEN
  6
Continuous
 62
     7
100
AcDbLine
 10
279.8829729129824
 20
127.6420814003173
 30
0.0
 11
279.8829729129824
 21
130.5502414003164
 31
0.0
  0
LINE
  5
11B
330
1F
100
AcDbEntity
  8
FUTOSEN
  6
Continuous
 62
     7
100
AcDbLine
 10
279.8829729129824
 20
130.0996814003171
 30
0.0
 11
280.2925729129815
 21
130.0996814003171
 31
0.0
  0
LINE
  5
11C
330
1F
100
AcDbEntity
  8
FUTOSEN
  6
Continuous
 62
     7
100
AcDbLine
 10
279.8829729129824
 20
128.0516814003164
 30
0.0
 11
280.2925729129815
 21
128.0516814003164
 31
0.0
  0
LINE
  5
11D
330
1F
100
AcDbEntity
  8
FUTOSEN
  6
Continuous
 62
     7
100
AcDbLine
 10
280.2925729129815
 20
127.6420814003173
 30
0.0
 11
280.497372912981
 21
127.6420814003173
 31
0.0
  0
LINE
  5
11E
330
1F
100
AcDbEntity
  8
FUTOSEN
  6
Continuous
 62
     7
100
AcDbLine
 10
280.2925729129815
 20
130.5502414003164
 30
0.0
 11
280.497372912981
 21
130.5502414003164
 31
0.0
  0
LINE
  5
11F
330
1F
100
AcDbEntity
  8
FUTOSEN
  6
Continuous
 62
     7
100
AcDbLine
 10
280.2925729129815
 20
127.6420814003173
 30
0.0
 11
280.2925729129815
 21
130.5502414003164
 31
0.0
  0
LINE
  5
120
330
1F
100
AcDbEntity
  8
FUTOSEN
  6
Continuous
 62
     7
100
AcDbLine
 10
279.4733729129816
 20
134.400481400318
 30
0.0
 11
279.4733729129816
 21
134.810081400317
 31
0.0
  0
LINE
  5
121
330
1F
100
AcDbEntity
  8
FUTOSEN
  6
Continuous
 62
     7
100
AcDbLine
 10
278.981852912982
 20
134.810081400317
 30
0.0
 11
279.4733729129816
 21
134.810081400317
 31
0.0
  0
LINE
  5
122
330
1F
100
AcDbEntity
  8
FUTOSEN
  6
Continuous
 62
     7
100
AcDbLine
 10
278.981852912982
 20
134.400481400318
 30
0.0
 11
279.4733729129816
 21
134.400481400318
 31
0.0
  0
LINE
  5
123
330
1F
100
AcDbEntity
  8
FUTOSEN
  6
Continuous
 62
     7
100
AcDbLine
 10
279.8829729129824
 20
136.0798414003181
 30
0.0
 11
279.4733729129816
 21
136.0798414003181
 31
0.0
  0
LINE
  5
124
330
1F
100
AcDbEntity
  8
FUTOSEN
  6
Continuous
 62
     7
100
AcDbLine
 10
279.8829729129824
 20
133.1716814003172
 30
0.0
 11
279.4733729129816
 21
133.1716814003172
 31
0.0
  0
LINE
  5
125
330
1F
100
AcDbEntity
  8
FUTOSEN
  6
Continuous
 62
     7
100
AcDbLine
 10
279.8829729129824
 20
133.1716814003172
 30
0.0
 11
279.8829729129824
 21
136.0798414003181
 31
0.0
  0
LINE
  5
126
330
1F
100
AcDbEntity
  8
FUTOSEN
  6
Continuous
 62
     7
100
AcDbLine
 10
279.8829729129824
 20
135.6292814003169
 30
0.0
 11
280.2925729129815
 21
135.6292814003169
 31
0.0
  0
LINE
  5
127
330
1F
100
AcDbEntity
  8
FUTOSEN
  6
Continuous
 62
     7
100
AcDbLine
 10
279.8829729129824
 20
133.5812814003181
 30
0.0
 11
280.2925729129815
 21
133.5812814003181
 31
0.0
  0
LINE
  5
128
330
1F
100
AcDbEntity
  8
FUTOSEN
  6
Continuous
 62
     7
100
AcDbLine
 10
280.2925729129815
 20
133.1716814003172
 30
0.0
 11
280.497372912981
 21
133.1716814003172
 31
0.0
  0
LINE
  5
129
330
1F
100
AcDbEntity
  8
FUTOSEN
  6
Continuous
 62
     7
100
AcDbLine
 10
280.2925729129815
 20
136.0798414003181
 30
0.0
 11
280.497372912981
 21
136.0798414003181
 31
0.0
  0
LINE
  5
12A
330
1F
100
AcDbEntity
  8
FUTOSEN
  6
Continuous
 62
     7
100
AcDbLine
 10
280.2925729129815
 20
133.1716814003172
 30
0.0
 11
280.2925729129815
 21
136.0798414003181
 31
0.0
  0
LINE
  5
12B
330
1F
100
AcDbEntity
  8
FUTOSEN
  6
Continuous
 62
     7
100
AcDbLine
 10
280.9069729129819
 20
132.2705614003167
 30
0.0
 11
280.9069729129819
 21
136.9809614003167
 31
0.0
  0
LINE
  5
12C
330
1F
100
AcDbEntity
  8
FUTOSEN
  6
Continuous
 62
     7
100
AcDbLine
 10
280.9069729129819
 20
126.7409614003169
 30
0.0
 11
280.9069729129819
 21
131.4513614003168
 31
0.0
  0
LINE
  5
12D
330
1F
100
AcDbEntity
  8
FUTOSEN
  6
Continuous
 62
     7
100
AcDbLine
 10
280.497372912981
 20
137.8001614003166
 30
0.0
 11
280.497372912981
 21
137.2267214003165
 31
0.0
  0
LINE
  5
12E
330
1F
100
AcDbEntity
  8
FUTOSEN
  6
Continuous
 62
     7
100
AcDbLine
 10
280.497372912981
 20
132.2705614003167
 30
0.0
 11
280.497372912981
 21
136.9809614003167
 31
0.0
  0
LINE
  5
12F
330
1F
100
AcDbEntity
  8
FUTOSEN
  6
Continuous
 62
     7
100
AcDbLine
 10
280.497372912981
 20
126.8228814003174
 30
0.0
 11
280.497372912981
 21
131.4513614003168
 31
0.0
  0
LINE
  5
130
330
1F
100
AcDbEntity
  8
FUTOSEN
  6
Continuous
 62
     7
100
AcDbLine
 10
283.7741729129825
 20
126.7409614003169
 30
0.0
 11
280.497372912981
 21
126.7409614003169
 31
0.0
  0
LINE
  5
131
330
1F
100
AcDbEntity
  8
FUTOSEN
  6
Continuous
 62
     7
100
AcDbLine
 10
277.6301729129822
 20
126.9867214003167
 30
0.0
 11
280.497372912981
 21
126.9867214003167
 31
0.0
  0
LINE
  5
132
330
1F
100
AcDbEntity
  8
FUTOSEN
  6
Continuous
 62
     7
100
AcDbLine
 10
283.7741729129825
 20
136.9809614003167
 30
0.0
 11
280.497372912981
 21
136.9809614003167
 31
0.0
  0
LINE
  5
133
330
1F
100
AcDbEntity
  8
FUTOSEN
  6
Continuous
 62
     7
100
AcDbLine
 10
283.7741729129825
 20
131.4513614003168
 30
0.0
 11
280.497372912981
 21
131.4513614003168
 31
0.0
  0
LINE
  5
134
330
1F
100
AcDbEntity
  8
FUTOSEN
  6
Continuous
 62
     7
100
AcDbLine
 10
283.7741729129825
 20
132.2705614003167
 30
0.0
 11
280.497372912981
 21
132.2705614003167
 31
0.0
  0
LINE
  5
135
330
1F
100
AcDbEntity
  8
FUTOSEN
  6
Continuous
 62
     7
100
AcDbLine
 10
277.6301729129822
 20
138.0459214003164
 30
0.0
 11
280.497372912981
 21
138.0459214003164
 31
0.0
  0
LINE
  5
136
330
1F
100
AcDbEntity
  8
FUTOSEN
  6
Continuous
 62
     7
100
AcDbLine
 10
277.2205729129814
 20
137.1038414003175
 30
0.0
 11
277.2205729129814
 21
137.6363214003173
 31
0.0
  0
LINE
  5
137
330
1F
100
AcDbEntity
  8
FUTOSEN
  6
Continuous
 62
     7
100
AcDbLine
 10
277.2205729129814
 20
131.5742414003176
 30
0.0
 11
277.2205729129814
 21
132.1067214003175
 31
0.0
  0
LINE
  5
138
330
1F
100
AcDbEntity
  8
FUTOSEN
  6
Continuous
 62
     7
100
AcDbLine
 10
277.6301729129822
 20
131.1646414003168
 30
0.0
 11
280.497372912981
 21
131.1646414003168
 31
0.0
  0
LINE
  5
139
330
1F
100
AcDbEntity
  8
FUTOSEN
  6
Continuous
 62
     7
100
AcDbLine
 10
277.6301729129822
 20
136.6942414003166
 30
0.0
 11
280.497372912981
 21
136.6942414003166
 31
0.0
  0
LINE
  5
13A
330
1F
100
AcDbEntity
  8
FUTOSEN
  6
Continuous
 62
     7
100
AcDbLine
 10
277.2205729129814
 20
126.3723214003163
 30
0.0
 11
277.2205729129814
 21
137.6363214003173
 31
0.0
  0
LINE
  5
13B
330
1F
100
AcDbEntity
  8
FUTOSEN
  6
Continuous
 62
     7
100
AcDbLine
 10
283.3645729129816
 20
125.9627214003173
 30
0.0
 11
277.6301729129822
 21
125.9627214003173
 31
0.0
  0
LINE
  5
13C
330
1F
100
AcDbEntity
  8
FUTOSEN
  6
Continuous
 62
     7
100
AcDbLine
 10
283.7741729129825
 20
137.6363214003173
 30
0.0
 11
283.7741729129825
 21
121.5390414003174
 31
0.0
  0
LINE
  5
13D
330
1F
100
AcDbEntity
  8
FUTOSEN
  6
Continuous
 62
     7
100
AcDbLine
 10
277.6301729129822
 20
138.0459214003164
 30
0.0
 11
283.3645729129816
 21
138.0459214003164
 31
0.0
  0
LINE
  5
13E
330
1F
100
AcDbEntity
  8
FUTOSEN
  6
Continuous
 62
     7
100
AcDbLine
 10
277.1796129129811
 20
125.6760014003172
 30
0.0
 11
283.8151329129827
 21
125.6760014003172
 31
0.0
  0
LINE
  5
13F
330
1F
100
AcDbEntity
  8
FUTOSEN
  6
Continuous
 62
     7
100
AcDbLine
 10
146.2842529129825
 20
154.3664814003176
 30
0.0
 11
146.2842529129825
 21
109.3144814003175
 31
0.0
  0
LINE
  5
140
330
1F
100
AcDbEntity
  8
FUTOSEN
  6
Continuous
 62
     7
100
AcDbLine
 10
212.0122529129816
 20
154.3664814003176
 30
0.0
 11
212.0122529129816
 21
109.3144814003175
 31
0.0
  0
LINE
  5
141
330
1F
100
AcDbEntity
  8
FUTOSEN
  6
Continuous
 62
     7
100
AcDbLine
 10
289.6314529129826
 20
156.3755214003173
 30
0.0
 11
289.6314529129826
 21
107.2235214003173
 31
0.0
  0
LINE
  5
142
330
1F
100
AcDbEntity
  8
FUTOSEN
  6
Continuous
 62
     7
100
AcDbLine
 10
267.5130529129814
 20
107.2235214003173
 30
0.0
 11
289.6314529129826
 21
107.2235214003173
 31
0.0
  0
LINE
  5
143
330
1F
100
AcDbEntity
  8
FUTOSEN
  6
Continuous
 62
     7
100
AcDbLine
 10
267.5130529129814
 20
156.3755214003173
 30
0.0
 11
289.6314529129826
 21
156.3755214003173
 31
0.0
  0
LINE
  5
144
330
1F
100
AcDbEntity
  8
FUTOSEN
  6
Continuous
 62
     7
100
AcDbLine
 10
265.4650529129826
 20
154.3275214003166
 30
0.0
 11
265.4650529129826
 21
109.271521400318
 31
0.0
  0
LINE
  5
145
330
1F
100
AcDbEntity
  8
FUTOSEN
  6
Continuous
 62
     7
100
AcDbLine
 10
140.1402529129823
 20
155.4164814003176
 30
0.0
 11
140.1402529129823
 21
138.0459214003164
 31
0.0
  0
LINE
  5
146
330
1F
100
AcDbEntity
  8
FUTOSEN
  6
Continuous
 62
     7
100
AcDbLine
 10
151.2842529129825
 20
107.2644814003175
 30
0.0
 11
207.0122529129816
 21
107.2644814003175
 31
0.0
  0
ARC
  5
147
330
1F
100
AcDbEntity
  8
FUTOSEN
  6
Continuous
 62
     7
100
AcDbCircle
 10
278.0807329129816
 20
123.2184014003175
 30
0.0
 40
2.62144000000061
100
AcDbArc
 50
185.3999999998805
 51
217.3999999998658
  0
ARC
  5
148
330
1F
100
AcDbEntity
  8
FUTOSEN
  6
Continuous
 62
     7
100
AcDbCircle
 10
278.0807329129816
 20
123.1364814003169
 30
0.0
 40
2.621440000007232
100
AcDbArc
 50
142.5999999999449
 51
174.6000000001195
  0
ARC
  5
149
330
1F
100
AcDbEntity
  8
FUTOSEN
  6
Continuous
 62
     7
100
AcDbCircle
 10
267.5130529129814
 20
109.271521400318
 30
0.0
 40
2.047999999998751
100
AcDbArc
 50
180.0
 51
270.0
  0
ARC
  5
14A
330
1F
100
AcDbEntity
  8
FUTOSEN
  6
Continuous
 62
     7
100
AcDbCircle
 10
267.5130529129814
 20
154.3275214003166
 30
0.0
 40
2.048000000000684
100
AcDbArc
 50
90.0
 51
180.0
  0
ARC
  5
14B
330
1F
100
AcDbEntity
  8
FUTOSEN
  6
Continuous
 62
     7
100
AcDbCircle
 10
143.8266529129828
 20
115.4564814003166
 30
0.0
 40
1.146880000000209
100
AcDbArc
 50
270.0
 51
90.0
  0
ARC
  5
14C
330
1F
100
AcDbEntity
  8
FUTOSEN
  6
Continuous
 62
     7
100
AcDbCircle
 10
142.597852912982
 20
115.4564814003166
 30
0.0
 40
1.146880000000294
100
AcDbArc
 50
90.0
 51
270.0
  0
ARC
  5
14D
330
1F
100
AcDbEntity
  8
FUTOSEN
  6
Continuous
 62
     7
100
AcDbCircle
 10
143.8266529129828
 20
148.2654414003169
 30
0.0
 40
1.146880000000181
100
AcDbArc
 50
270.0
 51
90.0
  0
ARC
  5
14E
330
1F
100
AcDbEntity
  8
FUTOSEN
  6
Continuous
 62
     7
100
AcDbCircle
 10
142.597852912982
 20
148.2654414003169
 30
0.0
 40
1.146880000000323
100
AcDbArc
 50
90.0
 51
270.0
  0
ARC
  5
14F
330
1F
100
AcDbEntity
  8
FUTOSEN
  6
Continuous
 62
     7
100
AcDbCircle
 10
147.2263329129814
 20
141.7630414003175
 30
0.0
 40
2.457600000003509
100
AcDbArc
 50
185.6999999999992
 51
216.8999999999696
  0
ARC
  5
150
330
1F
100
AcDbEntity
  8
FUTOSEN
  6
Continuous
 62
     7
100
AcDbCircle
 10
147.2263329129814
 20
141.7220814003173
 30
0.0
 40
2.457600000000497
100
AcDbArc
 50
143.1000000000638
 51
175.2000000001073
  0
ARC
  5
151
330
1F
100
AcDbEntity
  8
FUTOSEN
  6
Continuous
 62
     7
100
AcDbCircle
 10
147.2263329129814
 20
123.423201400317
 30
0.0
 40
2.45760000000351
100
AcDbArc
 50
185.6999999999996
 51
216.899999999938
  0
ARC
  5
152
330
1F
100
AcDbEntity
  8
FUTOSEN
  6
Continuous
 62
     7
100
AcDbCircle
 10
147.2263329129814
 20
123.3822414003167
 30
0.0
 40
2.457600000001632
100
AcDbArc
 50
143.1000000000286
 51
175.1999999998515
  0
ARC
  5
153
330
1F
100
AcDbEntity
  8
FUTOSEN
  6
Continuous
 62
     7
100
AcDbCircle
 10
211.1520929129815
 20
140.790241400318
 30
0.0
 40
2.457600000003246
100
AcDbArc
 50
5.6999999999579
 51
36.90000000006508
  0
ARC
  5
154
330
1F
100
AcDbEntity
  8
FUTOSEN
  6
Continuous
 62
     7
100
AcDbCircle
 10
211.1520929129815
 20
140.8312014003164
 30
0.0
 40
2.457599999993133
100
AcDbArc
 50
323.0999999999349
 51
355.1999999998606
  0
ARC
  5
155
330
1F
100
AcDbEntity
  8
FUTOSEN
  6
Continuous
 62
     7
100
AcDbCircle
 10
280.497372912981
 20
123.2184014003175
 30
0.0
 40
1.433599999993548
100
AcDbArc
 50
214.5999999997789
 51
145.3999999999224
  0
ARC
  5
156
330
1F
100
AcDbEntity
  8
FUTOSEN
  6
Continuous
 62
     7
100
AcDbCircle
 10
138.0922529129816
 20
137.6363214003173
 30
0.0
 40
0.4095999999990738
100
AcDbArc
 50
90.0
 51
180.0
  0
ARC
  5
157
330
1F
100
AcDbEntity
  8
FUTOSEN
  6
Continuous
 62
     7
100
AcDbCircle
 10
138.0922529129816
 20
137.1038414003175
 30
0.0
 40
0.4095999999991022
100
AcDbArc
 50
180.0
 51
270.0
  0
ARC
  5
158
330
1F
100
AcDbEntity
  8
FUTOSEN
  6
Continuous
 62
     7
100
AcDbCircle
 10
138.0922529129816
 20
132.1067214003175
 30
0.0
 40
0.409599999999017
100
AcDbArc
 50
90.0
 51
180.0
  0
ARC
  5
159
330
1F
100
AcDbEntity
  8
FUTOSEN
  6
Continuous
 62
     7
100
AcDbCircle
 10
138.0922529129816
 20
131.5742414003176
 30
0.0
 40
0.4095999999991022
100
AcDbArc
 50
180.0
 51
270.0
  0
ARC
  5
15A
330
1F
100
AcDbEntity
  8
FUTOSEN
  6
Continuous
 62
     7
100
AcDbCircle
 10
138.0922529129816
 20
126.5771214003176
 30
0.0
 40
0.4095999999991022
100
AcDbArc
 50
90.0
 51
180.0
  0
ARC
  5
15B
330
1F
100
AcDbEntity
  8
FUTOSEN
  6
Continuous
 62
     7
100
AcDbCircle
 10
138.0922529129816
 20
126.0446414003178
 30
0.0
 40
0.4095999999991022
100
AcDbArc
 50
180.0
 51
270.0
  0
ARC
  5
15C
330
1F
100
AcDbEntity
  8
FUTOSEN
  6
Continuous
 62
     7
100
AcDbCircle
 10
220.2042529129826
 20
126.0446414003178
 30
0.0
 40
0.409600000000907
100
AcDbArc
 50
270.0
 51
0.0
  0
ARC
  5
15D
330
1F
100
AcDbEntity
  8
FUTOSEN
  6
Continuous
 62
     7
100
AcDbCircle
 10
220.2042529129826
 20
126.5771214003176
 30
0.0
 40
0.4095999999989886
100
AcDbArc
 50
0.0
 51
90.0
  0
ARC
  5
15E
330
1F
100
AcDbEntity
  8
FUTOSEN
  6
Continuous
 62
     7
100
AcDbCircle
 10
220.2042529129826
 20
131.5742414003176
 30
0.0
 40
0.4096000000007791
100
AcDbArc
 50
270.0
 51
0.0
  0
ARC
  5
15F
330
1F
100
AcDbEntity
  8
FUTOSEN
  6
Continuous
 62
     7
100
AcDbCircle
 10
220.2042529129826
 20
132.1067214003175
 30
0.0
 40
0.4095999999989886
100
AcDbArc
 50
0.0
 51
90.0
  0
ARC
  5
160
330
1F
100
AcDbEntity
  8
FUTOSEN
  6
Continuous
 62
     7
100
AcDbCircle
 10
220.2042529129826
 20
137.1038414003175
 30
0.0
 40
0.4096000000008928
100
AcDbArc
 50
270.0
 51
0.0
  0
ARC
  5
161
330
1F
100
AcDbEntity
  8
FUTOSEN
  6
Continuous
 62
     7
100
AcDbCircle
 10
220.2042529129826
 20
137.6363214003173
 30
0.0
 40
0.4095999999989886
100
AcDbArc
 50
0.0
 51
90.0
  0
ARC
  5
162
330
1F
100
AcDbEntity
  8
FUTOSEN
  6
Continuous
 62
     7
100
AcDbCircle
 10
277.6301729129822
 20
126.5771214003176
 30
0.0
 40
0.4095999999991022
100
AcDbArc
 50
90.0
 51
180.0
  0
ARC
  5
163
330
1F
100
AcDbEntity
  8
FUTOSEN
  6
Continuous
 62
     7
100
AcDbCircle
 10
277.6301729129822
 20
126.3723214003163
 30
0.0
 40
0.4096000000007507
100
AcDbArc
 50
180.0
 51
270.0
  0
ARC
  5
164
330
1F
100
AcDbEntity
  8
FUTOSEN
  6
Continuous
 62
     7
100
AcDbCircle
 10
283.3645729129816
 20
126.3723214003163
 30
0.0
 40
0.4095999999989886
100
AcDbArc
 50
270.0
 51
0.0
  0
ARC
  5
165
330
1F
100
AcDbEntity
  8
FUTOSEN
  6
Continuous
 62
     7
100
AcDbCircle
 10
283.3645729129816
 20
137.6363214003173
 30
0.0
 40
0.4096000000009212
100
AcDbArc
 50
0.0
 51
90.0
  0
ARC
  5
166
330
1F
100
AcDbEntity
  8
FUTOSEN
  6
Continuous
 62
     7
100
AcDbCircle
 10
281.4394529129817
 20
129.1166414003179
 30
0.0
 40
2.457600000003424
100
AcDbArc
 50
185.6999999999994
 51
216.899999999973
  0
ARC
  5
167
330
1F
100
AcDbEntity
  8
FUTOSEN
  6
Continuous
 62
     7
100
AcDbCircle
 10
281.4394529129817
 20
129.0756814003176
 30
0.0
 40
2.457600000000475
100
AcDbArc
 50
143.1000000000601
 51
175.199999999897
  0
ARC
  5
168
330
1F
100
AcDbEntity
  8
FUTOSEN
  6
Continuous
 62
     7
100
AcDbCircle
 10
281.4394529129817
 20
134.6462414003178
 30
0.0
 40
2.457600000003435
100
AcDbArc
 50
185.7000000000021
 51
216.8999999999727
  0
ARC
  5
169
330
1F
100
AcDbEntity
  8
FUTOSEN
  6
Continuous
 62
     7
100
AcDbCircle
 10
281.4394529129817
 20
134.6052814003175
 30
0.0
 40
2.457600000000407
100
AcDbArc
 50
143.1000000000622
 51
175.1999999998573
  0
ARC
  5
16A
330
1F
100
AcDbEntity
  8
FUTOSEN
  6
Continuous
 62
     7
100
AcDbCircle
 10
277.6301729129822
 20
131.5742414003176
 30
0.0
 40
0.4096000000007507
100
AcDbArc
 50
180.0
 51
270.0
  0
ARC
  5
16B
330
1F
100
AcDbEntity
  8
FUTOSEN
  6
Continuous
 62
     7
100
AcDbCircle
 10
277.6301729129822
 20
132.1067214003175
 30
0.0
 40
0.409599999999017
100
AcDbArc
 50
90.0
 51
180.0
  0
ARC
  5
16C
330
1F
100
AcDbEntity
  8
FUTOSEN
  6
Continuous
 62
     7
100
AcDbCircle
 10
277.6301729129822
 20
137.1038414003175
 30
0.0
 40
0.4096000000007507
100
AcDbArc
 50
180.0
 51
270.0
  0
ARC
  5
16D
330
1F
100
AcDbEntity
  8
FUTOSEN
  6
Continuous
 62
     7
100
AcDbCircle
 10
277.6301729129822
 20
137.6363214003173
 30
0.0
 40
0.4095999999990738
100
AcDbArc
 50
90.0
 51
180.0
  0
CIRCLE
  5
16E
330
1F
100
AcDbEntity
  8
FUTOSEN
  6
Continuous
 62
     7
100
AcDbCircle
 10
215.0842529129818
 20
115.4564814003166
 30
0.0
 40
1.228800000000689
  0
CIRCLE
  5
16F
330
1F
100
AcDbEntity
  8
FUTOSEN
  6
Continuous
 62
     7
100
AcDbCircle
 10
215.0842529129818
 20
148.2244814003167
 30
0.0
 40
1.228800000000689
  0
CIRCLE
  5
170
330
1F
100
AcDbEntity
  8
FUTOSEN
  6
Continuous
 62
     7
100
AcDbCircle
 10
215.9034529129817
 20
129.690081400318
 30
0.0
 40
0.2047999999994943
  0
CIRCLE
  5
171
330
1F
100
AcDbEntity
  8
FUTOSEN
  6
Continuous
 62
     7
100
AcDbCircle
 10
215.2890529129813
 20
129.0756814003176
 30
0.0
 40
1.433600000000297
  0
CIRCLE
  5
172
330
1F
100
AcDbEntity
  8
FUTOSEN
  6
Continuous
 62
     7
100
AcDbCircle
 10
281.1117729129814
 20
123.8328014003179
 30
0.0
 40
0.2048000000012848
  0
CIRCLE
  5
173
330
1F
100
AcDbEntity
  8
FUTOSEN
  6
Continuous
 62
     7
100
AcDbCircle
 10
281.1117729129814
 20
140.2168014003179
 30
0.0
 40
0.2048000000012848
  0
CIRCLE
  5
174
330
1F
100
AcDbEntity
  8
FUTOSEN
  6
Continuous
 62
     7
100
AcDbCircle
 10
280.497372912981
 20
140.8312014003164
 30
0.0
 40
1.433600000000297
  0
CIRCLE
  5
175
330
1F
100
AcDbEntity
  8
FUTOSEN
  6
Continuous
 62
     7
100
AcDbCircle
 10
142.3930529129825
 20
133.9908814003171
 30
0.0
 40
0.2047999999994943
  0
CIRCLE
  5
176
330
1F
100
AcDbEntity
  8
FUTOSEN
  6
Continuous
 62
     7
100
AcDbCircle
 10
143.007452912981
 20
134.6052814003175
 30
0.0
 40
1.433600000000297
  0
CIRCLE
  5
177
330
1F
100
AcDbEntity
  8
FUTOSEN
  6
Continuous
 62
     7
100
AcDbCircle
 10
142.3930529129825
 20
128.4612814003173
 30
0.0
 40
0.2047999999994943
  0
CIRCLE
  5
178
330
1F
100
AcDbEntity
  8
FUTOSEN
  6
Continuous
 62
     7
100
AcDbCircle
 10
143.007452912981
 20
129.0756814003176
 30
0.0
 40
1.433600000000297
  0
CIRCLE
  5
179
330
1F
100
AcDbEntity
  8
FUTOSEN
  6
Continuous
 62
     7
100
AcDbCircle
 10
215.9034529129817
 20
124.0376014003174
 30
0.0
 40
0.2047999999994943
  0
CIRCLE
  5
17A
330
1F
100
AcDbEntity
  8
FUTOSEN
  6
Continuous
 62
     7
100
AcDbCircle
 10
215.2890529129813
 20
123.423201400317
 30
0.0
 40
1.433600000000297
  0
CIRCLE
  5
17B
330
1F
100
AcDbEntity
  8
FUTOSEN
  6
Continuous
 62
     7
100
AcDbCircle
 10
215.2672057673912
 20
134.6032926753375
 30
0.0
 40
1.433600000000297
  0
ARC
  5
17C
330
1F
100
AcDbEntity
  8
1
  6
Continuous
 62
     7
100
AcDbCircle
 10
148.3342529129825
 20
154.3664814003176
 30
0.0
 40
2.049999999999983
100
AcDbArc
 50
90.0
 51
180.0
  0
ARC
  5
17D
330
1F
100
AcDbEntity
  8
1
  6
Continuous
 62
     7
100
AcDbCircle
 10
209.9622529129816
 20
109.3144814003175
 30
0.0
 40
2.050000000000011
100
AcDbArc
 50
270.0
 51
0.0
  0
ARC
  5
17E
330
1F
100
AcDbEntity
  8
1
  6
Continuous
 62
     7
100
AcDbCircle
 10
148.3342529129825
 20
109.3144814003175
 30
0.0
 40
2.049999999999983
100
AcDbArc
 50
180.0
 51
270.0
  0
ARC
  5
17F
330
1F
100
AcDbEntity
  8
1
  6
Continuous
 62
     7
100
AcDbCircle
 10
209.9622529129816
 20
154.3664814003176
 30
0.0
 40
2.050000000000011
100
AcDbArc
 50
0.0
 51
90.0
  0
TEXT
  5
1A3
330
1F
100
AcDbEntity
  8
SAISEN
 62
     3
100
AcDbText
 10
141.9608929129822
 20
108.9438414003176
 30
0.0
 40
3.0
  1
IN
 41
0.792
  7
CONVERTER_11
100
AcDbText
  0
ENDSEC
  0
SECTION
  2
OBJECTS
  0
DICTIONARY
  5
C
330
0
100
AcDbDictionary
281
     1
  3
ACAD_GROUP
350
D
  3
ACAD_LAYOUT
350
1A
  3
ACAD_MATERIAL
350
3B
  3
ACAD_MLEADERSTYLE
350
1A6
  3
ACAD_MLINESTYLE
350
17
  3
ACAD_PLOTSETTINGS
350
19
  3
ACAD_PLOTSTYLENAME
350
E
  3
ACAD_SCALELIST
350
181
  3
ACAD_VISUALSTYLE
350
2A
  3
AcDbVariableDictionary
350
1A4
  0
DICTIONARY
  5
D
102
{ACAD_REACTORS
330
C
102
}
330
C
100
AcDbDictionary
281
     1
  0
DICTIONARY
  5
1A
102
{ACAD_REACTORS
330
C
102
}
330
C
100
AcDbDictionary
281
     1
  3
Layout1
350
1E
  3
Layout2
350
26
  3
Model
350
22
  0
DICTIONARY
  5
3B
102
{ACAD_REACTORS
330
C
102
}
330
C
100
AcDbDictionary
281
     1
  3
ByBlock
350
3D
  3
ByLayer
350
3C
  3
Global
350
3E
  0
DICTIONARY
  5
1A6
102
{ACAD_REACTORS
330
C
102
}
330
C
100
AcDbDictionary
281
     1
  0
DICTIONARY
  5
17
102
{ACAD_REACTORS
330
C
102
}
330
C
100
AcDbDictionary
281
     1
  3
Standard
350
18
  0
DICTIONARY
  5
19
102
{ACAD_REACTORS
330
C
102
}
330
C
100
AcDbDictionary
281
     1
  0
ACDBDICTIONARYWDFLT
  5
E
102
{ACAD_REACTORS
330
C
102
}
330
C
100
AcDbDictionary
281
     1
  3
Normal
350
F
100
AcDbDictionaryWithDefault
340
F
  0
DICTIONARY
  5
181
102
{ACAD_REACTORS
330
C
102
}
330
C
100
AcDbDictionary
281
     1
  3
A0
350
182
  3
A1
350
183
  3
A2
350
184
  3
A3
350
185
  3
A4
350
186
  3
A5
350
187
  3
A6
350
188
  3
A7
350
189
  3
A8
350
18A
  3
A9
350
18B
  3
B0
350
18C
  3
B1
350
18D
  3
B2
350
18E
  3
B3
350
18F
  3
B4
350
190
  3
B5
350
191
  3
B6
350
192
  3
B7
350
193
  3
B8
350
194
  3
B9
350
195
  3
C0
350
196
  3
C1
350
197
  3
C2
350
198
  3
C3
350
199
  3
C4
350
19A
  3
C5
350
19B
  3
C6
350
19C
  3
C7
350
19D
  3
C8
350
19E
  3
C9
350
19F
  3
D0
350
1A0
  3
D1
350
1A1
  3
D2
350
1A2
  0
DICTIONARY
  5
2A
102
{ACAD_REACTORS
330
C
102
}
330
C
100
AcDbDictionary
281
     1
  3
2dWireframe
350
2F
  3
3D Hidden
350
31
  3
3dWireframe
350
30
  3
Basic
350
32
  3
Brighten
350
36
  3
ColorChange
350
3A
  3
Conceptual
350
34
  3
Dim
350
35
  3
Facepattern
350
39
  3
Flat
350
2B
  3
FlatWithEdges
350
2C
  3
Gouraud
350
2D
  3
GouraudWithEdges
350
2E
  3
Linepattern
350
38
  3
Realistic
350
33
  3
Thicken
350
37
  0
DICTIONARY
  5
1A4
102
{ACAD_REACTORS
330
C
102
}
330
C
100
AcDbDictionary
281
     1
  3
CANNOSCALE
350
1A7
  3
DIMASSOC
350
1A8
  3
HIDETEXT
350
1A9
  0
LAYOUT
  5
1E
102
{ACAD_REACTORS
330
1A
102
}
330
1A
100
AcDbPlotSettings
  1

  2
none_device
  4

  6

 40
0.0
 41
0.0
 42
0.0
 43
0.0
 44
0.0
 45
0.0
 46
0.0
 47
0.0
 48
0.0
 49
0.0
140
0.0
141
0.0
142
1.0
143
1.0
 70
   688
 72
     0
 73
     0
 74
     5
  7

 75
    16
147
1.0
148
0.0
149
0.0
100
AcDbLayout
  1
Layout1
 70
     1
 71
     1
 10
0.0
 20
0.0
 11
12.0
 21
9.0
 12
0.0
 22
0.0
 32
0.0
 14
1.00000000000000E+20
 24
1.00000000000000E+20
 34
1.00000000000000E+20
 15
-1.00000000000000E+20
 25
-1.00000000000000E+20
 35
-1.00000000000000E+20
146
0.0
 13
0.0
 23
0.0
 33
0.0
 16
1.0
 26
0.0
 36
0.0
 17
0.0
 27
1.0
 37
0.0
 76
     0
330
1B
  0
LAYOUT
  5
26
102
{ACAD_REACTORS
330
1A
102
}
330
1A
100
AcDbPlotSettings
  1

  2
none_device
  4

  6

 40
0.0
 41
0.0
 42
0.0
 43
0.0
 44
0.0
 45
0.0
 46
0.0
 47
0.0
 48
0.0
 49
0.0
140
0.0
141
0.0
142
1.0
143
1.0
 70
   688
 72
     0
 73
     0
 74
     5
  7

 75
    16
147
1.0
148
0.0
149
0.0
100
AcDbLayout
  1
Layout2
 70
     1
 71
     2
 10
0.0
 20
0.0
 11
0.0
 21
0.0
 12
0.0
 22
0.0
 32
0.0
 14
0.0
 24
0.0
 34
0.0
 15
0.0
 25
0.0
 35
0.0
146
0.0
 13
0.0
 23
0.0
 33
0.0
 16
1.0
 26
0.0
 36
0.0
 17
0.0
 27
1.0
 37
0.0
 76
     0
330
23
  0
LAYOUT
  5
22
102
{ACAD_REACTORS
330
1A
102
}
330
1A
100
AcDbPlotSettings
  1

  2
none_device
  4

  6

 40
0.0
 41
0.0
 42
0.0
 43
0.0
 44
0.0
 45
0.0
 46
0.0
 47
0.0
 48
0.0
 49
0.0
140
0.0
141
0.0
142
1.0
143
1.0
 70
  1712
 72
     0
 73
     0
 74
     0
  7

 75
     0
147
1.0
148
0.0
149
0.0
100
AcDbLayout
  1
Model
 70
     1
 71
     0
 10
0.0
 20
0.0
 11
12.0
 21
9.0
 12
0.0
 22
0.0
 32
0.0
 14
137.6826529129825
 24
107.2235214003173
 34
0.0
 15
290.0410529129817
 25
156.4164814003176
 35
0.0
146
0.0
 13
0.0
 23
0.0
 33
0.0
 16
1.0
 26
0.0
 36
0.0
 17
0.0
 27
1.0
 37
0.0
 76
     0
330
1F
331
29
  0
MATERIAL
  5
3D
102
{ACAD_REACTORS
330
3B
102
}
102
{ACAD_XDICTIONARY
360
1CC
102
}
330
3B
100
AcDbMaterial
  1
ByBlock
  0
MATERIAL
  5
3C
102
{ACAD_REACTORS
330
3B
102
}
102
{ACAD_XDICTIONARY
360
1CA
102
}
330
3B
100
AcDbMaterial
  1
ByLayer
  0
MATERIAL
  5
3E
102
{ACAD_REACTORS
330
3B
102
}
102
{ACAD_XDICTIONARY
360
1CE
102
}
330
3B
100
AcDbMaterial
  1
Global
  0
MLINESTYLE
  5
18
102
{ACAD_REACTORS
330
17
102
}
330
17
100
AcDbMlineStyle
  2
Standard
 70
     0
  3

 62
   256
 51
90.0
 52
90.0
 71
     2
 49
0.5
 62
   256
  6
BYLAYER
 49
-0.5
 62
   256
  6
BYLAYER
  0
ACDBPLACEHOLDER
  5
F
102
{ACAD_REACTORS
330
E
102
}
330
E
  0
SCALE
  5
182
102
{ACAD_REACTORS
330
181
102
}
330
181
100
AcDbScale
 70
     0
300
1:1
140
1.0
141
1.0
290
     1
  0
SCALE
  5
183
102
{ACAD_REACTORS
330
181
102
}
330
181
100
AcDbScale
 70
     0
300
1:2
140
1.0
141
2.0
290
     0
  0
SCALE
  5
184
102
{ACAD_REACTORS
330
181
102
}
330
181
100
AcDbScale
 70
     0
300
1:4
140
1.0
141
4.0
290
     0
  0
SCALE
  5
185
102
{ACAD_REACTORS
330
181
102
}
330
181
100
AcDbScale
 70
     0
300
1:5
140
1.0
141
5.0
290
     0
  0
SCALE
  5
186
102
{ACAD_REACTORS
330
181
102
}
330
181
100
AcDbScale
 70
     0
300
1:8
140
1.0
141
8.0
290
     0
  0
SCALE
  5
187
102
{ACAD_REACTORS
330
181
102
}
330
181
100
AcDbScale
 70
     0
300
1:10
140
1.0
141
10.0
290
     0
  0
SCALE
  5
188
102
{ACAD_REACTORS
330
181
102
}
330
181
100
AcDbScale
 70
     0
300
1:16
140
1.0
141
16.0
290
     0
  0
SCALE
  5
189
102
{ACAD_REACTORS
330
181
102
}
330
181
100
AcDbScale
 70
     0
300
1:20
140
1.0
141
20.0
290
     0
  0
SCALE
  5
18A
102
{ACAD_REACTORS
330
181
102
}
330
181
100
AcDbScale
 70
     0
300
1:30
140
1.0
141
30.0
290
     0
  0
SCALE
  5
18B
102
{ACAD_REACTORS
330
181
102
}
330
181
100
AcDbScale
 70
     0
300
1:40
140
1.0
141
40.0
290
     0
  0
SCALE
  5
18C
102
{ACAD_REACTORS
330
181
102
}
330
181
100
AcDbScale
 70
     0
300
1:50
140
1.0
141
50.0
290
     0
  0
SCALE
  5
18D
102
{ACAD_REACTORS
330
181
102
}
330
181
100
AcDbScale
 70
     0
300
1:100
140
1.0
141
100.0
290
     0
  0
SCALE
  5
18E
102
{ACAD_REACTORS
330
181
102
}
330
181
100
AcDbScale
 70
     0
300
2:1
140
2.0
141
1.0
290
     0
  0
SCALE
  5
18F
102
{ACAD_REACTORS
330
181
102
}
330
181
100
AcDbScale
 70
     0
300
4:1
140
4.0
141
1.0
290
     0
  0
SCALE
  5
190
102
{ACAD_REACTORS
330
181
102
}
330
181
100
AcDbScale
 70
     0
300
8:1
140
8.0
141
1.0
290
     0
  0
SCALE
  5
191
102
{ACAD_REACTORS
330
181
102
}
330
181
100
AcDbScale
 70
     0
300
10:1
140
10.0
141
1.0
290
     0
  0
SCALE
  5
192
102
{ACAD_REACTORS
330
181
102
}
330
181
100
AcDbScale
 70
     0
300
100:1
140
100.0
141
1.0
290
     0
  0
SCALE
  5
193
102
{ACAD_REACTORS
330
181
102
}
330
181
100
AcDbScale
 70
     0
300
1/128" = 1'-0"
140
0.0078125
141
12.0
290
     0
  0
SCALE
  5
194
102
{ACAD_REACTORS
330
181
102
}
330
181
100
AcDbScale
 70
     0
300
1/64" = 1'-0"
140
0.015625
141
12.0
290
     0
  0
SCALE
  5
195
102
{ACAD_REACTORS
330
181
102
}
330
181
100
AcDbScale
 70
     0
300
1/32" = 1'-0"
140
0.03125
141
12.0
290
     0
  0
SCALE
  5
196
102
{ACAD_REACTORS
330
181
102
}
330
181
100
AcDbScale
 70
     0
300
1/16" = 1'-0"
140
0.0625
141
12.0
290
     0
  0
SCALE
  5
197
102
{ACAD_REACTORS
330
181
102
}
330
181
100
AcDbScale
 70
     0
300
3/32" = 1'-0"
140
0.09375
141
12.0
290
     0
  0
SCALE
  5
198
102
{ACAD_REACTORS
330
181
102
}
330
181
100
AcDbScale
 70
     0
300
1/8" = 1'-0"
140
0.125
141
12.0
290
     0
  0
SCALE
  5
199
102
{ACAD_REACTORS
330
181
102
}
330
181
100
AcDbScale
 70
     0
300
3/16" = 1'-0"
140
0.1875
141
12.0
290
     0
  0
SCALE
  5
19A
102
{ACAD_REACTORS
330
181
102
}
330
181
100
AcDbScale
 70
     0
300
1/4" = 1'-0"
140
0.25
141
12.0
290
     0
  0
SCALE
  5
19B
102
{ACAD_REACTORS
330
181
102
}
330
181
100
AcDbScale
 70
     0
300
3/8" = 1'-0"
140
0.375
141
12.0
290
     0
  0
SCALE
  5
19C
102
{ACAD_REACTORS
330
181
102
}
330
181
100
AcDbScale
 70
     0
300
1/2" = 1'-0"
140
0.5
141
12.0
290
     0
  0
SCALE
  5
19D
102
{ACAD_REACTORS
330
181
102
}
330
181
100
AcDbScale
 70
     0
300
3/4" = 1'-0"
140
0.75
141
12.0
290
     0
  0
SCALE
  5
19E
102
{ACAD_REACTORS
330
181
102
}
330
181
100
AcDbScale
 70
     0
300
1" = 1'-0"
140
1.0
141
12.0
290
     0
  0
SCALE
  5
19F
102
{ACAD_REACTORS
330
181
102
}
330
181
100
AcDbScale
 70
     0
300
1-1/2" = 1'-0"
140
1.5
141
12.0
290
     0
  0
SCALE
  5
1A0
102
{ACAD_REACTORS
330
181
102
}
330
181
100
AcDbScale
 70
     0
300
3" = 1'-0"
140
3.0
141
12.0
290
     0
  0
SCALE
  5
1A1
102
{ACAD_REACTORS
330
181
102
}
330
181
100
AcDbScale
 70
     0
300
6" = 1'-0"
140
6.0
141
12.0
290
     0
  0
SCALE
  5
1A2
102
{ACAD_REACTORS
330
181
102
}
330
181
100
AcDbScale
 70
     0
300
1'-0" = 1'-0"
140
12.0
141
12.0
290
     0
  0
VISUALSTYLE
  5
2F
102
{ACAD_REACTORS
330
2A
102
}
102
{ACAD_XDICTIONARY
360
1B2
102
}
330
2A
100
AcDbVisualStyle
  2
2dWireframe
 70
     4
 71
     0
 72
     2
 73
     0
 90
        0
 40
-0.6
 41
-30.0
 62
     5
 63
     7
 74
     1
 91
        4
 64
     7
 65
   257
 75
     1
175
     1
 42
1.0
 92
        0
 66
   257
 43
1.0
 76
     1
 77
     6
 78
     2
 67
     7
 79
     5
170
     0
171
     0
290
     0
174
     0
 93
        1
 44
0.0
173
     0
291
     0
 45
0.0
1001
ACAD
1000
AcDbSavedByObjectVersion
1070
     0
  0
VISUALSTYLE
  5
31
102
{ACAD_REACTORS
330
2A
102
}
102
{ACAD_XDICTIONARY
360
1B6
102
}
330
2A
100
AcDbVisualStyle
  2
3D Hidden
 70
     6
 71
     1
 72
     2
 73
     2
 90
        0
 40
-0.6
 41
-30.0
 62
     5
 63
     7
 74
     2
 91
        2
 64
     7
 65
   257
 75
     2
175
     1
 42
40.0
 92
        0
 66
   257
 43
1.0
 76
     1
 77
     6
 78
     2
 67
     7
 79
     3
170
     0
171
     0
290
     0
174
     0
 93
        1
 44
0.0
173
     0
291
     0
 45
0.0
1001
ACAD
1000
AcDbSavedByObjectVersion
1070
     0
  0
VISUALSTYLE
  5
30
102
{ACAD_REACTORS
330
2A
102
}
102
{ACAD_XDICTIONARY
360
1B4
102
}
330
2A
100
AcDbVisualStyle
  2
3dWireframe
 70
     5
 71
     0
 72
     2
 73
     0
 90
        0
 40
-0.6
 41
-30.0
 62
     5
 63
     7
 74
     1
 91
        4
 64
     7
 65
   257
 75
     1
175
     1
 42
1.0
 92
        0
 66
   257
 43
1.0
 76
     1
 77
     6
 78
     2
 67
     7
 79
     5
170
     0
171
     0
290
     0
174
     0
 93
        1
 44
0.0
173
     0
291
     0
 45
0.0
1001
ACAD
1000
AcDbSavedByObjectVersion
1070
     0
  0
VISUALSTYLE
  5
32
102
{ACAD_REACTORS
330
2A
102
}
102
{ACAD_XDICTIONARY
360
1B8
102
}
330
2A
100
AcDbVisualStyle
  2
Basic
 70
     7
 71
     1
 72
     0
 73
     1
 90
        0
 40
-0.6
 41
-30.0
 62
     5
 63
     7
 74
     0
 91
        4
 64
     7
 65
   257
 75
     1
175
     1
 42
1.0
 92
        8
 66
     7
 43
1.0
 76
     1
 77
     6
 78
     2
 67
     7
 79
     5
170
     0
171
     0
290
     0
174
     0
 93
        1
 44
0.0
173
     0
291
     1
 45
0.0
1001
ACAD
1000
AcDbSavedByObjectVersion
1070
     0
  0
VISUALSTYLE
  5
36
102
{ACAD_REACTORS
330
2A
102
}
102
{ACAD_XDICTIONARY
360
1C0
102
}
330
2A
100
AcDbVisualStyle
  2
Brighten
 70
    12
 71
     2
 72
     2
 73
     0
 90
        0
 40
-0.6
 41
-30.0
 62
     5
 63
     7
 74
     1
 91
        4
 64
     7
 65
   257
 75
     1
175
     1
 42
1.0
 92
        8
 66
     7
 43
1.0
 76
     1
 77
     6
 78
     2
 67
     7
 79
     5
170
     0
171
     0
290
     0
174
     0
 93
        1
 44
50.0
173
     0
291
     1
 45
0.0
1001
ACAD
1000
AcDbSavedByObjectVersion
1070
     0
  0
VISUALSTYLE
  5
3A
102
{ACAD_REACTORS
330
2A
102
}
102
{ACAD_XDICTIONARY
360
1C8
102
}
330
2A
100
AcDbVisualStyle
  2
ColorChange
 70
    16
 71
     2
 72
     2
 73
     3
 90
        0
 40
-0.6
 41
-30.0
 62
     5
 63
     8
 74
     1
 91
        4
 64
     7
 65
   257
 75
     1
175
     1
 42
1.0
 92
        8
 66
     8
 43
1.0
 76
     1
 77
     6
 78
     2
 67
     7
 79
     5
170
     0
171
     0
290
     0
174
     0
 93
        1
 44
0.0
173
     0
291
     1
 45
0.0
1001
ACAD
1000
AcDbSavedByObjectVersion
1070
     0
  0
VISUALSTYLE
  5
34
102
{ACAD_REACTORS
330
2A
102
}
102
{ACAD_XDICTIONARY
360
1BC
102
}
330
2A
100
AcDbVisualStyle
  2
Conceptual
 70
     9
 71
     3
 72
     2
 73
     0
 90
        0
 40
-0.6
 41
-30.0
 62
     5
 63
     7
 74
     2
 91
        2
 64
     7
 65
   257
 75
     1
175
     1
 42
40.0
 92
        8
 66
     7
 43
1.0
 76
     1
 77
     6
 78
     2
 67
     7
 79
     3
170
     0
171
     0
290
     0
174
     0
 93
        1
 44
0.0
173
     0
291
     0
 45
0.0
1001
ACAD
1000
AcDbSavedByObjectVersion
1070
     0
  0
VISUALSTYLE
  5
35
102
{ACAD_REACTORS
330
2A
102
}
102
{ACAD_XDICTIONARY
360
1BE
102
}
330
2A
100
AcDbVisualStyle
  2
Dim
 70
    11
 71
     2
 72
     2
 73
     0
 90
        0
 40
-0.6
 41
-30.0
 62
     5
 63
     7
 74
     1
 91
        4
 64
     7
 65
   257
 75
     1
175
     1
 42
1.0
 92
        8
 66
     7
 43
1.0
 76
     1
 77
     6
 78
     2
 67
     7
 79
     5
170
     0
171
     0
290
     0
174
     0
 93
        1
 44
-50.0
173
     0
291
     1
 45
0.0
1001
ACAD
1000
AcDbSavedByObjectVersion
1070
     0
  0
VISUALSTYLE
  5
39
102
{ACAD_REACTORS
330
2A
102
}
102
{ACAD_XDICTIONARY
360
1C6
102
}
330
2A
100
AcDbVisualStyle
  2
Facepattern
 70
    15
 71
     2
 72
     2
 73
     0
 90
        0
 40
-0.6
 41
-30.0
 62
     5
 63
     7
 74
     1
 91
        4
 64
     7
 65
   257
 75
     1
175
     1
 42
1.0
 92
        8
 66
     7
 43
1.0
 76
     1
 77
     6
 78
     2
 67
     7
 79
     5
170
     0
171
     0
290
     0
174
     0
 93
        1
 44
0.0
173
     0
291
     1
 45
0.0
1001
ACAD
1000
AcDbSavedByObjectVersion
1070
     0
  0
VISUALSTYLE
  5
2B
102
{ACAD_REACTORS
330
2A
102
}
102
{ACAD_XDICTIONARY
360
1AA
102
}
330
2A
100
AcDbVisualStyle
  2
Flat
 70
     0
 71
     2
 72
     1
 73
     1
 90
        2
 40
-0.6
 41
30.0
 62
     5
 63
     7
 74
     0
 91
        4
 64
     7
 65
   257
 75
     1
175
     1
 42
1.0
 92
        8
 66
     7
 43
1.0
 76
     1
 77
     6
 78
     2
 67
     7
 79
     5
170
     0
171
     0
290
     0
174
     0
 93
       13
 44
0.0
173
     0
291
     1
 45
0.0
1001
ACAD
1000
AcDbSavedByObjectVersion
1070
     0
  0
VISUALSTYLE
  5
2C
102
{ACAD_REACTORS
330
2A
102
}
102
{ACAD_XDICTIONARY
360
1AC
102
}
330
2A
100
AcDbVisualStyle
  2
FlatWithEdges
 70
     1
 71
     2
 72
     1
 73
     1
 90
        2
 40
-0.6
 41
30.0
 62
     5
 63
     7
 74
     1
 91
        4
 64
     7
 65
   257
 75
     1
175
     1
 42
1.0
 92
        0
 66
   257
 43
1.0
 76
     1
 77
     6
 78
     2
 67
     7
 79
     5
170
     0
171
     0
290
     0
174
     0
 93
       13
 44
0.0
173
     0
291
     1
 45
0.0
1001
ACAD
1000
AcDbSavedByObjectVersion
1070
     0
  0
VISUALSTYLE
  5
2D
102
{ACAD_REACTORS
330
2A
102
}
102
{ACAD_XDICTIONARY
360
1AE
102
}
330
2A
100
AcDbVisualStyle
  2
Gouraud
 70
     2
 71
     2
 72
     2
 73
     1
 90
        2
 40
-0.6
 41
30.0
 62
     5
 63
     7
 74
     0
 91
        4
 64
     7
 65
   257
 75
     1
175
     1
 42
1.0
 92
        0
 66
     7
 43
1.0
 76
     1
 77
     6
 78
     2
 67
     7
 79
     5
170
     0
171
     0
290
     0
174
     0
 93
       13
 44
0.0
173
     0
291
     1
 45
0.0
1001
ACAD
1000
AcDbSavedByObjectVersion
1070
     0
  0
VISUALSTYLE
  5
2E
102
{ACAD_REACTORS
330
2A
102
}
102
{ACAD_XDICTIONARY
360
1B0
102
}
330
2A
100
AcDbVisualStyle
  2
GouraudWithEdges
 70
     3
 71
     2
 72
     2
 73
     1
 90
        2
 40
-0.6
 41
30.0
 62
     5
 63
     7
 74
     1
 91
        4
 64
     7
 65
   257
 75
     1
175
     1
 42
1.0
 92
        0
 66
   257
 43
1.0
 76
     1
 77
     6
 78
     2
 67
     7
 79
     5
170
     0
171
     0
290
     0
174
     0
 93
       13
 44
0.0
173
     0
291
     1
 45
0.0
1001
ACAD
1000
AcDbSavedByObjectVersion
1070
     0
  0
VISUALSTYLE
  5
38
102
{ACAD_REACTORS
330
2A
102
}
102
{ACAD_XDICTIONARY
360
1C4
102
}
330
2A
100
AcDbVisualStyle
  2
Linepattern
 70
    14
 71
     2
 72
     2
 73
     0
 90
        0
 40
-0.6
 41
-30.0
 62
     5
 63
     7
 74
     1
 91
        4
 64
     7
 65
   257
 75
     7
175
     7
 42
1.0
 92
        8
 66
     7
 43
1.0
 76
     1
 77
     6
 78
     2
 67
     7
 79
     5
170
     0
171
     0
290
     0
174
     0
 93
        1
 44
0.0
173
     0
291
     1
 45
0.0
1001
ACAD
1000
AcDbSavedByObjectVersion
1070
     0
  0
VISUALSTYLE
  5
33
102
{ACAD_REACTORS
330
2A
102
}
102
{ACAD_XDICTIONARY
360
1BA
102
}
330
2A
100
AcDbVisualStyle
  2
Realistic
 70
     8
 71
     2
 72
     2
 73
     0
 90
        0
 40
-0.6
 41
-30.0
 62
     5
 63
     7
 74
     1
 91
        0
 64
     7
 65
   257
 75
     1
175
     1
 42
1.0
 92
        8
 66
     8
 43
1.0
 76
     1
 77
     6
 78
     2
 67
     7
 79
     5
170
     0
171
     0
290
     0
174
     0
 93
       13
 44
0.0
173
     0
291
     0
 45
0.0
1001
ACAD
1000
AcDbSavedByObjectVersion
1070
     0
  0
VISUALSTYLE
  5
37
102
{ACAD_REACTORS
330
2A
102
}
102
{ACAD_XDICTIONARY
360
1C2
102
}
330
2A
100
AcDbVisualStyle
  2
Thicken
 70
    13
 71
     2
 72
     2
 73
     0
 90
        0
 40
-0.6
 41
-30.0
 62
     5
 63
     7
 74
     1
 91
        4
 64
     7
 65
   257
 75
     1
175
     1
 42
1.0
 92
       12
 66
     7
 43
1.0
 76
     1
 77
     6
 78
     2
 67
     7
 79
     5
170
     0
171
     0
290
     0
174
     0
 93
        1
 44
0.0
173
     0
291
     1
 45
0.0
1001
ACAD
1000
AcDbSavedByObjectVersion
1070
     0
  0
DICTIONARYVAR
  5
1A7
102
{ACAD_REACTORS
330
1A4
102
}
330
1A4
100
DictionaryVariables
280
     0
  1
1:1
  0
DICTIONARYVAR
  5
1A8
102
{ACAD_REACTORS
330
1A4
102
}
330
1A4
100
DictionaryVariables
280
     0
  1
2
  0
DICTIONARYVAR
  5
1A9
102
{ACAD_REACTORS
330
1A4
102
}
330
1A4
100
DictionaryVariables
280
     0
  1
1
  0
DICTIONARY
  5
1CC
330
3D
100
AcDbDictionary
280
     1
281
     1
  3
ACAD_XREC_ROUNDTRIP
360
1CD
  0
DICTIONARY
  5
1CA
330
3C
100
AcDbDictionary
280
     1
281
     1
  3
ACAD_XREC_ROUNDTRIP
360
1CB
  0
DICTIONARY
  5
1CE
330
3E
100
AcDbDictionary
280
     1
281
     1
  3
ACAD_XREC_ROUNDTRIP
360
1CF
  0
DICTIONARY
  5
1B2
330
2F
100
AcDbDictionary
280
     1
281
     1
  3
ACAD_XREC_ROUNDTRIP
360
1B3
  0
DICTIONARY
  5
1B6
330
31
100
AcDbDictionary
280
     1
281
     1
  3
ACAD_XREC_ROUNDTRIP
360
1B7
  0
DICTIONARY
  5
1B4
330
30
100
AcDbDictionary
280
     1
281
     1
  3
ACAD_XREC_ROUNDTRIP
360
1B5
  0
DICTIONARY
  5
1B8
330
32
100
AcDbDictionary
280
     1
281
     1
  3
ACAD_XREC_ROUNDTRIP
360
1B9
  0
DICTIONARY
  5
1C0
330
36
100
AcDbDictionary
280
     1
281
     1
  3
ACAD_XREC_ROUNDTRIP
360
1C1
  0
DICTIONARY
  5
1C8
330
3A
100
AcDbDictionary
280
     1
281
     1
  3
ACAD_XREC_ROUNDTRIP
360
1C9
  0
DICTIONARY
  5
1BC
330
34
100
AcDbDictionary
280
     1
281
     1
  3
ACAD_XREC_ROUNDTRIP
360
1BD
  0
DICTIONARY
  5
1BE
330
35
100
AcDbDictionary
280
     1
281
     1
  3
ACAD_XREC_ROUNDTRIP
360
1BF
  0
DICTIONARY
  5
1C6
330
39
100
AcDbDictionary
280
     1
281
     1
  3
ACAD_XREC_ROUNDTRIP
360
1C7
  0
DICTIONARY
  5
1AA
330
2B
100
AcDbDictionary
280
     1
281
     1
  3
ACAD_XREC_ROUNDTRIP
360
1AB
  0
DICTIONARY
  5
1AC
330
2C
100
AcDbDictionary
280
     1
281
     1
  3
ACAD_XREC_ROUNDTRIP
360
1AD
  0
DICTIONARY
  5
1AE
330
2D
100
AcDbDictionary
280
     1
281
     1
  3
ACAD_XREC_ROUNDTRIP
360
1AF
  0
DICTIONARY
  5
1B0
330
2E
100
AcDbDictionary
280
     1
281
     1
  3
ACAD_XREC_ROUNDTRIP
360
1B1
  0
DICTIONARY
  5
1C4
330
38
100
AcDbDictionary
280
     1
281
     1
  3
ACAD_XREC_ROUNDTRIP
360
1C5
  0
DICTIONARY
  5
1BA
330
33
100
AcDbDictionary
280
     1
281
     1
  3
ACAD_XREC_ROUNDTRIP
360
1BB
  0
DICTIONARY
  5
1C2
330
37
100
AcDbDictionary
280
     1
281
     1
  3
ACAD_XREC_ROUNDTRIP
360
1C3
  0
XRECORD
  5
1CD
102
{ACAD_REACTORS
330
1CC
102
}
330
1CC
100
AcDbXrecord
280
     1
102
MATERIAL
148
0.0
149
0.0
149
0.0
 93
        0
 94
      127
282
     0
 72
     1
 77
     1
171
     1
175
     1
179
     1
273
     0
  0
XRECORD
  5
1CB
102
{ACAD_REACTORS
330
1CA
102
}
330
1CA
100
AcDbXrecord
280
     1
102
MATERIAL
148
0.0
149
0.0
149
0.0
 93
        0
 94
      127
282
     0
 72
     1
 77
     1
171
     1
175
     1
179
     1
273
     0
  0
XRECORD
  5
1CF
102
{ACAD_REACTORS
330
1CE
102
}
330
1CE
100
AcDbXrecord
280
     1
102
MATERIAL
148
0.0
149
0.0
149
0.0
 93
        0
 94
      127
282
     0
 72
     1
 77
     1
171
     1
175
     1
179
     1
273
     0
  0
XRECORD
  5
1B3
102
{ACAD_REACTORS
330
1B2
102
}
330
1B2
100
AcDbXrecord
280
     1
102
RTVSPropertyOp0
 70
     1
102
RTVSPropertyOp1
 70
     1
102
RTVSPropertyOp2
 70
     1
102
RTVSPropertyOp3
 70
     1
102
RTVSPropertyOp4
 70
     1
102
RTVSPropertyOp5
 70
     1
102
RTVSPropertyOp6
 70
     1
102
RTVSPropertyOp7
 70
     1
102
RTVSPropertyOp8
 70
     1
102
RTVSPropertyOp9
 70
     1
102
RTVSPropertyOp10
 70
     1
102
RTVSPropertyOp11
 70
     1
102
RTVSPropertyOp12
 70
     1
102
RTVSPropertyOp13
 70
     1
102
RTVSPropertyOp14
 70
     1
102
RTVSPropertyOp15
 70
     1
102
RTVSPropertyOp16
 70
     1
102
RTVSPropertyOp17
 70
     1
102
RTVSPropertyOp18
 70
     1
102
RTVSPropertyOp19
 70
     1
102
RTVSPropertyOp20
 70
     1
102
RTVSPropertyOp21
 70
     1
102
RTVSPropertyOp22
 70
     1
102
RTVSPropertyOp23
 70
     1
102
RTVSPropertyOp24
 70
     1
102
RTVSPropertyOp25
 70
     1
102
RTVSPropertyOp26
 70
     1
102
RTVSPropertyOp27
 70
     1
  0
XRECORD
  5
1B7
102
{ACAD_REACTORS
330
1B6
102
}
330
1B6
100
AcDbXrecord
280
     1
102
RTVSPropertyOp0
 70
     1
102
RTVSPropertyOp1
 70
     1
102
RTVSPropertyOp2
 70
     1
102
RTVSPropertyOp3
 70
     1
102
RTVSPropertyOp4
 70
     1
102
RTVSPropertyOp5
 70
     1
102
RTVSPropertyOp6
 70
     1
102
RTVSPropertyOp7
 70
     1
102
RTVSPropertyOp8
 70
     1
102
RTVSPropertyOp9
 70
     1
102
RTVSPropertyOp10
 70
     1
102
RTVSPropertyOp11
 70
     1
102
RTVSPropertyOp12
 70
     1
102
RTVSPropertyOp13
 70
     1
102
RTVSPropertyOp14
 70
     1
102
RTVSPropertyOp15
 70
     1
102
RTVSPropertyOp16
 70
     1
102
RTVSPropertyOp17
 70
     1
102
RTVSPropertyOp18
 70
     1
102
RTVSPropertyOp19
 70
     1
102
RTVSPropertyOp20
 70
     1
102
RTVSPropertyOp21
 70
     1
102
RTVSPropertyOp22
 70
     1
102
RTVSPropertyOp23
 70
     1
102
RTVSPropertyOp24
 70
     1
102
RTVSPropertyOp25
 70
     1
102
RTVSPropertyOp26
 70
     1
102
RTVSPropertyOp27
 70
     1
  0
XRECORD
  5
1B5
102
{ACAD_REACTORS
330
1B4
102
}
330
1B4
100
AcDbXrecord
280
     1
102
RTVSPropertyOp0
 70
     1
102
RTVSPropertyOp1
 70
     1
102
RTVSPropertyOp2
 70
     1
102
RTVSPropertyOp3
 70
     1
102
RTVSPropertyOp4
 70
     1
102
RTVSPropertyOp5
 70
     1
102
RTVSPropertyOp6
 70
     1
102
RTVSPropertyOp7
 70
     1
102
RTVSPropertyOp8
 70
     1
102
RTVSPropertyOp9
 70
     1
102
RTVSPropertyOp10
 70
     1
102
RTVSPropertyOp11
 70
     1
102
RTVSPropertyOp12
 70
     1
102
RTVSPropertyOp13
 70
     1
102
RTVSPropertyOp14
 70
     1
102
RTVSPropertyOp15
 70
     1
102
RTVSPropertyOp16
 70
     1
102
RTVSPropertyOp17
 70
     1
102
RTVSPropertyOp18
 70
     1
102
RTVSPropertyOp19
 70
     1
102
RTVSPropertyOp20
 70
     1
102
RTVSPropertyOp21
 70
     1
102
RTVSPropertyOp22
 70
     1
102
RTVSPropertyOp23
 70
     1
102
RTVSPropertyOp24
 70
     1
102
RTVSPropertyOp25
 70
     1
102
RTVSPropertyOp26
 70
     1
102
RTVSPropertyOp27
 70
     1
  0
XRECORD
  5
1B9
102
{ACAD_REACTORS
330
1B8
102
}
330
1B8
100
AcDbXrecord
280
     1
102
RTVSPropertyOp0
 70
     1
102
RTVSPropertyOp1
 70
     1
102
RTVSPropertyOp2
 70
     1
102
RTVSPropertyOp3
 70
     1
102
RTVSPropertyOp4
 70
     1
102
RTVSPropertyOp5
 70
     1
102
RTVSPropertyOp6
 70
     1
102
RTVSPropertyOp7
 70
     1
102
RTVSPropertyOp8
 70
     1
102
RTVSPropertyOp9
 70
     1
102
RTVSPropertyOp10
 70
     1
102
RTVSPropertyOp11
 70
     1
102
RTVSPropertyOp12
 70
     1
102
RTVSPropertyOp13
 70
     1
102
RTVSPropertyOp14
 70
     1
102
RTVSPropertyOp15
 70
     1
102
RTVSPropertyOp16
 70
     1
102
RTVSPropertyOp17
 70
     1
102
RTVSPropertyOp18
 70
     1
102
RTVSPropertyOp19
 70
     1
102
RTVSPropertyOp20
 70
     1
102
RTVSPropertyOp21
 70
     1
102
RTVSPropertyOp22
 70
     1
102
RTVSPropertyOp23
 70
     1
102
RTVSPropertyOp24
 70
     1
102
RTVSPropertyOp25
 70
     1
102
RTVSPropertyOp26
 70
     1
102
RTVSPropertyOp27
 70
     1
  0
XRECORD
  5
1C1
102
{ACAD_REACTORS
330
1C0
102
}
330
1C0
100
AcDbXrecord
280
     1
102
RTVSPropertyOp0
 70
     1
102
RTVSPropertyOp1
 70
     1
102
RTVSPropertyOp2
 70
     1
102
RTVSPropertyOp3
 70
     1
102
RTVSPropertyOp4
 70
     1
102
RTVSPropertyOp5
 70
     1
102
RTVSPropertyOp6
 70
     1
102
RTVSPropertyOp7
 70
     1
102
RTVSPropertyOp8
 70
     1
102
RTVSPropertyOp9
 70
     1
102
RTVSPropertyOp10
 70
     1
102
RTVSPropertyOp11
 70
     1
102
RTVSPropertyOp12
 70
     1
102
RTVSPropertyOp13
 70
     1
102
RTVSPropertyOp14
 70
     1
102
RTVSPropertyOp15
 70
     1
102
RTVSPropertyOp16
 70
     1
102
RTVSPropertyOp17
 70
     1
102
RTVSPropertyOp18
 70
     1
102
RTVSPropertyOp19
 70
     1
102
RTVSPropertyOp20
 70
     1
102
RTVSPropertyOp21
 70
     1
102
RTVSPropertyOp22
 70
     1
102
RTVSPropertyOp23
 70
     1
102
RTVSPropertyOp24
 70
     1
102
RTVSPropertyOp25
 70
     1
102
RTVSPropertyOp26
 70
     1
102
RTVSPropertyOp27
 70
     1
  0
XRECORD
  5
1C9
102
{ACAD_REACTORS
330
1C8
102
}
330
1C8
100
AcDbXrecord
280
     1
102
RTVSPropertyOp0
 70
     1
102
RTVSPropertyOp1
 70
     1
102
RTVSPropertyOp2
 70
     1
102
RTVSPropertyOp3
 70
     1
102
RTVSPropertyOp4
 70
     1
102
RTVSPropertyOp5
 70
     1
102
RTVSPropertyOp6
 70
     1
102
RTVSPropertyOp7
 70
     1
102
RTVSPropertyOp8
 70
     1
102
RTVSPropertyOp9
 70
     1
102
RTVSPropertyOp10
 70
     1
102
RTVSPropertyOp11
 70
     1
102
RTVSPropertyOp12
 70
     1
102
RTVSPropertyOp13
 70
     1
102
RTVSPropertyOp14
 70
     1
102
RTVSPropertyOp15
 70
     1
102
RTVSPropertyOp16
 70
     1
102
RTVSPropertyOp17
 70
     1
102
RTVSPropertyOp18
 70
     1
102
RTVSPropertyOp19
 70
     1
102
RTVSPropertyOp20
 70
     1
102
RTVSPropertyOp21
 70
     1
102
RTVSPropertyOp22
 70
     1
102
RTVSPropertyOp23
 70
     1
102
RTVSPropertyOp24
 70
     1
102
RTVSPropertyOp25
 70
     1
102
RTVSPropertyOp26
 70
     1
102
RTVSPropertyOp27
 70
     1
  0
XRECORD
  5
1BD
102
{ACAD_REACTORS
330
1BC
102
}
330
1BC
100
AcDbXrecord
280
     1
102
RTVSPropertyOp0
 70
     1
102
RTVSPropertyOp1
 70
     1
102
RTVSPropertyOp2
 70
     1
102
RTVSPropertyOp3
 70
     1
102
RTVSPropertyOp4
 70
     1
102
RTVSPropertyOp5
 70
     1
102
RTVSPropertyOp6
 70
     1
102
RTVSPropertyOp7
 70
     1
102
RTVSPropertyOp8
 70
     1
102
RTVSPropertyOp9
 70
     1
102
RTVSPropertyOp10
 70
     1
102
RTVSPropertyOp11
 70
     1
102
RTVSPropertyOp12
 70
     1
102
RTVSPropertyOp13
 70
     1
102
RTVSPropertyOp14
 70
     1
102
RTVSPropertyOp15
 70
     1
102
RTVSPropertyOp16
 70
     1
102
RTVSPropertyOp17
 70
     1
102
RTVSPropertyOp18
 70
     1
102
RTVSPropertyOp19
 70
     1
102
RTVSPropertyOp20
 70
     1
102
RTVSPropertyOp21
 70
     1
102
RTVSPropertyOp22
 70
     1
102
RTVSPropertyOp23
 70
     1
102
RTVSPropertyOp24
 70
     1
102
RTVSPropertyOp25
 70
     1
102
RTVSPropertyOp26
 70
     1
102
RTVSPropertyOp27
 70
     1
  0
XRECORD
  5
1BF
102
{ACAD_REACTORS
330
1BE
102
}
330
1BE
100
AcDbXrecord
280
     1
102
RTVSPropertyOp0
 70
     1
102
RTVSPropertyOp1
 70
     1
102
RTVSPropertyOp2
 70
     1
102
RTVSPropertyOp3
 70
     1
102
RTVSPropertyOp4
 70
     1
102
RTVSPropertyOp5
 70
     1
102
RTVSPropertyOp6
 70
     1
102
RTVSPropertyOp7
 70
     1
102
RTVSPropertyOp8
 70
     1
102
RTVSPropertyOp9
 70
     1
102
RTVSPropertyOp10
 70
     1
102
RTVSPropertyOp11
 70
     1
102
RTVSPropertyOp12
 70
     1
102
RTVSPropertyOp13
 70
     1
102
RTVSPropertyOp14
 70
     1
102
RTVSPropertyOp15
 70
     1
102
RTVSPropertyOp16
 70
     1
102
RTVSPropertyOp17
 70
     1
102
RTVSPropertyOp18
 70
     1
102
RTVSPropertyOp19
 70
     1
102
RTVSPropertyOp20
 70
     1
102
RTVSPropertyOp21
 70
     1
102
RTVSPropertyOp22
 70
     1
102
RTVSPropertyOp23
 70
     1
102
RTVSPropertyOp24
 70
     1
102
RTVSPropertyOp25
 70
     1
102
RTVSPropertyOp26
 70
     1
102
RTVSPropertyOp27
 70
     1
  0
XRECORD
  5
1C7
102
{ACAD_REACTORS
330
1C6
102
}
330
1C6
100
AcDbXrecord
280
     1
102
RTVSPropertyOp0
 70
     1
102
RTVSPropertyOp1
 70
     1
102
RTVSPropertyOp2
 70
     1
102
RTVSPropertyOp3
 70
     1
102
RTVSPropertyOp4
 70
     1
102
RTVSPropertyOp5
 70
     1
102
RTVSPropertyOp6
 70
     1
102
RTVSPropertyOp7
 70
     1
102
RTVSPropertyOp8
 70
     1
102
RTVSPropertyOp9
 70
     1
102
RTVSPropertyOp10
 70
     1
102
RTVSPropertyOp11
 70
     1
102
RTVSPropertyOp12
 70
     1
102
RTVSPropertyOp13
 70
     1
102
RTVSPropertyOp14
 70
     1
102
RTVSPropertyOp15
 70
     1
102
RTVSPropertyOp16
 70
     1
102
RTVSPropertyOp17
 70
     1
102
RTVSPropertyOp18
 70
     1
102
RTVSPropertyOp19
 70
     1
102
RTVSPropertyOp20
 70
     1
102
RTVSPropertyOp21
 70
     1
102
RTVSPropertyOp22
 70
     1
102
RTVSPropertyOp23
 70
     1
102
RTVSPropertyOp24
 70
     1
102
RTVSPropertyOp25
 70
     1
102
RTVSPropertyOp26
 70
     1
102
RTVSPropertyOp27
 70
     1
  0
XRECORD
  5
1AB
102
{ACAD_REACTORS
330
1AA
102
}
330
1AA
100
AcDbXrecord
280
     1
102
RTVSPropertyOp0
 70
     1
102
RTVSPropertyOp1
 70
     1
102
RTVSPropertyOp2
 70
     1
102
RTVSPropertyOp3
 70
     1
102
RTVSPropertyOp4
 70
     1
102
RTVSPropertyOp5
 70
     1
102
RTVSPropertyOp6
 70
     1
102
RTVSPropertyOp7
 70
     1
102
RTVSPropertyOp8
 70
     1
102
RTVSPropertyOp9
 70
     1
102
RTVSPropertyOp10
 70
     1
102
RTVSPropertyOp11
 70
     1
102
RTVSPropertyOp12
 70
     1
102
RTVSPropertyOp13
 70
     1
102
RTVSPropertyOp14
 70
     1
102
RTVSPropertyOp15
 70
     1
102
RTVSPropertyOp16
 70
     1
102
RTVSPropertyOp17
 70
     1
102
RTVSPropertyOp18
 70
     1
102
RTVSPropertyOp19
 70
     1
102
RTVSPropertyOp20
 70
     1
102
RTVSPropertyOp21
 70
     1
102
RTVSPropertyOp22
 70
     1
102
RTVSPropertyOp23
 70
     1
102
RTVSPropertyOp24
 70
     1
102
RTVSPropertyOp25
 70
     1
102
RTVSPropertyOp26
 70
     1
102
RTVSPropertyOp27
 70
     1
  0
XRECORD
  5
1AD
102
{ACAD_REACTORS
330
1AC
102
}
330
1AC
100
AcDbXrecord
280
     1
102
RTVSPropertyOp0
 70
     1
102
RTVSPropertyOp1
 70
     1
102
RTVSPropertyOp2
 70
     1
102
RTVSPropertyOp3
 70
     1
102
RTVSPropertyOp4
 70
     1
102
RTVSPropertyOp5
 70
     1
102
RTVSPropertyOp6
 70
     1
102
RTVSPropertyOp7
 70
     1
102
RTVSPropertyOp8
 70
     1
102
RTVSPropertyOp9
 70
     1
102
RTVSPropertyOp10
 70
     1
102
RTVSPropertyOp11
 70
     1
102
RTVSPropertyOp12
 70
     1
102
RTVSPropertyOp13
 70
     1
102
RTVSPropertyOp14
 70
     1
102
RTVSPropertyOp15
 70
     1
102
RTVSPropertyOp16
 70
     1
102
RTVSPropertyOp17
 70
     1
102
RTVSPropertyOp18
 70
     1
102
RTVSPropertyOp19
 70
     1
102
RTVSPropertyOp20
 70
     1
102
RTVSPropertyOp21
 70
     1
102
RTVSPropertyOp22
 70
     1
102
RTVSPropertyOp23
 70
     1
102
RTVSPropertyOp24
 70
     1
102
RTVSPropertyOp25
 70
     1
102
RTVSPropertyOp26
 70
     1
102
RTVSPropertyOp27
 70
     1
  0
XRECORD
  5
1AF
102
{ACAD_REACTORS
330
1AE
102
}
330
1AE
100
AcDbXrecord
280
     1
102
RTVSPropertyOp0
 70
     1
102
RTVSPropertyOp1
 70
     1
102
RTVSPropertyOp2
 70
     1
102
RTVSPropertyOp3
 70
     1
102
RTVSPropertyOp4
 70
     1
102
RTVSPropertyOp5
 70
     1
102
RTVSPropertyOp6
 70
     1
102
RTVSPropertyOp7
 70
     1
102
RTVSPropertyOp8
 70
     1
102
RTVSPropertyOp9
 70
     1
102
RTVSPropertyOp10
 70
     1
102
RTVSPropertyOp11
 70
     1
102
RTVSPropertyOp12
 70
     1
102
RTVSPropertyOp13
 70
     1
102
RTVSPropertyOp14
 70
     1
102
RTVSPropertyOp15
 70
     1
102
RTVSPropertyOp16
 70
     1
102
RTVSPropertyOp17
 70
     1
102
RTVSPropertyOp18
 70
     1
102
RTVSPropertyOp19
 70
     1
102
RTVSPropertyOp20
 70
     1
102
RTVSPropertyOp21
 70
     1
102
RTVSPropertyOp22
 70
     1
102
RTVSPropertyOp23
 70
     1
102
RTVSPropertyOp24
 70
     1
102
RTVSPropertyOp25
 70
     1
102
RTVSPropertyOp26
 70
     1
102
RTVSPropertyOp27
 70
     1
  0
XRECORD
  5
1B1
102
{ACAD_REACTORS
330
1B0
102
}
330
1B0
100
AcDbXrecord
280
     1
102
RTVSPropertyOp0
 70
     1
102
RTVSPropertyOp1
 70
     1
102
RTVSPropertyOp2
 70
     1
102
RTVSPropertyOp3
 70
     1
102
RTVSPropertyOp4
 70
     1
102
RTVSPropertyOp5
 70
     1
102
RTVSPropertyOp6
 70
     1
102
RTVSPropertyOp7
 70
     1
102
RTVSPropertyOp8
 70
     1
102
RTVSPropertyOp9
 70
     1
102
RTVSPropertyOp10
 70
     1
102
RTVSPropertyOp11
 70
     1
102
RTVSPropertyOp12
 70
     1
102
RTVSPropertyOp13
 70
     1
102
RTVSPropertyOp14
 70
     1
102
RTVSPropertyOp15
 70
     1
102
RTVSPropertyOp16
 70
     1
102
RTVSPropertyOp17
 70
     1
102
RTVSPropertyOp18
 70
     1
102
RTVSPropertyOp19
 70
     1
102
RTVSPropertyOp20
 70
     1
102
RTVSPropertyOp21
 70
     1
102
RTVSPropertyOp22
 70
     1
102
RTVSPropertyOp23
 70
     1
102
RTVSPropertyOp24
 70
     1
102
RTVSPropertyOp25
 70
     1
102
RTVSPropertyOp26
 70
     1
102
RTVSPropertyOp27
 70
     1
  0
XRECORD
  5
1C5
102
{ACAD_REACTORS
330
1C4
102
}
330
1C4
100
AcDbXrecord
280
     1
102
RTVSPropertyOp0
 70
     1
102
RTVSPropertyOp1
 70
     1
102
RTVSPropertyOp2
 70
     1
102
RTVSPropertyOp3
 70
     1
102
RTVSPropertyOp4
 70
     1
102
RTVSPropertyOp5
 70
     1
102
RTVSPropertyOp6
 70
     1
102
RTVSPropertyOp7
 70
     1
102
RTVSPropertyOp8
 70
     1
102
RTVSPropertyOp9
 70
     1
102
RTVSPropertyOp10
 70
     1
102
RTVSPropertyOp11
 70
     1
102
RTVSPropertyOp12
 70
     1
102
RTVSPropertyOp13
 70
     1
102
RTVSPropertyOp14
 70
     1
102
RTVSPropertyOp15
 70
     1
102
RTVSPropertyOp16
 70
     1
102
RTVSPropertyOp17
 70
     1
102
RTVSPropertyOp18
 70
     1
102
RTVSPropertyOp19
 70
     1
102
RTVSPropertyOp20
 70
     1
102
RTVSPropertyOp21
 70
     1
102
RTVSPropertyOp22
 70
     1
102
RTVSPropertyOp23
 70
     1
102
RTVSPropertyOp24
 70
     1
102
RTVSPropertyOp25
 70
     1
102
RTVSPropertyOp26
 70
     1
102
RTVSPropertyOp27
 70
     1
  0
XRECORD
  5
1BB
102
{ACAD_REACTORS
330
1BA
102
}
330
1BA
100
AcDbXrecord
280
     1
102
RTVSPropertyOp0
 70
     1
102
RTVSPropertyOp1
 70
     1
102
RTVSPropertyOp2
 70
     1
102
RTVSPropertyOp3
 70
     1
102
RTVSPropertyOp4
 70
     1
102
RTVSPropertyOp5
 70
     1
102
RTVSPropertyOp6
 70
     1
102
RTVSPropertyOp7
 70
     1
102
RTVSPropertyOp8
 70
     1
102
RTVSPropertyOp9
 70
     1
102
RTVSPropertyOp10
 70
     1
102
RTVSPropertyOp11
 70
     1
102
RTVSPropertyOp12
 70
     1
102
RTVSPropertyOp13
 70
     1
102
RTVSPropertyOp14
 70
     1
102
RTVSPropertyOp15
 70
     1
102
RTVSPropertyOp16
 70
     1
102
RTVSPropertyOp17
 70
     1
102
RTVSPropertyOp18
 70
     1
102
RTVSPropertyOp19
 70
     1
102
RTVSPropertyOp20
 70
     1
102
RTVSPropertyOp21
 70
     1
102
RTVSPropertyOp22
 70
     1
102
RTVSPropertyOp23
 70
     1
102
RTVSPropertyOp24
 70
     1
102
RTVSPropertyOp25
 70
     1
102
RTVSPropertyOp26
 70
     1
102
RTVSPropertyOp27
 70
     1
  0
XRECORD
  5
1C3
102
{ACAD_REACTORS
330
1C2
102
}
330
1C2
100
AcDbXrecord
280
     1
102
RTVSPropertyOp0
 70
     1
102
RTVSPropertyOp1
 70
     1
102
RTVSPropertyOp2
 70
     1
102
RTVSPropertyOp3
 70
     1
102
RTVSPropertyOp4
 70
     1
102
RTVSPropertyOp5
 70
     1
102
RTVSPropertyOp6
 70
     1
102
RTVSPropertyOp7
 70
     1
102
RTVSPropertyOp8
 70
     1
102
RTVSPropertyOp9
 70
     1
102
RTVSPropertyOp10
 70
     1
102
RTVSPropertyOp11
 70
     1
102
RTVSPropertyOp12
 70
     1
102
RTVSPropertyOp13
 70
     1
102
RTVSPropertyOp14
 70
     1
102
RTVSPropertyOp15
 70
     1
102
RTVSPropertyOp16
 70
     1
102
RTVSPropertyOp17
 70
     1
102
RTVSPropertyOp18
 70
     1
102
RTVSPropertyOp19
 70
     1
102
RTVSPropertyOp20
 70
     1
102
RTVSPropertyOp21
 70
     1
102
RTVSPropertyOp22
 70
     1
102
RTVSPropertyOp23
 70
     1
102
RTVSPropertyOp24
 70
     1
102
RTVSPropertyOp25
 70
     1
102
RTVSPropertyOp26
 70
     1
102
RTVSPropertyOp27
 70
     1
  0
ENDSEC
  0
EOF
