  0
SECTION
  2
HEADER
  9
$ACADVER
  1
AC1009
  9
$INSBASE
 10
0.0
 20
0.0
 30
0.0
  9
$EXTMIN
 10
89.363007469379056
 20
77.112589357438424
 30
0.0
  9
$EXTMAX
 10
813.95694076061602
 20
487.8869500120224
 30
0.0
  9
$LIMMIN
 10
0.0
 20
0.0
  9
$LIMMAX
 10
12.0
 20
9.0
  9
$ORTHOMODE
 70
     0
  9
$REGENMODE
 70
     1
  9
$FILLMODE
 70
     1
  9
$QTEXTMODE
 70
     0
  9
$MIRRTEXT
 70
     1
  9
$DRAGMODE
 70
     2
  9
$LTSCALE
 40
1.0
  9
$OSMODE
 70
  3071
  9
$ATTMODE
 70
     1
  9
$TEXTSIZE
 40
0.2
  9
$TRACEWID
 40
0.05
  9
$TEXTSTYLE
  7
STANDARD
  9
$CLAYER
  8
0
  9
$CELTYPE
  6
BYLAYER
  9
$CECOLOR
 62
   256
  9
$DIMSCALE
 40
1.0
  9
$DIMASZ
 40
3.5
  9
$DIMEXO
 40
1.0
  9
$DIMDLI
 40
10.0
  9
$DIMRND
 40
0.0
  9
$DIMDLE
 40
0.0
  9
$DIMEXE
 40
1.0
  9
$DIMTP
 40
0.1
  9
$DIMTM
 40
0.1
  9
$DIMTXT
 40
3.5
  9
$DIMCEN
 40
0.0
  9
$DIMTSZ
 40
0.0
  9
$DIMTOL
 70
     0
  9
$DIMLIM
 70
     0
  9
$DIMTIH
 70
     0
  9
$DIMTOH
 70
     0
  9
$DIMSE1
 70
     0
  9
$DIMSE2
 70
     0
  9
$DIMTAD
 70
     1
  9
$DIMZIN
 70
     8
  9
$DIMBLK
  1

  9
$DIMASO
 70
     1
  9
$DIMSHO
 70
     1
  9
$DIMPOST
  1

  9
$DIMAPOST
  1
"
  9
$DIMALT
 70
     0
  9
$DIMALTD
 70
     2
  9
$DIMALTF
 40
0.0393701
  9
$DIMLFAC
 40
1.0
  9
$DIMTOFL
 70
     1
  9
$DIMTVP
 40
0.0
  9
$DIMTIX
 70
     0
  9
$DIMSOXD
 70
     0
  9
$DIMSAH
 70
     0
  9
$DIMBLK1
  1

  9
$DIMBLK2
  1

  9
$DIMSTYLE
  2
AM_ISO
  9
$DIMCLRD
 70
   256
  9
$DIMCLRE
 70
   256
  9
$DIMCLRT
 70
     2
  9
$DIMTFAC
 40
0.71
  9
$DIMGAP
 40
1.5
  9
$LUNITS
 70
     2
  9
$LUPREC
 70
     2
  9
$SKETCHINC
 40
0.1
  9
$FILLETRAD
 40
0.5
  9
$AUNITS
 70
     0
  9
$AUPREC
 70
     0
  9
$MENU
  1
.
  9
$ELEVATION
 40
0.0
  9
$PELEVATION
 40
0.0
  9
$THICKNESS
 40
0.0
  9
$LIMCHECK
 70
     0
  9
$BLIPMODE
 70
     0
  9
$CHAMFERA
 40
0.5
  9
$CHAMFERB
 40
0.5
  9
$SKPOLY
 70
     0
  9
$TDCREATE
 40
2456541.4804118751
  9
$TDUPDATE
 40
2459202.553234132
  9
$TDINDWG
 40
0.0572058912
  9
$TDUSRTIMER
 40
0.057205625
  9
$USRTIMER
 70
     1
  9
$ANGBASE
 50
0.0
  9
$ANGDIR
 70
     0
  9
$PDMODE
 70
     0
  9
$PDSIZE
 40
0.0
  9
$PLINEWID
 40
0.0
  9
$COORDS
 70
     2
  9
$SPLFRAME
 70
     0
  9
$SPLINETYPE
 70
     6
  9
$SPLINESEGS
 70
     8
  9
$ATTDIA
 70
     1
  9
$ATTREQ
 70
     1
  9
$HANDLING
 70
     1
  9
$HANDSEED
  5
762
  9
$SURFTAB1
 70
     6
  9
$SURFTAB2
 70
     6
  9
$SURFTYPE
 70
     6
  9
$SURFU
 70
     6
  9
$SURFV
 70
     6
  9
$UCSNAME
  2

  9
$UCSORG
 10
0.0
 20
0.0
 30
0.0
  9
$UCSXDIR
 10
1.0
 20
0.0
 30
0.0
  9
$UCSYDIR
 10
0.0
 20
1.0
 30
0.0
  9
$PUCSNAME
  2

  9
$PUCSORG
 10
0.0
 20
0.0
 30
0.0
  9
$PUCSXDIR
 10
1.0
 20
0.0
 30
0.0
  9
$PUCSYDIR
 10
0.0
 20
1.0
 30
0.0
  9
$USERI1
 70
     0
  9
$USERI2
 70
     0
  9
$USERI3
 70
     0
  9
$USERI4
 70
     0
  9
$USERI5
 70
     0
  9
$USERR1
 40
18.0
  9
$USERR2
 40
0.0
  9
$USERR3
 40
0.0
  9
$USERR4
 40
0.0
  9
$USERR5
 40
0.0
  9
$WORLDVIEW
 70
     1
  9
$SHADEDGE
 70
     3
  9
$SHADEDIF
 70
    70
  9
$TILEMODE
 70
     1
  9
$MAXACTVP
 70
    64
  9
$PLIMCHECK
 70
     0
  9
$PEXTMIN
 10
1.0000000000000000E+020
 20
1.0000000000000000E+020
 30
1.0000000000000000E+020
  9
$PEXTMAX
 10
-1.0000000000000000E+020
 20
-1.0000000000000000E+020
 30
-1.0000000000000000E+020
  9
$PLIMMIN
 10
0.0
 20
0.0
  9
$PLIMMAX
 10
12.0
 20
9.0
  9
$UNITMODE
 70
     0
  9
$VISRETAIN
 70
     1
  9
$PLINEGEN
 70
     0
  9
$PSLTSCALE
 70
     1
  0
ENDSEC
  0
SECTION
  2
TABLES
  0
TABLE
  2
VPORT
 70
     1
  0
VPORT
  2
*ACTIVE
 70
     0
 10
0.0
 20
0.0
 11
1.0
 21
1.0
 12
463.59596426627593
 22
348.20271272004061
 13
0.0
 23
0.0
 14
0.5
 24
0.5
 15
0.5
 25
0.5
 16
0.0
 26
0.0
 36
1.0
 17
0.0
 27
0.0
 37
0.0
 40
710.32296716915357
 41
1.648008611410118
 42
50.0
 43
0.0
 44
0.0
 50
0.0
 51
0.0
 71
     0
 72
   100
 73
     1
 74
     3
 75
     0
 76
     0
 77
     0
 78
     0
  0
ENDTAB
  0
TABLE
  2
LTYPE
 70
    22
  0
LTYPE
  2
CONTINUOUS
 70
     0
  3
Solid line
 72
    65
 73
     0
 40
0.0
  0
LTYPE
  2
DASHED
 70
     0
  3
Dashed
 72
    65
 73
     2
 40
15.0
 49
7.0
 49
-8.0
  0
LTYPE
  2
DOTTED
 70
     0
  3
Dotted
 72
    65
 73
     2
 40
1.0
 49
0.0
 49
-1.0
  0
LTYPE
  2
DOT_CENTER
 70
     0
  3
Dot_Center
 72
    65
 73
     4
 40
14.0
 49
12.0
 49
-1.0
 49
0.0
 49
-1.0
  0
LTYPE
  2
LONG_DASHED
 70
     0
  3
Long_Dashed
 72
    65
 73
     2
 40
15.0
 49
10.0
 49
-5.0
  0
LTYPE
  2
DASH_CENTER
 70
     0
  3
Dash_Center
 72
    65
 73
     4
 40
14.0
 49
11.0
 49
-1.0
 49
1.0
 49
-1.0
  0
LTYPE
  2
PHANTOM
 70
     0
  3
Phantom
 72
    65
 73
     6
 40
13.0
 49
10.0
 49
-1.0
 49
0.0
 49
-1.0
 49
0.0
 49
-1.0
  0
LTYPE
  2
CENTER_DASH_DASH
 70
     0
  3
Center_Dash_Dash
 72
    65
 73
     6
 40
14.0
 49
9.0
 49
-1.0
 49
1.0
 49
-1.0
 49
1.0
 49
-1.0
  0
LTYPE
  2
HIDDEN
 70
     0
  3
Hidden __ __ __ __ __ __ __ __ __ __ __ __ __ _
 72
    65
 73
     2
 40
9.5249999999999986
 49
6.3499999999999988
 49
-3.1749999999999989
  0
LTYPE
  2
PHANTOM2
 70
     0
  3
Phantom (.5x) ___ _ _ ___ _ _ ___ _ _ ___ _ _
 72
    65
 73
     6
 40
31.75
 49
15.875
 49
-3.1749999999999989
 49
3.1749999999999989
 49
-3.1749999999999989
 49
3.1749999999999989
 49
-3.1749999999999989
  0
LTYPE
  2
CENTER
 70
     0
  3
Center ____ _ ____ _ ____ _ ____ _ ____ _ ____
 72
    65
 73
     4
 40
50.799999999999997
 49
31.75
 49
-6.3499999999999988
 49
6.3499999999999988
 49
-6.3499999999999988
  0
LTYPE
  2
AM_ISO02W050
 70
     0
  3
__ __ __ __ __ __ __ __ __ __ __ __ __ __ __
 72
    65
 73
     2
 40
7.5
 49
6.0
 49
-1.5
  0
LTYPE
  2
AM_ISO08W050
 70
     0
  3
____ . ____ . ____ . ____ . ____ . ____ . ____
 72
    65
 73
     4
 40
18.0
 49
12.0
 49
-1.5
 49
3.0
 49
-1.5
  0
LTYPE
  2
AM_ISO09W050
 70
     0
  3
_____ . . _____ . . _____ . . ____ .. ____
 72
    65
 73
     6
 40
22.5
 49
12.0
 49
-1.5
 49
3.0
 49
-1.5
 49
3.0
 49
-1.5
  0
LTYPE
  2
AMCONSTR
 70
     0
  3
_______________________
 72
    65
 73
     2
 40
9999.0
 49
9999.0
 49
0.0
  0
LTYPE
  2
AM_ISO08W050X2
 70
     0
  3
__ . __ . __ . __ . __ . __
 72
    65
 73
     4
 40
9.0
 49
6.0
 49
-0.75
 49
1.5
 49
-0.75
  0
LTYPE
  2
AM_ISO02W050X2
 70
     0
  3
 _ _ _ _ _ _ _ _ _ _ _ _
 72
    65
 73
     2
 40
3.75
 49
3.0
 49
-0.75
  0
LTYPE
  2
AMZIGZAG
 70
     0
  3
/\/-/\/-/\/-/\/-/\/-/\/
 72
    65
 73
     2
 40
11.0001
 49
0.0001
 49
-11.0
  0
LTYPE
  2
ACISOWELD
 70
     0
  3
_ _ _ _ _
 72
    65
 73
     2
 40
2.0
 49
2.0
 49
-1.0
  0
LTYPE
  2
ACISOTGL
 70
     0
  3
_ _ _ _ _
 72
    65
 73
     2
 40
3.0
 49
2.0
 49
-1.0
  0
LTYPE
  2
ACISOTGB
 70
     0
  3
__ . . __ . .
 72
    65
 73
     6
 40
9.0
 49
4.0
 49
-1.0
 49
1.0
 49
-1.0
 49
1.0
 49
-1.0
  0
ENDTAB
  0
TABLE
  2
LAYER
 70
     4
  0
LAYER
  2
0
 70
     0
 62
     7
  6
CONTINUOUS
  0
LAYER
  2
1
 70
     0
 62
     7
  6
CONTINUOUS
  0
LAYER
  2
AM_5
 70
     0
 62
     3
  6
CONTINUOUS
  0
LAYER
  2
DEFPOINTS
 70
     0
 62
     7
  6
CONTINUOUS
  0
ENDTAB
  0
TABLE
  2
STYLE
 70
     4
  0
STYLE
  2
STANDARD
 70
     0
 40
0.0
 41
1.0
 50
0.0
 71
     0
 42
0.2
  3
txt
  4

  0
STYLE
  2

 70
     1
 40
0.0
 41
1.0
 50
0.0
 71
     0
 42
0.2
  3
genltshp.shx
  4

  0
STYLE
  2
ACISOTS
 70
     0
 40
0.0
 41
1.0
 50
0.0
 71
     0
 42
0.2
  3
isocp.shx
  4
extfont.shx
  0
STYLE
  2
ACISOGDT
 70
     0
 40
0.0
 41
1.0
 50
0.0
 71
     0
 42
0.2
  3
amgdt.shx
  4

  0
ENDTAB
  0
TABLE
  2
VIEW
 70
     0
  0
ENDTAB
  0
TABLE
  2
UCS
 70
     0
  0
ENDTAB
  0
TABLE
  2
APPID
 70
    14
  0
APPID
  2
ACAD
 70
     0
  0
APPID
  2
MCAD_NO_VIS
 70
     0
  0
APPID
  2
ACAD_TEMP_GRAPHIC
 70
     0
  0
APPID
  2
ACATTRIBSERVICES
 70
     0
  0
APPID
  2
DESIGNERASSEMBLIES
 70
     0
  0
APPID
  2
ACAD_DSTYLE_DIMJAG
 70
     0
  0
APPID
  2
ACAD_DSTYLE_DIMBREAK
 70
     0
  0
APPID
  2
ACAD_NAV_VCDISPLAY
 70
     0
  0
APPID
  2
ACAECLAYERSTANDARD
 70
     0
  0
APPID
  2
GENIUS_GENDTOL_13
 70
     0
  0
APPID
  2
ACAD_DSTYLE_DIMINSPECT
 70
     0
  0
APPID
  2
ACADANNOMONITORALERTICONDI
 70
     0
  0
APPID
  2
ACAD_EXEMPT_FROM_CAD_STANDARDS
 70
     0
  0
APPID
  2
ACAD_MLEADERVER
 70
     0
  0
ENDTAB
  0
TABLE
  2
DIMSTYLE
 70
     9
  0
DIMSTYLE
  2
STANDARD
 70
     0
  3

  4

  5

  6

  7

 40
1.0
 41
0.18
 42
0.0625
 43
0.38
 44
0.18
 45
0.0
 46
0.0
 47
0.0
 48
0.0
140
0.18
141
0.09
142
0.0
143
25.399999999999999
144
1.0
145
0.0
146
1.0
147
0.09
 71
     0
 72
     0
 73
     1
 74
     1
 75
     0
 76
     0
 77
     0
 78
     0
170
     0
171
     2
172
     0
173
     0
174
     0
175
     0
176
     0
177
     0
178
     0
  0
DIMSTYLE
  2
AM_ISO
 70
     0
  3

  4
"
  5

  6

  7

 40
1.0
 41
3.5
 42
1.0
 43
10.0
 44
1.0
 45
0.0
 46
0.0
 47
0.1
 48
0.1
140
3.5
141
0.0
142
0.0
143
0.0393701
144
1.0
145
0.0
146
0.71
147
1.5
 71
     0
 72
     0
 73
     0
 74
     0
 75
     0
 76
     0
 77
     1
 78
     8
170
     0
171
     2
172
     1
173
     0
174
     0
175
     0
176
   256
177
   256
178
     2
  0
DIMSTYLE
  2
AM_ISO$3
 70
     0
  3

  4
"
  5

  6

  7

 40
1.0
 41
3.5
 42
1.0
 43
10.0
 44
1.0
 45
0.0
 46
0.0
 47
0.1
 48
0.1
140
3.5
141
0.0
142
0.0
143
0.0393701
144
1.0
145
0.0
146
0.71
147
1.5
 71
     0
 72
     0
 73
     0
 74
     1
 75
     0
 76
     0
 77
     1
 78
     8
170
     0
171
     2
172
     0
173
     0
174
     0
175
     0
176
   256
177
   256
178
     2
  0
DIMSTYLE
  2
AM_ISO$4
 70
     0
  3

  4
"
  5

  6

  7

 40
1.0
 41
3.5
 42
1.0
 43
10.0
 44
1.0
 45
0.0
 46
0.0
 47
0.1
 48
0.1
140
3.5
141
0.0
142
0.0
143
0.0393701
144
1.0
145
0.0
146
0.71
147
1.5
 71
     0
 72
     0
 73
     0
 74
     1
 75
     0
 76
     0
 77
     1
 78
     8
170
     0
171
     2
172
     0
173
     0
174
     0
175
     0
176
   256
177
   256
178
     2
  0
DIMSTYLE
  2
AM_ISO$6
 70
     0
  3

  4
"
  5

  6

  7

 40
1.0
 41
3.5
 42
1.0
 43
10.0
 44
1.0
 45
0.0
 46
0.0
 47
0.1
 48
0.1
140
3.5
141
0.0
142
0.0
143
0.0393701
144
1.0
145
0.0
146
0.71
147
1.5
 71
     0
 72
     0
 73
     0
 74
     0
 75
     0
 76
     0
 77
     0
 78
     8
170
     0
171
     2
172
     1
173
     0
174
     0
175
     0
176
   256
177
   256
178
     2
  0
DIMSTYLE
  2
AM_ISO$7
 70
     0
  3

  4
"
  5

  6

  7

 40
1.0
 41
3.5
 42
1.0
 43
10.0
 44
1.0
 45
0.0
 46
0.0
 47
0.1
 48
0.1
140
3.5
141
0.0
142
0.0
143
0.0393701
144
1.0
145
0.0
146
0.71
147
1.5
 71
     0
 72
     0
 73
     0
 74
     0
 75
     0
 76
     0
 77
     1
 78
     8
170
     0
171
     2
172
     1
173
     0
174
     0
175
     0
176
   256
177
   256
178
     2
  0
DIMSTYLE
  2
AM_ISO$SF
 70
     0
  3

  4
"
  5

  6

  7

 40
1.0
 41
3.5
 42
1.0
 43
10.0
 44
1.0
 45
0.0
 46
0.0
 47
0.1
 48
0.1
140
3.5
141
0.0
142
0.0
143
0.0393701
144
1.0
145
0.0
146
0.71
147
1.5
 71
     0
 72
     0
 73
     0
 74
     0
 75
     1
 76
     1
 77
     1
 78
     8
170
     0
171
     2
172
     1
173
     0
174
     0
175
     0
176
   256
177
   256
178
     2
  0
DIMSTYLE
  2
AM_ISO$SH
 70
     0
  3

  4
"
  5

  6
GENAXEH
  7

 40
1.0
 41
3.5
 42
1.0
 43
10.0
 44
1.0
 45
0.0
 46
0.0
 47
0.1
 48
0.1
140
3.5
141
0.0
142
0.0
143
0.0393701
144
2.0
145
0.0
146
0.71
147
1.5
 71
     0
 72
     0
 73
     0
 74
     0
 75
     1
 76
     1
 77
     1
 78
     8
170
     0
171
     2
172
     1
173
     1
174
     0
175
     0
176
   256
177
   256
178
     2
  0
DIMSTYLE
  2
AM_ISO$0
 70
     0
  3

  4
"
  5

  6

  7

 40
1.0
 41
3.5
 42
1.0
 43
10.0
 44
1.0
 45
0.0
 46
0.0
 47
0.1
 48
0.1
140
3.5
141
0.0
142
0.0
143
0.0393701
144
1.0
145
0.0
146
0.71
147
1.5
 71
     0
 72
     0
 73
     0
 74
     0
 75
     0
 76
     0
 77
     1
 78
     8
170
     0
171
     2
172
     1
173
     0
174
     0
175
     0
176
   256
177
   256
178
     2
  0
ENDTAB
  0
ENDSEC
  0
SECTION
  2
BLOCKS
  0
BLOCK
  8
0
  2
$MODEL_SPACE
 70
     0
 10
0.0
 20
0.0
 30
0.0
  3
$MODEL_SPACE
  1

  0
ENDBLK
  5
21
  8
0
  0
BLOCK
 67
     1
  8
0
  2
$PAPER_SPACE
 70
     0
 10
0.0
 20
0.0
 30
0.0
  3
$PAPER_SPACE
  1

  0
ENDBLK
  5
1D
 67
     1
  8
0
  0
BLOCK
  8
0
  2
TOP__1
 70
     0
 10
335.06667837900198
 20
20.656191092588799
 30
0.0
  3
TOP__1
  1

  0
LINE
  5
6D
  8
1
  6
CONTINUOUS
 62
     7
 10
148.90845546937931
 20
135.60264370421979
 30
0.0
 11
152.2084968619028
 21
135.60264370421979
 31
0.0
  0
LINE
  5
6E
  8
1
  6
CONTINUOUS
 62
     7
 10
157.2991053713551
 20
145.1664242527979
 30
0.0
 11
157.2991053713551
 21
144.72642425279801
 31
0.0
  0
LINE
  5
6F
  8
1
  6
CONTINUOUS
 62
     7
 10
156.3195256247439
 20
145.1664242527979
 30
0.0
 11
157.2991053713551
 21
145.1664242527979
 31
0.0
  0
LINE
  5
70
  8
1
  6
CONTINUOUS
 62
     7
 10
154.8999458781343
 20
145.1664242527979
 30
0.0
 11
155.87952562474379
 21
145.1664242527979
 31
0.0
  0
LINE
  5
71
  8
1
  6
CONTINUOUS
 62
     7
 10
154.8999458781343
 20
144.72642425279801
 30
0.0
 11
154.8999458781343
 21
145.1664242527979
 31
0.0
  0
LINE
  5
72
  8
1
  6
CONTINUOUS
 62
     7
 10
155.87952562474379
 20
144.72642425279801
 30
0.0
 11
154.8999458781343
 21
144.72642425279801
 31
0.0
  0
LINE
  5
73
  8
1
  6
CONTINUOUS
 62
     7
 10
155.87952562474379
 20
143.80770498976921
 30
0.0
 11
155.87952562474379
 21
144.72642425279801
 31
0.0
  0
LINE
  5
74
  8
1
  6
CONTINUOUS
 62
     7
 10
156.3195256247439
 20
143.80770498976921
 30
0.0
 11
155.87952562474379
 21
143.80770498976921
 31
0.0
  0
LINE
  5
75
  8
1
  6
CONTINUOUS
 62
     7
 10
156.3195256247439
 20
144.72642425279801
 30
0.0
 11
156.3195256247439
 21
143.80770498976921
 31
0.0
  0
LINE
  5
76
  8
1
  6
CONTINUOUS
 62
     7
 10
157.2991053713551
 20
144.72642425279801
 30
0.0
 11
156.3195256247439
 21
144.72642425279801
 31
0.0
  0
LINE
  5
77
  8
1
  6
CONTINUOUS
 62
     7
 10
156.3195256247439
 20
146.08514351582659
 30
0.0
 11
156.3195256247439
 21
145.1664242527979
 31
0.0
  0
LINE
  5
78
  8
1
  6
CONTINUOUS
 62
     7
 10
155.87952562474379
 20
146.08514351582659
 30
0.0
 11
156.3195256247439
 21
146.08514351582659
 31
0.0
  0
LINE
  5
79
  8
1
  6
CONTINUOUS
 62
     7
 10
155.87952562474379
 20
145.1664242527979
 30
0.0
 11
155.87952562474379
 21
146.08514351582659
 31
0.0
  0
LINE
  5
7A
  8
1
  6
CONTINUOUS
 62
     7
 10
157.2991053713551
 20
154.63035064308119
 30
0.0
 11
157.2991053713551
 21
154.1903506430813
 31
0.0
  0
LINE
  5
7B
  8
1
  6
CONTINUOUS
 62
     7
 10
156.3195256247439
 20
154.63035064308119
 30
0.0
 11
157.2991053713551
 21
154.63035064308119
 31
0.0
  0
LINE
  5
7C
  8
1
  6
CONTINUOUS
 62
     7
 10
154.8999458781343
 20
154.63035064308119
 30
0.0
 11
155.87952562474379
 21
154.63035064308119
 31
0.0
  0
LINE
  5
7D
  8
1
  6
CONTINUOUS
 62
     7
 10
154.8999458781343
 20
154.1903506430813
 30
0.0
 11
154.8999458781343
 21
154.63035064308119
 31
0.0
  0
LINE
  5
7E
  8
1
  6
CONTINUOUS
 62
     7
 10
155.87952562474379
 20
154.1903506430813
 30
0.0
 11
154.8999458781343
 21
154.1903506430813
 31
0.0
  0
LINE
  5
7F
  8
1
  6
CONTINUOUS
 62
     7
 10
155.87952562474379
 20
153.2716313800525
 30
0.0
 11
155.87952562474379
 21
154.1903506430813
 31
0.0
  0
LINE
  5
80
  8
1
  6
CONTINUOUS
 62
     7
 10
156.3195256247439
 20
153.2716313800525
 30
0.0
 11
155.87952562474379
 21
153.2716313800525
 31
0.0
  0
LINE
  5
81
  8
1
  6
CONTINUOUS
 62
     7
 10
156.3195256247439
 20
154.1903506430813
 30
0.0
 11
156.3195256247439
 21
153.2716313800525
 31
0.0
  0
LINE
  5
82
  8
1
  6
CONTINUOUS
 62
     7
 10
157.2991053713551
 20
154.1903506430813
 30
0.0
 11
156.3195256247439
 21
154.1903506430813
 31
0.0
  0
LINE
  5
83
  8
1
  6
CONTINUOUS
 62
     7
 10
156.3195256247439
 20
155.54906990610999
 30
0.0
 11
156.3195256247439
 21
154.63035064308119
 31
0.0
  0
LINE
  5
84
  8
1
  6
CONTINUOUS
 62
     7
 10
155.87952562474379
 20
155.54906990610999
 30
0.0
 11
156.3195256247439
 21
155.54906990610999
 31
0.0
  0
LINE
  5
85
  8
1
  6
CONTINUOUS
 62
     7
 10
155.87952562474379
 20
154.63035064308119
 30
0.0
 11
155.87952562474379
 21
155.54906990610999
 31
0.0
  0
LINE
  5
86
  8
1
  6
CONTINUOUS
 62
     7
 10
232.917261268386
 20
144.72642425279801
 30
0.0
 11
232.917261268386
 21
145.1664242527979
 31
0.0
  0
LINE
  5
87
  8
1
  6
CONTINUOUS
 62
     7
 10
232.917261268386
 20
145.1664242527979
 30
0.0
 11
233.89684101499719
 21
145.1664242527979
 31
0.0
  0
LINE
  5
88
  8
1
  6
CONTINUOUS
 62
     7
 10
234.3368410149973
 20
145.1664242527979
 30
0.0
 11
235.31642076160679
 21
145.1664242527979
 31
0.0
  0
LINE
  5
89
  8
1
  6
CONTINUOUS
 62
     7
 10
235.31642076160679
 20
145.1664242527979
 30
0.0
 11
235.31642076160679
 21
144.72642425279801
 31
0.0
  0
LINE
  5
8A
  8
1
  6
CONTINUOUS
 62
     7
 10
235.31642076160679
 20
144.72642425279801
 30
0.0
 11
234.3368410149973
 21
144.72642425279801
 31
0.0
  0
LINE
  5
8B
  8
1
  6
CONTINUOUS
 62
     7
 10
234.3368410149973
 20
144.72642425279801
 30
0.0
 11
234.3368410149973
 21
143.80770498976921
 31
0.0
  0
LINE
  5
8C
  8
1
  6
CONTINUOUS
 62
     7
 10
234.3368410149973
 20
143.80770498976921
 30
0.0
 11
233.89684101499719
 21
143.80770498976921
 31
0.0
  0
LINE
  5
8D
  8
1
  6
CONTINUOUS
 62
     7
 10
233.89684101499719
 20
143.80770498976921
 30
0.0
 11
233.89684101499719
 21
144.72642425279801
 31
0.0
  0
LINE
  5
8E
  8
1
  6
CONTINUOUS
 62
     7
 10
233.89684101499719
 20
144.72642425279801
 30
0.0
 11
232.917261268386
 21
144.72642425279801
 31
0.0
  0
LINE
  5
8F
  8
1
  6
CONTINUOUS
 62
     7
 10
233.89684101499719
 20
145.1664242527979
 30
0.0
 11
233.89684101499719
 21
146.08514351582659
 31
0.0
  0
LINE
  5
90
  8
1
  6
CONTINUOUS
 62
     7
 10
233.89684101499719
 20
146.08514351582659
 30
0.0
 11
234.3368410149973
 21
146.08514351582659
 31
0.0
  0
LINE
  5
91
  8
1
  6
CONTINUOUS
 62
     7
 10
234.3368410149973
 20
146.08514351582659
 30
0.0
 11
234.3368410149973
 21
145.1664242527979
 31
0.0
  0
LINE
  5
92
  8
1
  6
CONTINUOUS
 62
     7
 10
232.917261268386
 20
154.1903506430813
 30
0.0
 11
232.917261268386
 21
154.63035064308119
 31
0.0
  0
LINE
  5
93
  8
1
  6
CONTINUOUS
 62
     7
 10
232.917261268386
 20
154.63035064308119
 30
0.0
 11
233.89684101499719
 21
154.63035064308119
 31
0.0
  0
LINE
  5
94
  8
1
  6
CONTINUOUS
 62
     7
 10
234.3368410149973
 20
154.63035064308119
 30
0.0
 11
235.31642076160679
 21
154.63035064308119
 31
0.0
  0
LINE
  5
95
  8
1
  6
CONTINUOUS
 62
     7
 10
235.31642076160679
 20
154.63035064308119
 30
0.0
 11
235.31642076160679
 21
154.1903506430813
 31
0.0
  0
LINE
  5
96
  8
1
  6
CONTINUOUS
 62
     7
 10
235.31642076160679
 20
154.1903506430813
 30
0.0
 11
234.3368410149973
 21
154.1903506430813
 31
0.0
  0
LINE
  5
97
  8
1
  6
CONTINUOUS
 62
     7
 10
234.3368410149973
 20
154.1903506430813
 30
0.0
 11
234.3368410149973
 21
153.2716313800525
 31
0.0
  0
LINE
  5
98
  8
1
  6
CONTINUOUS
 62
     7
 10
234.3368410149973
 20
153.2716313800525
 30
0.0
 11
233.89684101499719
 21
153.2716313800525
 31
0.0
  0
LINE
  5
99
  8
1
  6
CONTINUOUS
 62
     7
 10
233.89684101499719
 20
153.2716313800525
 30
0.0
 11
233.89684101499719
 21
154.1903506430813
 31
0.0
  0
LINE
  5
9A
  8
1
  6
CONTINUOUS
 62
     7
 10
233.89684101499719
 20
154.1903506430813
 30
0.0
 11
232.917261268386
 21
154.1903506430813
 31
0.0
  0
LINE
  5
9B
  8
1
  6
CONTINUOUS
 62
     7
 10
233.89684101499719
 20
154.63035064308119
 30
0.0
 11
233.89684101499719
 21
155.54906990610999
 31
0.0
  0
LINE
  5
9C
  8
1
  6
CONTINUOUS
 62
     7
 10
233.89684101499719
 20
155.54906990610999
 30
0.0
 11
234.3368410149973
 21
155.54906990610999
 31
0.0
  0
LINE
  5
9D
  8
1
  6
CONTINUOUS
 62
     7
 10
234.3368410149973
 20
155.54906990610999
 30
0.0
 11
234.3368410149973
 21
154.63035064308119
 31
0.0
  0
LINE
  5
9E
  8
1
  6
CONTINUOUS
 62
     7
 10
232.9802317904408
 20
136.6314547677776
 30
0.0
 11
232.9802317904408
 21
136.9834547677776
 31
0.0
  0
LINE
  5
9F
  8
1
  6
CONTINUOUS
 62
     7
 10
232.9802317904408
 20
136.9834547677776
 30
0.0
 11
233.7638955877286
 21
136.9834547677776
 31
0.0
  0
LINE
  5
A0
  8
1
  6
CONTINUOUS
 62
     7
 10
234.1158955877288
 20
136.9834547677776
 30
0.0
 11
234.89955938501649
 21
136.9834547677776
 31
0.0
  0
LINE
  5
A1
  8
1
  6
CONTINUOUS
 62
     7
 10
234.89955938501649
 20
136.9834547677776
 30
0.0
 11
234.89955938501649
 21
136.6314547677776
 31
0.0
  0
LINE
  5
A2
  8
1
  6
CONTINUOUS
 62
     7
 10
234.89955938501649
 20
136.6314547677776
 30
0.0
 11
234.1158955877288
 21
136.6314547677776
 31
0.0
  0
LINE
  5
A3
  8
1
  6
CONTINUOUS
 62
     7
 10
234.1158955877288
 20
136.6314547677776
 30
0.0
 11
234.1158955877288
 21
135.8964793573557
 31
0.0
  0
LINE
  5
A4
  8
1
  6
CONTINUOUS
 62
     7
 10
234.1158955877288
 20
135.8964793573557
 30
0.0
 11
233.7638955877286
 21
135.8964793573557
 31
0.0
  0
LINE
  5
A5
  8
1
  6
CONTINUOUS
 62
     7
 10
233.7638955877286
 20
135.8964793573557
 30
0.0
 11
233.7638955877286
 21
136.6314547677776
 31
0.0
  0
LINE
  5
A6
  8
1
  6
CONTINUOUS
 62
     7
 10
233.7638955877286
 20
136.6314547677776
 30
0.0
 11
232.9802317904408
 21
136.6314547677776
 31
0.0
  0
LINE
  5
A7
  8
1
  6
CONTINUOUS
 62
     7
 10
233.7638955877286
 20
136.9834547677776
 30
0.0
 11
233.7638955877286
 21
137.71843017820191
 31
0.0
  0
LINE
  5
A8
  8
1
  6
CONTINUOUS
 62
     7
 10
233.7638955877286
 20
137.71843017820191
 30
0.0
 11
234.1158955877288
 21
137.71843017820191
 31
0.0
  0
LINE
  5
A9
  8
1
  6
CONTINUOUS
 62
     7
 10
234.1158955877288
 20
137.71843017820191
 30
0.0
 11
234.1158955877288
 21
136.9834547677776
 31
0.0
  0
LINE
  5
AA
  8
1
  6
CONTINUOUS
 62
     7
 10
214.02579238824629
 20
105.71364367207551
 30
0.0
 11
212.70579238824629
 21
105.71364367207551
 31
0.0
  0
LINE
  5
AB
  8
1
  6
CONTINUOUS
 62
     7
 10
214.02579238824629
 20
105.7136436720772
 30
0.0
 11
211.6057923882463
 21
105.7136436720772
 31
0.0
  0
LINE
  5
AC
  8
1
  6
CONTINUOUS
 62
     7
 10
228.3279323925855
 20
105.71364367207551
 30
0.0
 11
227.00793239258539
 21
105.71364367207551
 31
0.0
  0
LINE
  5
AD
  8
1
  6
CONTINUOUS
 62
     7
 10
228.3279323925855
 20
105.7136436720772
 30
0.0
 11
225.90793239258539
 21
105.7136436720772
 31
0.0
  0
LINE
  5
AE
  8
1
  6
CONTINUOUS
 62
     7
 10
195.77806384909189
 20
105.71364367207551
 30
0.0
 11
194.4580638490919
 21
105.71364367207551
 31
0.0
  0
LINE
  5
AF
  8
1
  6
CONTINUOUS
 62
     7
 10
196.87806384909189
 20
105.7136436720772
 30
0.0
 11
194.4580638490919
 21
105.7136436720772
 31
0.0
  0
LINE
  5
B0
  8
1
  6
CONTINUOUS
 62
     7
 10
177.5105742514946
 20
105.71364367207551
 30
0.0
 11
176.1905742514945
 21
105.71364367207551
 31
0.0
  0
LINE
  5
B1
  8
1
  6
CONTINUOUS
 62
     7
 10
178.6105742514946
 20
105.7136436720772
 30
0.0
 11
176.1905742514945
 21
105.7136436720772
 31
0.0
  0
LINE
  5
B2
  8
1
  6
CONTINUOUS
 62
     7
 10
163.2084342471554
 20
105.71364367207551
 30
0.0
 11
161.8884342471554
 21
105.71364367207551
 31
0.0
  0
LINE
  5
B3
  8
1
  6
CONTINUOUS
 62
     7
 10
163.2093473611742
 20
105.4495340983943
 30
0.0
 11
161.2725438208364
 21
105.4495340983952
 31
0.0
  0
LINE
  5
B4
  8
1
  6
CONTINUOUS
 62
     7
 10
161.2725438208364
 20
105.4495340983952
 30
0.0
 11
163.2093473611742
 21
105.4495340983943
 31
0.0
  0
LINE
  5
B5
  8
1
  6
CONTINUOUS
 62
     7
 10
163.2093473611742
 20
105.4495340983943
 30
0.0
 11
161.2725438208364
 21
105.4495340983952
 31
0.0
  0
LINE
  5
B6
  8
1
  6
CONTINUOUS
 62
     7
 10
285.1739336552609
 20
132.08246534459471
 30
0.0
 11
286.49393365526112
 21
132.0824653445946
 31
0.0
  0
LINE
  5
B7
  8
1
  6
CONTINUOUS
 62
     7
 10
275.49289760290247
 20
132.0824653445946
 30
0.0
 11
276.81289760290258
 21
132.0824653445946
 31
0.0
  0
LINE
  5
B8
  8
1
  6
CONTINUOUS
 62
     7
 10
286.49393365526112
 20
167.2831276249882
 30
0.0
 11
285.17393365526112
 21
167.2831276249882
 31
0.0
  0
LINE
  5
B9
  8
1
  6
CONTINUOUS
 62
     7
 10
276.81289760290258
 20
167.2831276249882
 30
0.0
 11
275.49289760290247
 21
167.2831276249882
 31
0.0
  0
LINE
  5
BA
  8
1
  6
CONTINUOUS
 62
     7
 10
163.2084342471554
 20
167.2831276249882
 30
0.0
 11
161.8884342471554
 21
167.2831276249882
 31
0.0
  0
LINE
  5
BB
  8
1
  6
CONTINUOUS
 62
     7
 10
228.32793239258569
 20
167.2831276249882
 30
0.0
 11
227.0079323925857
 21
167.2831276249882
 31
0.0
  0
LINE
  5
BC
  8
1
  6
CONTINUOUS
 62
     7
 10
227.22701927856821
 20
167.01901805130689
 30
0.0
 11
221.5191406881026
 21
167.01901805130689
 31
0.0
  0
LINE
  5
BD
  8
1
  6
CONTINUOUS
 62
     7
 10
161.8884342471554
 20
132.08246534459471
 30
0.0
 11
163.2084342471554
 21
132.08246534459471
 31
0.0
  0
LINE
  5
BE
  8
1
  6
CONTINUOUS
 62
     7
 10
227.0079323925857
 20
132.08246534459471
 30
0.0
 11
228.32793239258569
 21
132.08246534459471
 31
0.0
  0
LINE
  5
BF
  8
1
  6
CONTINUOUS
 62
     7
 10
180.80843424715539
 20
105.7136436720772
 30
0.0
 11
178.6084342471554
 21
105.7136436720772
 31
0.0
  0
LINE
  5
C0
  8
1
  6
CONTINUOUS
 62
     7
 10
164.30843424715539
 20
105.7136436720772
 30
0.0
 11
161.8884342471554
 21
105.7136436720772
 31
0.0
  0
LINE
  5
C1
  8
1
  6
CONTINUOUS
 62
     7
 10
196.2081833198705
 20
105.7136436720772
 30
0.0
 11
194.00818331987051
 21
105.7136436720772
 31
0.0
  0
LINE
  5
C2
  8
1
  6
CONTINUOUS
 62
     7
 10
211.6079323925857
 20
105.7136436720772
 30
0.0
 11
209.40793239258571
 21
105.7136436720772
 31
0.0
  0
LINE
  5
C3
  8
1
  6
CONTINUOUS
 62
     7
 10
229.20793239258569
 20
105.7136436720772
 30
0.0
 11
195.10818331987039
 21
105.7136436720772
 31
0.0
  0
LINE
  5
C4
  8
1
  6
CONTINUOUS
 62
     7
 10
163.2093473611742
 20
132.3465749182765
 30
0.0
 11
168.6972259516395
 21
132.3465749182765
 31
0.0
  0
LINE
  5
C5
  8
1
  6
CONTINUOUS
 62
     7
 10
168.6972259516395
 20
132.3465749182765
 30
0.0
 11
170.89813906565851
 21
132.3465749182765
 31
0.0
  0
LINE
  5
C6
  8
1
  6
CONTINUOUS
 62
     7
 10
168.6972259516395
 20
132.3465749182765
 30
0.0
 11
170.89813906565851
 21
132.3465749182765
 31
0.0
  0
LINE
  5
C7
  8
1
  6
CONTINUOUS
 62
     7
 10
170.89813906565851
 20
167.01901805130689
 30
0.0
 11
168.6972259516395
 21
167.01901805130689
 31
0.0
  0
LINE
  5
C8
  8
1
  6
CONTINUOUS
 62
     7
 10
168.6972259516395
 20
167.01901805130689
 30
0.0
 11
162.9893473611742
 21
167.01901805130689
 31
0.0
  0
LINE
  5
C9
  8
1
  6
CONTINUOUS
 62
     7
 10
168.6972259516395
 20
167.01901805130689
 30
0.0
 11
170.89813906565851
 21
167.01901805130689
 31
0.0
  0
LINE
  5
CA
  8
1
  6
CONTINUOUS
 62
     7
 10
170.89813906565851
 20
132.3465749182765
 30
0.0
 11
168.6972259516395
 21
132.3465749182765
 31
0.0
  0
LINE
  5
CB
  8
1
  6
CONTINUOUS
 62
     7
 10
170.89813906565851
 20
167.01901805130689
 30
0.0
 11
168.6972259516395
 21
167.01901805130689
 31
0.0
  0
LINE
  5
CC
  8
1
  6
CONTINUOUS
 62
     7
 10
241.30791117036199
 20
139.9852072329337
 30
0.0
 11
241.30791117036199
 21
161.5902814734728
 31
0.0
  0
LINE
  5
CD
  8
1
  6
CONTINUOUS
 62
     7
 10
148.90845546937931
 20
139.9852072329337
 30
0.0
 11
148.90845546937931
 21
137.80373944104431
 31
0.0
  0
LINE
  5
CE
  8
1
  6
CONTINUOUS
 62
     7
 10
148.90845546937931
 20
161.34185352853919
 30
0.0
 11
148.90845546937931
 21
139.9852072329337
 31
0.0
  0
LINE
  5
CF
  8
1
  6
CONTINUOUS
 62
     7
 10
278.21636950914041
 20
137.6878200133865
 30
0.0
 11
278.72156504529698
 21
137.6878200133865
 31
0.0
  0
LINE
  5
D0
  8
1
  6
CONTINUOUS
 62
     3
 10
278.21636950914041
 20
137.46772870198461
 30
0.0
 11
278.9416563566993
 21
137.46772870198461
 31
0.0
  0
LINE
  5
D1
  8
1
  6
CONTINUOUS
 62
     3
 10
278.21636950914041
 20
136.14718083357261
 30
0.0
 11
278.9416563566993
 21
136.14718083357261
 31
0.0
  0
LINE
  5
D2
  8
1
  6
CONTINUOUS
 62
     7
 10
276.53224771408372
 20
135.93996530404411
 30
0.0
 11
278.03332615472948
 21
135.93996530404411
 31
0.0
  0
LINE
  5
D3
  8
1
  6
CONTINUOUS
 62
     7
 10
276.53224771408372
 20
137.4332137216461
 30
0.0
 11
278.02369229396908
 21
137.4332137216461
 31
0.0
  0
LINE
  5
D4
  8
1
  6
CONTINUOUS
 62
     7
 10
278.21636950914041
 20
135.560386456858
 30
0.0
 11
278.03332615472948
 21
135.93996530404411
 31
0.0
  0
LINE
  5
D5
  8
1
  6
CONTINUOUS
 62
     7
 10
278.03332615472948
 20
135.93996530404411
 30
0.0
 11
278.21636950914041
 21
136.85518207612239
 31
0.0
  0
LINE
  5
D6
  8
1
  6
CONTINUOUS
 62
     7
 10
278.21636950914041
 20
135.83019777762581
 30
0.0
 11
278.21636950914041
 21
136.85518207612239
 31
0.0
  0
LINE
  5
D7
  8
1
  6
CONTINUOUS
 62
     7
 10
278.21636950914041
 20
136.85518207612239
 30
0.0
 11
278.02369229396908
 21
137.4332137216461
 31
0.0
  0
LINE
  5
D8
  8
1
  6
CONTINUOUS
 62
     7
 10
278.02369229396908
 20
137.4332137216461
 30
0.0
 11
278.21636950914041
 21
138.05452307869709
 31
0.0
  0
LINE
  5
D9
  8
1
  6
CONTINUOUS
 62
     7
 10
277.54184120722101
 20
135.15566947570639
 30
0.0
 11
277.81165252798837
 21
135.15566947570639
 31
0.0
  0
LINE
  5
DA
  8
1
  6
CONTINUOUS
 62
     7
 10
278.21636950914041
 20
135.560386456858
 30
0.0
 11
278.21636950914041
 21
135.83019777762581
 31
0.0
  0
LINE
  5
DB
  8
1
  6
CONTINUOUS
 62
     7
 10
278.21636950914041
 20
137.7847117579297
 30
0.0
 11
278.21636950914041
 21
138.05452307869709
 31
0.0
  0
LINE
  5
DC
  8
1
  6
CONTINUOUS
 62
     7
 10
277.81165252798837
 20
138.4592400598489
 30
0.0
 11
277.54184120722101
 21
138.4592400598489
 31
0.0
  0
LINE
  5
DD
  8
1
  6
CONTINUOUS
 62
     7
 10
278.21636950914041
 20
136.85518207612239
 30
0.0
 11
278.21636950914041
 21
137.7847117579297
 31
0.0
  0
LINE
  5
DE
  8
1
  6
CONTINUOUS
 62
     7
 10
277.54184120722101
 20
138.4592400598489
 30
0.0
 11
276.52644982268077
 21
138.4592400598489
 31
0.0
  0
LINE
  5
DF
  8
1
  6
CONTINUOUS
 62
     7
 10
276.52644982268077
 20
138.4592400598489
 30
0.0
 11
276.52644982268077
 21
135.15566947570639
 31
0.0
  0
LINE
  5
E0
  8
1
  6
CONTINUOUS
 62
     7
 10
276.52644982268077
 20
135.15566947570639
 30
0.0
 11
277.54184120722101
 21
135.15566947570639
 31
0.0
  0
LINE
  5
E1
  8
1
  6
CONTINUOUS
 62
     7
 10
276.54975806386437
 20
138.4592400598489
 30
0.0
 11
276.52644982268077
 21
138.4592400598489
 31
0.0
  0
LINE
  5
E2
  8
1
  6
CONTINUOUS
 62
     7
 10
276.52644982268077
 20
138.4592400598489
 30
0.0
 11
276.52644982268077
 21
135.15566947570639
 31
0.0
  0
LINE
  5
E3
  8
1
  6
CONTINUOUS
 62
     7
 10
276.52644982268077
 20
135.15566947570639
 30
0.0
 11
276.54975806386437
 21
135.15566947570639
 31
0.0
  0
LINE
  5
E4
  8
1
  6
CONTINUOUS
 62
     7
 10
276.52644982268077
 20
138.4592400598489
 30
0.0
 11
276.52644982268077
 21
137.3990989549458
 31
0.0
  0
LINE
  5
E5
  8
1
  6
CONTINUOUS
 62
     7
 10
276.52644982268077
 20
135.15669769913131
 30
0.0
 11
276.52644982268077
 21
136.9270144800376
 31
0.0
  0
LINE
  5
E6
  8
1
  6
CONTINUOUS
 62
     7
 10
276.52644982268077
 20
135.15669769913131
 30
0.0
 11
276.52644982268077
 21
135.15566947570639
 31
0.0
  0
LINE
  5
E7
  8
1
  6
CONTINUOUS
 62
     7
 10
276.52644982268077
 20
137.3990989549458
 30
0.0
 11
276.52644982268077
 21
136.9270144800376
 31
0.0
  0
LINE
  5
E8
  8
1
  6
CONTINUOUS
 62
     7
 10
276.52644982268077
 20
137.3990989549458
 30
0.0
 11
276.52644982268077
 21
138.4592400598489
 31
0.0
  0
LINE
  5
E9
  8
1
  6
CONTINUOUS
 62
     7
 10
276.52644982268077
 20
136.9270144800376
 30
0.0
 11
276.52644982268077
 21
137.3990989549458
 31
0.0
  0
LINE
  5
EA
  8
1
  6
CONTINUOUS
 62
     7
 10
276.52644982268077
 20
136.9270144800376
 30
0.0
 11
276.52644982268077
 21
135.15669769913131
 31
0.0
  0
LINE
  5
EB
  8
1
  6
CONTINUOUS
 62
     2
 10
275.42019537426768
 20
135.93996530404411
 30
0.0
 11
275.42019537426768
 21
137.4332137216461
 31
0.0
  0
LINE
  5
EC
  8
1
  6
CONTINUOUS
 62
     7
 10
273.91911693362192
 20
135.93996530404411
 30
0.0
 11
275.42019537426768
 21
135.93996530404411
 31
0.0
  0
LINE
  5
ED
  8
1
  6
CONTINUOUS
 62
     2
 10
275.42019537426768
 20
137.4332137216461
 30
0.0
 11
275.42019537426768
 21
141.5809926526363
 31
0.0
  0
LINE
  5
EE
  8
1
  6
CONTINUOUS
 62
     7
 10
273.92875079438181
 20
137.4332137216461
 30
0.0
 11
275.42019537426768
 21
137.4332137216461
 31
0.0
  0
LINE
  5
EF
  8
1
  6
CONTINUOUS
 62
     7
 10
273.91911693362192
 20
135.93996530404411
 30
0.0
 11
273.73607357921099
 21
135.560386456858
 31
0.0
  0
LINE
  5
F0
  8
1
  6
CONTINUOUS
 62
     7
 10
273.73607357921099
 20
136.85518207612239
 30
0.0
 11
273.91911693362192
 21
135.93996530404411
 31
0.0
  0
LINE
  5
F1
  8
1
  6
CONTINUOUS
 62
     7
 10
273.73607357921099
 20
136.85518207612239
 30
0.0
 11
273.73607357921099
 21
135.83019777762581
 31
0.0
  0
LINE
  5
F2
  8
1
  6
CONTINUOUS
 62
     7
 10
273.92875079438181
 20
137.4332137216461
 30
0.0
 11
273.73607357921099
 21
136.85518207612239
 31
0.0
  0
LINE
  5
F3
  8
1
  6
CONTINUOUS
 62
     7
 10
273.73607357921099
 20
138.05452307869709
 30
0.0
 11
273.92875079438181
 21
137.4332137216461
 31
0.0
  0
LINE
  5
F4
  8
1
  6
CONTINUOUS
 62
     7
 10
274.1407905603624
 20
135.15566947570639
 30
0.0
 11
274.41060188113011
 21
135.15566947570639
 31
0.0
  0
LINE
  5
F5
  8
1
  6
CONTINUOUS
 62
     7
 10
273.73607357921099
 20
135.83019777762581
 30
0.0
 11
273.73607357921099
 21
135.560386456858
 31
0.0
  0
LINE
  5
F6
  8
1
  6
CONTINUOUS
 62
     7
 10
273.73607357921099
 20
138.05452307869709
 30
0.0
 11
273.73607357921099
 21
137.7847117579297
 31
0.0
  0
LINE
  5
F7
  8
1
  6
CONTINUOUS
 62
     7
 10
274.41060188113011
 20
138.4592400598489
 30
0.0
 11
274.1407905603624
 21
138.4592400598489
 31
0.0
  0
LINE
  5
F8
  8
1
  6
CONTINUOUS
 62
     7
 10
273.73607357921099
 20
137.7847117579297
 30
0.0
 11
273.73607357921099
 21
136.85518207612239
 31
0.0
  0
LINE
  5
F9
  8
1
  6
CONTINUOUS
 62
     7
 10
275.4259932656704
 20
138.4592400598489
 30
0.0
 11
274.41060188113011
 21
138.4592400598489
 31
0.0
  0
LINE
  5
FA
  8
1
  6
CONTINUOUS
 62
     7
 10
275.4259932656704
 20
135.15566947570639
 30
0.0
 11
275.4259932656704
 21
138.4592400598489
 31
0.0
  0
LINE
  5
FB
  8
1
  6
CONTINUOUS
 62
     7
 10
274.41060188113011
 20
135.15566947570639
 30
0.0
 11
275.4259932656704
 21
135.15566947570639
 31
0.0
  0
LINE
  5
FC
  8
1
  6
CONTINUOUS
 62
     7
 10
235.47651052113989
 20
136.80745476777761
 30
0.0
 11
235.47651052113989
 21
135.96501883790049
 31
0.0
  0
LINE
  5
FD
  8
1
  6
CONTINUOUS
 62
     7
 10
235.47651052113989
 20
135.96501883790049
 30
0.0
 11
233.9398955877287
 21
134.99955602780381
 31
0.0
  0
LINE
  5
FE
  8
1
  6
CONTINUOUS
 62
     7
 10
233.9398955877287
 20
134.99955602780381
 30
0.0
 11
232.40328065431569
 21
135.9430765013081
 31
0.0
  0
LINE
  5
FF
  8
1
  6
CONTINUOUS
 62
     7
 10
233.9398955877287
 20
134.99955602780381
 30
0.0
 11
232.40328065431569
 21
135.9430765013081
 31
0.0
  0
LINE
  5
100
  8
1
  6
CONTINUOUS
 62
     7
 10
232.40328065431569
 20
136.80745476777761
 30
0.0
 11
232.40328065431569
 21
135.9430765013081
 31
0.0
  0
LINE
  5
101
  8
1
  6
CONTINUOUS
 62
     7
 10
232.40328065431569
 20
137.67183303424719
 30
0.0
 11
232.40328065431569
 21
136.80745476777761
 31
0.0
  0
LINE
  5
102
  8
1
  6
CONTINUOUS
 62
     7
 10
235.47651052113989
 20
137.6498906976548
 30
0.0
 11
235.47651052113989
 21
136.80745476777761
 31
0.0
  0
LINE
  5
103
  8
1
  6
CONTINUOUS
 62
     7
 10
233.9398955877287
 20
138.61535350775171
 30
0.0
 11
235.47651052113989
 21
137.6498906976548
 31
0.0
  0
LINE
  5
104
  8
1
  6
CONTINUOUS
 62
     7
 10
232.40328065431569
 20
137.67183303424719
 30
0.0
 11
233.9398955877287
 21
138.61535350775171
 31
0.0
  0
LINE
  5
105
  8
1
  6
CONTINUOUS
 62
     7
 10
275.42019537426768
 20
141.5809926526363
 30
0.0
 11
275.42019537426768
 21
148.91247689488461
 31
0.0
  0
LINE
  5
106
  8
1
  6
CONTINUOUS
 62
     2
 10
275.42019537426768
 20
134.67856581289149
 30
0.0
 11
275.42019537426768
 21
135.93996530404411
 31
0.0
  0
LINE
  5
107
  8
1
  6
CONTINUOUS
 62
     7
 10
275.4259932656704
 20
138.4592400598489
 30
0.0
 11
275.40268502448828
 21
138.4592400598489
 31
0.0
  0
LINE
  5
108
  8
1
  6
CONTINUOUS
 62
     7
 10
275.4259932656704
 20
135.15566947570639
 30
0.0
 11
275.4259932656704
 21
138.4592400598489
 31
0.0
  0
LINE
  5
109
  8
1
  6
CONTINUOUS
 62
     7
 10
275.40268502448828
 20
135.15566947570639
 30
0.0
 11
275.4259932656704
 21
135.15566947570639
 31
0.0
  0
LINE
  5
10A
  8
1
  6
DASHED
 62
     2
 10
232.28811029565691
 20
97.578063864536489
 30
0.0
 11
232.28811029565691
 21
96.954009478281094
 31
0.0
  0
LINE
  5
10B
  8
1
  6
DASHED
 62
     2
 10
233.1140029416926
 20
96.954009478281094
 30
0.0
 11
233.1140029416926
 21
96.205699019514299
 31
0.0
  0
LINE
  5
10C
  8
1
  6
DASHED
 62
     2
 10
234.76578823376471
 20
96.954009478281094
 30
0.0
 11
234.76578823376471
 21
96.205699019514299
 31
0.0
  0
LINE
  5
10D
  8
1
  6
DASHED
 62
     2
 10
235.591680879801
 20
96.954009478281094
 30
0.0
 11
235.591680879801
 21
96.205699019514299
 31
0.0
  0
LINE
  5
10E
  8
1
  6
DASHED
 62
     2
 10
232.28811029565691
 20
96.954009478281094
 30
0.0
 11
232.28811029565691
 21
96.205699019514299
 31
0.0
  0
LINE
  5
10F
  8
1
  6
DASHED
 62
     2
 10
235.17873455678139
 20
97.7023199370458
 30
0.0
 11
232.7010566186745
 21
97.7023199370458
 31
0.0
  0
LINE
  5
110
  8
1
  6
DASHED
 62
     2
 10
233.1140029416926
 20
97.578063864536489
 30
0.0
 11
233.1140029416926
 21
96.954009478281094
 31
0.0
  0
LINE
  5
111
  8
1
  6
DASHED
 62
     2
 10
234.76578823376471
 20
97.578063864536489
 30
0.0
 11
234.76578823376471
 21
96.954009478281094
 31
0.0
  0
LINE
  5
112
  8
1
  6
DASHED
 62
     2
 10
235.591680879801
 20
97.578063864536489
 30
0.0
 11
235.591680879801
 21
96.954009478281094
 31
0.0
  0
LINE
  5
113
  8
1
  6
DASHED
 62
     2
 10
232.28811029565691
 20
97.578063864536489
 30
0.0
 11
232.28811029565691
 21
96.954009478281094
 31
0.0
  0
LINE
  5
114
  8
1
  6
DASHED
 62
     2
 10
234.53153977489669
 20
96.205699019514299
 30
0.0
 11
235.591680879801
 21
96.205699019514299
 31
0.0
  0
LINE
  5
115
  8
1
  6
DASHED
 62
     2
 10
235.591680879801
 20
95.875562052411183
 30
0.0
 11
235.591680879801
 21
96.205699019514299
 31
0.0
  0
LINE
  5
116
  8
1
  6
DASHED
 62
     2
 10
234.03416506026099
 20
95.875562052411183
 30
0.0
 11
235.591680879801
 21
95.875562052411183
 31
0.0
  0
LINE
  5
117
  8
1
  6
DASHED
 62
     2
 10
232.28913851908209
 20
96.205699019514299
 30
0.0
 11
232.28913851908209
 21
95.875562052411183
 31
0.0
  0
LINE
  5
118
  8
1
  6
DASHED
 62
     2
 10
234.05945529998741
 20
96.205699019514299
 30
0.0
 11
232.28913851908209
 21
96.205699019514299
 31
0.0
  0
LINE
  5
119
  8
1
  6
DASHED
 62
     2
 10
232.28811029565691
 20
96.205699019514299
 30
0.0
 11
232.28913851908209
 21
96.205699019514299
 31
0.0
  0
LINE
  5
11A
  8
1
  6
DASHED
 62
     2
 10
234.03416506026099
 20
95.875562052411183
 30
0.0
 11
234.53153977489669
 21
96.205699019514299
 31
0.0
  0
LINE
  5
11B
  8
1
  6
DASHED
 62
     2
 10
234.05945529998741
 20
96.205699019514299
 30
0.0
 11
234.53153977489669
 21
96.205699019514299
 31
0.0
  0
LINE
  5
11C
  8
1
  6
DASHED
 62
     2
 10
233.72225210362521
 20
95.875562052411183
 30
0.0
 11
234.03416506026099
 21
95.875562052411183
 31
0.0
  0
LINE
  5
11D
  8
1
  6
DASHED
 62
     2
 10
235.591680879801
 20
96.205699019514299
 30
0.0
 11
234.53153977489669
 21
96.205699019514299
 31
0.0
  0
LINE
  5
11E
  8
1
  6
DASHED
 62
     2
 10
233.72225210362521
 20
95.875562052411183
 30
0.0
 11
234.05945529998741
 21
96.205699019514299
 31
0.0
  0
LINE
  5
11F
  8
1
  6
DASHED
 62
     2
 10
234.53153977489669
 20
96.205699019514299
 30
0.0
 11
234.05945529998741
 21
96.205699019514299
 31
0.0
  0
LINE
  5
120
  8
1
  6
DASHED
 62
     2
 10
232.28913851908209
 20
96.205699019514299
 30
0.0
 11
234.05945529998741
 21
96.205699019514299
 31
0.0
  0
LINE
  5
121
  8
1
  6
DASHED
 62
     2
 10
232.28913851908209
 20
95.875562052411183
 30
0.0
 11
233.72225210362521
 21
95.875562052411183
 31
0.0
  0
LINE
  5
122
  8
1
  6
DASHED
 62
     2
 10
236.03186350260361
 20
95.545425085308494
 30
0.0
 11
236.03186350260361
 21
95.875562052411183
 31
0.0
  0
LINE
  5
123
  8
1
  6
DASHED
 62
     2
 10
231.8489558962778
 20
95.545425085308494
 30
0.0
 11
236.03186350260361
 21
95.545425085308494
 31
0.0
  0
LINE
  5
124
  8
1
  6
DASHED
 62
     2
 10
231.8489558962778
 20
95.875562052411183
 30
0.0
 11
231.8489558962778
 21
95.545425085308494
 31
0.0
  0
LINE
  5
125
  8
1
  6
DASHED
 62
     2
 10
236.03186350260361
 20
95.875562052411183
 30
0.0
 11
231.8489558962778
 21
95.875562052411183
 31
0.0
  0
LINE
  5
126
  8
1
  6
DASHED
 62
     2
 10
236.03186350260361
 20
95.545425085308494
 30
0.0
 11
231.8489558962778
 21
95.545425085308494
 31
0.0
  0
LINE
  5
127
  8
1
  6
DASHED
 62
     2
 10
234.8207749450481
 20
92.067982365157761
 30
0.0
 11
234.8207749450481
 21
93.608621544971115
 31
0.0
  0
LINE
  5
128
  8
1
  6
DASHED
 62
     2
 10
233.28013576523529
 20
91.847891053756044
 30
0.0
 11
234.6006836336461
 21
91.847891053756044
 31
0.0
  0
LINE
  5
129
  8
1
  6
DASHED
 62
     2
 10
233.06004445383331
 20
93.608621544971115
 30
0.0
 11
233.06004445383331
 21
92.067982365157761
 31
0.0
  0
LINE
  5
12A
  8
1
  6
DASHED
 62
     2
 10
234.6006836336461
 20
91.847891053756044
 30
0.0
 11
234.6006836336461
 21
93.608621544971115
 31
0.0
  0
LINE
  5
12B
  8
1
  6
DASHED
 62
     2
 10
233.28013576523529
 20
93.608621544971115
 30
0.0
 11
233.28013576523529
 21
91.847891053756044
 31
0.0
  0
LINE
  5
12C
  8
1
  6
DASHED
 62
     2
 10
233.06004445383331
 20
92.067982365157761
 30
0.0
 11
234.8207749450481
 21
92.067982365157761
 31
0.0
  0
LINE
  5
12D
  8
1
  6
DASHED
 62
     2
 10
234.8207749450481
 20
92.067982365157761
 30
0.0
 11
234.6006836336461
 21
91.847891053756044
 31
0.0
  0
LINE
  5
12E
  8
1
  6
DASHED
 62
     2
 10
233.28013576523529
 20
91.847891053756044
 30
0.0
 11
233.06004445383331
 21
92.067982365157761
 31
0.0
  0
LINE
  5
12F
  8
1
  6
DASHED
 62
     2
 10
234.76578823376471
 20
94.356932003736546
 30
0.0
 11
234.76578823376471
 21
95.105242462504407
 31
0.0
  0
LINE
  5
130
  8
1
  6
DASHED
 62
     2
 10
233.1140029416926
 20
94.356932003736546
 30
0.0
 11
233.1140029416926
 21
95.105242462504407
 31
0.0
  0
LINE
  5
131
  8
1
  6
DASHED
 62
     2
 10
232.28811029565691
 20
94.356932003736546
 30
0.0
 11
232.28811029565691
 21
95.105242462504407
 31
0.0
  0
LINE
  5
132
  8
1
  6
DASHED
 62
     2
 10
235.591680879801
 20
94.356932003736546
 30
0.0
 11
235.591680879801
 21
95.105242462504407
 31
0.0
  0
LINE
  5
133
  8
1
  6
DASHED
 62
     2
 10
232.7010566186745
 20
93.608621544971115
 30
0.0
 11
235.17873455678139
 21
93.608621544971115
 31
0.0
  0
LINE
  5
134
  8
1
  6
DASHED
 62
     2
 10
234.76578823376471
 20
93.732877617482146
 30
0.0
 11
234.76578823376471
 21
94.356932003736546
 31
0.0
  0
LINE
  5
135
  8
1
  6
DASHED
 62
     2
 10
233.1140029416926
 20
93.732877617482146
 30
0.0
 11
233.1140029416926
 21
94.356932003736546
 31
0.0
  0
LINE
  5
136
  8
1
  6
DASHED
 62
     2
 10
232.28811029565691
 20
93.732877617482146
 30
0.0
 11
232.28811029565691
 21
94.356932003736546
 31
0.0
  0
LINE
  5
137
  8
1
  6
DASHED
 62
     2
 10
235.591680879801
 20
93.732877617482146
 30
0.0
 11
235.591680879801
 21
94.356932003736546
 31
0.0
  0
LINE
  5
138
  8
1
  6
DASHED
 62
     2
 10
229.6481150153914
 20
88.942685743250536
 30
0.0
 11
229.20793239258569
 21
88.942685743250536
 31
0.0
  0
LINE
  5
139
  8
1
  6
DASHED
 62
     2
 10
229.6481150153914
 20
95.105242462504407
 30
0.0
 11
229.6481150153914
 21
88.942685743250536
 31
0.0
  0
LINE
  5
13A
  8
1
  6
DASHED
 62
     2
 10
236.91112829165519
 20
95.105242462504407
 30
0.0
 11
229.6481150153914
 21
95.105242462504407
 31
0.0
  0
LINE
  5
13B
  8
1
  6
DASHED
 62
     2
 10
236.91112829165519
 20
95.545425085308494
 30
0.0
 11
236.91112829165519
 21
95.105242462504407
 31
0.0
  0
LINE
  5
13C
  8
1
  6
DASHED
 62
     2
 10
229.20793239258569
 20
95.545425085308494
 30
0.0
 11
236.91112829165519
 21
95.545425085308494
 31
0.0
  0
LINE
  5
13D
  8
1
  6
DASHED
 62
     2
 10
229.20793239258569
 20
88.942685743250536
 30
0.0
 11
229.20793239258569
 21
95.545425085308494
 31
0.0
  0
LINE
  5
13E
  8
1
  6
DASHED
 62
     2
 10
236.81208720152401
 20
91.913918447176727
 30
0.0
 11
236.92213285722369
 21
91.913918447176727
 31
0.0
  0
LINE
  5
13F
  8
1
  6
DASHED
 62
     2
 10
236.59199589012201
 20
92.244055414279174
 30
0.0
 11
236.59199589012201
 21
92.13400975857823
 31
0.0
  0
LINE
  5
140
  8
1
  6
DASHED
 62
     2
 10
236.37190457871969
 20
92.244055414279174
 30
0.0
 11
236.59199589012201
 21
92.244055414279174
 31
0.0
  0
LINE
  5
141
  8
1
  6
DASHED
 62
     2
 10
236.37190457871969
 20
92.13400975857823
 30
0.0
 11
236.37190457871969
 21
92.244055414279174
 31
0.0
  0
LINE
  5
142
  8
1
  6
DASHED
 62
     2
 10
236.04176761161659
 20
91.913918447176727
 30
0.0
 11
236.15181326731781
 21
91.913918447176727
 31
0.0
  0
LINE
  5
143
  8
1
  6
DASHED
 62
     2
 10
236.04176761161659
 20
91.693827135774754
 30
0.0
 11
236.04176761161659
 21
91.913918447176727
 31
0.0
  0
LINE
  5
144
  8
1
  6
DASHED
 62
     2
 10
236.15181326731781
 20
91.693827135774754
 30
0.0
 11
236.04176761161659
 21
91.693827135774754
 31
0.0
  0
LINE
  5
145
  8
1
  6
DASHED
 62
     2
 10
236.37190457871969
 20
91.363690168671823
 30
0.0
 11
236.37190457871969
 21
91.473735824373051
 31
0.0
  0
LINE
  5
146
  8
1
  6
DASHED
 62
     2
 10
236.59199589012201
 20
91.363690168671823
 30
0.0
 11
236.37190457871969
 21
91.363690168671823
 31
0.0
  0
LINE
  5
147
  8
1
  6
DASHED
 62
     2
 10
236.59199589012201
 20
91.473735824373051
 30
0.0
 11
236.59199589012201
 21
91.363690168671823
 31
0.0
  0
LINE
  5
148
  8
1
  6
DASHED
 62
     2
 10
236.92213285722369
 20
91.693827135774754
 30
0.0
 11
236.81208720152401
 21
91.693827135774754
 31
0.0
  0
LINE
  5
149
  8
1
  6
DASHED
 62
     2
 10
236.92213285722369
 20
91.913918447176727
 30
0.0
 11
236.92213285722369
 21
91.693827135774754
 31
0.0
  0
LINE
  5
14A
  8
1
  6
CONTINUOUS
 62
     7
 10
230.03327481034381
 20
137.08256890703029
 30
0.0
 11
230.03327481034381
 21
136.62037715308659
 31
0.0
  0
LINE
  5
14B
  8
1
  6
CONTINUOUS
 62
     7
 10
229.7031378432404
 20
137.08256890703029
 30
0.0
 11
230.03327481034381
 21
137.08256890703029
 31
0.0
  0
LINE
  5
14C
  8
1
  6
CONTINUOUS
 62
     7
 10
229.7031378432404
 20
137.4127058741341
 30
0.0
 11
229.7031378432404
 21
137.08256890703029
 31
0.0
  0
LINE
  5
14D
  8
1
  6
CONTINUOUS
 62
     7
 10
230.03327481034381
 20
137.4127058741341
 30
0.0
 11
229.7031378432404
 21
137.4127058741341
 31
0.0
  0
LINE
  5
14E
  8
1
  6
CONTINUOUS
 62
     7
 10
229.20793239258569
 20
137.90791132478901
 30
0.0
 11
229.20793239258569
 21
138.27106198860091
 31
0.0
  0
LINE
  5
14F
  8
1
  6
CONTINUOUS
 62
     7
 10
229.3069734827173
 20
138.37010307873209
 30
0.0
 11
229.5380693596903
 21
138.37010307873209
 31
0.0
  0
LINE
  5
150
  8
1
  6
CONTINUOUS
 62
     7
 10
229.20793239258569
 20
136.22421279256321
 30
0.0
 11
229.20793239258569
 21
136.58736345637661
 31
0.0
  0
LINE
  5
151
  8
1
  6
CONTINUOUS
 62
     7
 10
229.5380693596903
 20
136.12517170243231
 30
0.0
 11
229.3069734827173
 21
136.12517170243231
 31
0.0
  0
LINE
  5
152
  8
1
  6
CONTINUOUS
 62
     7
 10
230.03327481034381
 20
137.8748976280776
 30
0.0
 11
230.03327481034381
 21
137.4127058741341
 31
0.0
  0
LINE
  5
153
  8
1
  6
CONTINUOUS
 62
     7
 10
236.0307630460469
 20
134.27640468665561
 30
0.0
 11
236.47094566884991
 21
134.71658730946041
 31
0.0
  0
LINE
  5
154
  8
1
  6
CONTINUOUS
 62
     7
 10
236.47094566884991
 20
138.89832222609689
 30
0.0
 11
236.0307630460469
 21
139.3385048489001
 31
0.0
  0
LINE
  5
155
  8
1
  6
DASHED
 62
     2
 10
229.6481150153914
 20
134.27640468665561
 30
0.0
 11
229.6481150153914
 21
139.3385048489001
 31
0.0
  0
LINE
  5
156
  8
1
  6
CONTINUOUS
 62
     7
 10
229.20793239258569
 20
134.27640468665561
 30
0.0
 11
229.20793239258569
 21
139.3385048489001
 31
0.0
  0
LINE
  5
157
  8
1
  6
CONTINUOUS
 62
     7
 10
229.20793239258569
 20
139.3385048489001
 30
0.0
 11
236.0307630460469
 21
139.3385048489001
 31
0.0
  0
LINE
  5
158
  8
1
  6
CONTINUOUS
 62
     7
 10
236.47094566884991
 20
138.89832222609689
 30
0.0
 11
236.47094566884991
 21
134.71658730946041
 31
0.0
  0
LINE
  5
159
  8
1
  6
CONTINUOUS
 62
     7
 10
236.0307630460469
 20
134.27640468665561
 30
0.0
 11
229.20793239258569
 21
134.27640468665561
 31
0.0
  0
LINE
  5
15A
  8
1
  6
CONTINUOUS
 62
     7
 10
227.22701927856821
 20
132.3465749182765
 30
0.0
 11
229.20793239258569
 21
132.3465749182765
 31
0.0
  0
LINE
  5
15B
  8
1
  6
CONTINUOUS
 62
     7
 10
229.20793239258569
 20
132.3465749182765
 30
0.0
 11
227.22701927856821
 21
132.3465749182765
 31
0.0
  0
LINE
  5
15C
  8
1
  6
CONTINUOUS
 62
     7
 10
227.22701927856821
 20
132.3465749182765
 30
0.0
 11
229.20793239258569
 21
132.3465749182765
 31
0.0
  0
LINE
  5
15D
  8
1
  6
CONTINUOUS
 62
     7
 10
270.63320935127598
 20
137.74284284123701
 30
0.0
 11
270.63320935127598
 21
137.90791132478839
 31
0.0
  0
LINE
  5
15E
  8
1
  6
CONTINUOUS
 62
     7
 10
270.13800390062119
 20
137.41270587413391
 30
0.0
 11
270.30307238417282
 21
137.41270587413391
 31
0.0
  0
LINE
  5
15F
  8
1
  6
CONTINUOUS
 62
     7
 10
270.13800390062119
 20
137.08256890703009
 30
0.0
 11
270.13800390062119
 21
137.41270587413391
 31
0.0
  0
LINE
  5
160
  8
1
  6
CONTINUOUS
 62
     7
 10
270.30307238417282
 20
137.08256890703009
 30
0.0
 11
270.13800390062119
 21
137.08256890703009
 31
0.0
  0
LINE
  5
161
  8
1
  6
CONTINUOUS
 62
     7
 10
270.63320935127598
 20
136.58736345637641
 30
0.0
 11
270.63320935127598
 21
136.75243193992799
 31
0.0
  0
LINE
  5
162
  8
1
  6
CONTINUOUS
 62
     7
 10
270.96334631837777
 20
136.58736345637641
 30
0.0
 11
270.63320935127598
 21
136.58736345637641
 31
0.0
  0
LINE
  5
163
  8
1
  6
CONTINUOUS
 62
     7
 10
270.96334631837777
 20
136.75243193992799
 30
0.0
 11
270.96334631837777
 21
136.58736345637641
 31
0.0
  0
LINE
  5
164
  8
1
  6
CONTINUOUS
 62
     7
 10
271.45855176903348
 20
137.08256890703009
 30
0.0
 11
271.2934832854807
 21
137.08256890703009
 31
0.0
  0
LINE
  5
165
  8
1
  6
CONTINUOUS
 62
     7
 10
271.45855176903348
 20
137.41270587413391
 30
0.0
 11
271.45855176903348
 21
137.08256890703009
 31
0.0
  0
LINE
  5
166
  8
1
  6
CONTINUOUS
 62
     7
 10
271.2934832854807
 20
137.41270587413391
 30
0.0
 11
271.45855176903348
 21
137.41270587413391
 31
0.0
  0
LINE
  5
167
  8
1
  6
CONTINUOUS
 62
     7
 10
270.96334631837777
 20
137.90791132478839
 30
0.0
 11
270.96334631837777
 21
137.74284284123701
 31
0.0
  0
LINE
  5
168
  8
1
  6
CONTINUOUS
 62
     7
 10
270.63320935127598
 20
137.90791132478839
 30
0.0
 11
270.96334631837777
 21
137.90791132478839
 31
0.0
  0
LINE
  5
169
  8
1
  6
CONTINUOUS
 62
     7
 10
279.43686180735398
 20
161.457681644795
 30
0.0
 11
279.43686180735398
 21
161.62275012834641
 31
0.0
  0
LINE
  5
16A
  8
1
  6
CONTINUOUS
 62
     7
 10
279.10672484025059
 20
161.95288709544951
 30
0.0
 11
278.9416563566993
 21
161.95288709544951
 31
0.0
  0
LINE
  5
16B
  8
1
  6
CONTINUOUS
 62
     7
 10
278.9416563566993
 20
161.95288709544951
 30
0.0
 11
278.9416563566993
 21
162.28302406255159
 31
0.0
  0
LINE
  5
16C
  8
1
  6
CONTINUOUS
 62
     7
 10
278.9416563566993
 20
162.28302406255159
 30
0.0
 11
279.10672484025059
 21
162.28302406255159
 31
0.0
  0
LINE
  5
16D
  8
1
  6
CONTINUOUS
 62
     7
 10
279.43686180735398
 20
162.61316102965449
 30
0.0
 11
279.43686180735398
 21
162.7782295132061
 31
0.0
  0
LINE
  5
16E
  8
1
  6
CONTINUOUS
 62
     7
 10
279.43686180735398
 20
162.7782295132061
 30
0.0
 11
279.76699877445691
 21
162.7782295132061
 31
0.0
  0
LINE
  5
16F
  8
1
  6
CONTINUOUS
 62
     7
 10
279.76699877445691
 20
162.7782295132061
 30
0.0
 11
279.76699877445691
 21
162.61316102965449
 31
0.0
  0
LINE
  5
170
  8
1
  6
CONTINUOUS
 62
     7
 10
280.09713574155847
 20
162.28302406255159
 30
0.0
 11
280.26220422511159
 21
162.28302406255159
 31
0.0
  0
LINE
  5
171
  8
1
  6
CONTINUOUS
 62
     7
 10
280.26220422511159
 20
162.28302406255159
 30
0.0
 11
280.26220422511159
 21
161.95288709544951
 31
0.0
  0
LINE
  5
172
  8
1
  6
CONTINUOUS
 62
     7
 10
280.26220422511159
 20
161.95288709544951
 30
0.0
 11
280.09713574155847
 21
161.95288709544951
 31
0.0
  0
LINE
  5
173
  8
1
  6
CONTINUOUS
 62
     7
 10
279.76699877445691
 20
161.62275012834641
 30
0.0
 11
279.76699877445691
 21
161.457681644795
 31
0.0
  0
LINE
  5
174
  8
1
  6
CONTINUOUS
 62
     7
 10
279.76699877445691
 20
161.457681644795
 30
0.0
 11
279.43686180735398
 21
161.457681644795
 31
0.0
  0
LINE
  5
175
  8
1
  6
CONTINUOUS
 62
     7
 10
270.96334631837777
 20
161.457681644795
 30
0.0
 11
270.63320935127598
 21
161.457681644795
 31
0.0
  0
LINE
  5
176
  8
1
  6
CONTINUOUS
 62
     7
 10
270.63320935127598
 20
161.457681644795
 30
0.0
 11
270.63320935127598
 21
161.62275012834641
 31
0.0
  0
LINE
  5
177
  8
1
  6
CONTINUOUS
 62
     7
 10
270.30307238417282
 20
161.95288709544951
 30
0.0
 11
270.13800390062119
 21
161.95288709544951
 31
0.0
  0
LINE
  5
178
  8
1
  6
CONTINUOUS
 62
     7
 10
270.13800390062119
 20
161.95288709544951
 30
0.0
 11
270.13800390062119
 21
162.28302406255159
 31
0.0
  0
LINE
  5
179
  8
1
  6
CONTINUOUS
 62
     7
 10
270.13800390062119
 20
162.28302406255159
 30
0.0
 11
270.30307238417282
 21
162.28302406255159
 31
0.0
  0
LINE
  5
17A
  8
1
  6
CONTINUOUS
 62
     7
 10
270.63320935127598
 20
162.61316102965449
 30
0.0
 11
270.63320935127598
 21
162.7782295132061
 31
0.0
  0
LINE
  5
17B
  8
1
  6
CONTINUOUS
 62
     7
 10
270.63320935127598
 20
162.7782295132061
 30
0.0
 11
270.96334631837777
 21
162.7782295132061
 31
0.0
  0
LINE
  5
17C
  8
1
  6
CONTINUOUS
 62
     7
 10
270.96334631837777
 20
162.7782295132061
 30
0.0
 11
270.96334631837777
 21
162.61316102965449
 31
0.0
  0
LINE
  5
17D
  8
1
  6
CONTINUOUS
 62
     7
 10
271.2934832854807
 20
162.28302406255159
 30
0.0
 11
271.45855176903348
 21
162.28302406255159
 31
0.0
  0
LINE
  5
17E
  8
1
  6
CONTINUOUS
 62
     7
 10
271.45855176903348
 20
162.28302406255159
 30
0.0
 11
271.45855176903348
 21
161.95288709544951
 31
0.0
  0
LINE
  5
17F
  8
1
  6
CONTINUOUS
 62
     7
 10
271.45855176903348
 20
161.95288709544951
 30
0.0
 11
271.2934832854807
 21
161.95288709544951
 31
0.0
  0
LINE
  5
180
  8
1
  6
CONTINUOUS
 62
     7
 10
270.96334631837777
 20
161.62275012834641
 30
0.0
 11
270.96334631837777
 21
161.457681644795
 31
0.0
  0
LINE
  5
181
  8
1
  6
CONTINUOUS
 62
     7
 10
279.43686180735398
 20
137.90791132478839
 30
0.0
 11
279.76699877445691
 21
137.90791132478839
 31
0.0
  0
LINE
  5
182
  8
1
  6
CONTINUOUS
 62
     7
 10
279.76699877445691
 20
137.90791132478839
 30
0.0
 11
279.76699877445691
 21
137.74284284123701
 31
0.0
  0
LINE
  5
183
  8
1
  6
CONTINUOUS
 62
     7
 10
280.09713574155847
 20
137.41270587413391
 30
0.0
 11
280.26220422511159
 21
137.41270587413391
 31
0.0
  0
LINE
  5
184
  8
1
  6
CONTINUOUS
 62
     7
 10
280.26220422511159
 20
137.41270587413391
 30
0.0
 11
280.26220422511159
 21
137.08256890703009
 31
0.0
  0
LINE
  5
185
  8
1
  6
CONTINUOUS
 62
     7
 10
280.26220422511159
 20
137.08256890703009
 30
0.0
 11
280.09713574155847
 21
137.08256890703009
 31
0.0
  0
LINE
  5
186
  8
1
  6
CONTINUOUS
 62
     7
 10
279.76699877445691
 20
136.75243193992799
 30
0.0
 11
279.76699877445691
 21
136.58736345637641
 31
0.0
  0
LINE
  5
187
  8
1
  6
CONTINUOUS
 62
     7
 10
279.76699877445691
 20
136.58736345637641
 30
0.0
 11
279.43686180735398
 21
136.58736345637641
 31
0.0
  0
LINE
  5
188
  8
1
  6
CONTINUOUS
 62
     7
 10
279.43686180735398
 20
136.58736345637641
 30
0.0
 11
279.43686180735398
 21
136.75243193992799
 31
0.0
  0
LINE
  5
189
  8
1
  6
CONTINUOUS
 62
     7
 10
279.10672484025059
 20
137.08256890703009
 30
0.0
 11
278.9416563566993
 21
137.08256890703009
 31
0.0
  0
LINE
  5
18A
  8
1
  6
CONTINUOUS
 62
     7
 10
278.9416563566993
 20
137.08256890703009
 30
0.0
 11
278.9416563566993
 21
137.41270587413391
 31
0.0
  0
LINE
  5
18B
  8
1
  6
CONTINUOUS
 62
     7
 10
278.9416563566993
 20
137.41270587413391
 30
0.0
 11
279.10672484025059
 21
137.41270587413391
 31
0.0
  0
LINE
  5
18C
  8
1
  6
CONTINUOUS
 62
     7
 10
279.43686180735398
 20
137.74284284123701
 30
0.0
 11
279.43686180735398
 21
137.90791132478839
 31
0.0
  0
LINE
  5
18D
  8
1
  6
CONTINUOUS
 62
     7
 10
276.52644982268077
 20
139.3385048488997
 30
0.0
 11
276.52644982268077
 21
134.2764046866553
 31
0.0
  0
LINE
  5
18E
  8
1
  6
CONTINUOUS
 62
     7
 10
281.80284340492312
 20
134.2764046866553
 30
0.0
 11
281.80284340492312
 21
139.3385048488997
 31
0.0
  0
LINE
  5
18F
  8
1
  6
CONTINUOUS
 62
     7
 10
281.80284340492312
 20
139.3385048488997
 30
0.0
 11
276.08626719987831
 21
139.3385048488997
 31
0.0
  0
LINE
  5
190
  8
1
  6
CONTINUOUS
 62
     7
 10
276.08626719987831
 20
134.71651507632731
 30
0.0
 11
276.08626719987831
 21
134.2764046866553
 31
0.0
  0
LINE
  5
191
  8
1
  6
CONTINUOUS
 62
     7
 10
276.08626719987831
 20
134.2764046866553
 30
0.0
 11
281.80284340492312
 21
134.2764046866553
 31
0.0
  0
LINE
  5
192
  8
1
  6
CONTINUOUS
 62
     7
 10
275.4259932656704
 20
137.3990989549458
 30
0.0
 11
275.4259932656704
 21
138.4592400598489
 31
0.0
  0
LINE
  5
193
  8
1
  6
CONTINUOUS
 62
     7
 10
275.75613023277339
 20
138.4592400598489
 30
0.0
 11
275.4259932656704
 21
138.4592400598489
 31
0.0
  0
LINE
  5
194
  8
1
  6
CONTINUOUS
 62
     7
 10
275.75613023277339
 20
136.9017242403109
 30
0.0
 11
275.75613023277339
 21
138.4592400598489
 31
0.0
  0
LINE
  5
195
  8
1
  6
CONTINUOUS
 62
     7
 10
275.4259932656704
 20
135.15669769913131
 30
0.0
 11
275.75613023277339
 21
135.15669769913131
 31
0.0
  0
LINE
  5
196
  8
1
  6
CONTINUOUS
 62
     7
 10
275.4259932656704
 20
136.9270144800376
 30
0.0
 11
275.4259932656704
 21
135.15669769913131
 31
0.0
  0
LINE
  5
197
  8
1
  6
CONTINUOUS
 62
     7
 10
275.4259932656704
 20
135.15566947570639
 30
0.0
 11
275.4259932656704
 21
135.15669769913131
 31
0.0
  0
LINE
  5
198
  8
1
  6
CONTINUOUS
 62
     7
 10
275.75613023277339
 20
136.9017242403109
 30
0.0
 11
275.4259932656704
 21
137.3990989549458
 31
0.0
  0
LINE
  5
199
  8
1
  6
CONTINUOUS
 62
     7
 10
275.4259932656704
 20
136.9270144800376
 30
0.0
 11
275.4259932656704
 21
137.3990989549458
 31
0.0
  0
LINE
  5
19A
  8
1
  6
CONTINUOUS
 62
     7
 10
275.75613023277339
 20
136.589811283675
 30
0.0
 11
275.75613023277339
 21
136.9017242403109
 31
0.0
  0
LINE
  5
19B
  8
1
  6
CONTINUOUS
 62
     7
 10
275.4259932656704
 20
138.4592400598489
 30
0.0
 11
275.4259932656704
 21
137.3990989549458
 31
0.0
  0
LINE
  5
19C
  8
1
  6
CONTINUOUS
 62
     7
 10
275.75613023277339
 20
136.589811283675
 30
0.0
 11
275.4259932656704
 21
136.9270144800376
 31
0.0
  0
LINE
  5
19D
  8
1
  6
CONTINUOUS
 62
     7
 10
275.4259932656704
 20
137.3990989549458
 30
0.0
 11
275.4259932656704
 21
136.9270144800376
 31
0.0
  0
LINE
  5
19E
  8
1
  6
CONTINUOUS
 62
     7
 10
275.4259932656704
 20
135.15669769913131
 30
0.0
 11
275.4259932656704
 21
136.9270144800376
 31
0.0
  0
LINE
  5
19F
  8
1
  6
CONTINUOUS
 62
     7
 10
275.75613023277339
 20
135.15669769913131
 30
0.0
 11
275.75613023277339
 21
136.589811283675
 31
0.0
  0
LINE
  5
1A0
  8
1
  6
CONTINUOUS
 62
     7
 10
276.08626719987831
 20
138.89942268265389
 30
0.0
 11
275.75613023277339
 21
138.89942268265389
 31
0.0
  0
LINE
  5
1A1
  8
1
  6
CONTINUOUS
 62
     7
 10
276.08626719987831
 20
134.71651507632731
 30
0.0
 11
276.08626719987831
 21
138.89942268265389
 31
0.0
  0
LINE
  5
1A2
  8
1
  6
CONTINUOUS
 62
     7
 10
275.75613023277339
 20
134.71651507632731
 30
0.0
 11
276.08626719987831
 21
134.71651507632731
 31
0.0
  0
LINE
  5
1A3
  8
1
  6
CONTINUOUS
 62
     7
 10
275.75613023277339
 20
138.89942268265389
 30
0.0
 11
275.75613023277339
 21
134.71651507632731
 31
0.0
  0
LINE
  5
1A4
  8
1
  6
CONTINUOUS
 62
     7
 10
276.08626719987831
 20
139.3385048488997
 30
0.0
 11
276.08626719987831
 21
138.89942268265389
 31
0.0
  0
LINE
  5
1A5
  8
1
  6
CONTINUOUS
 62
     7
 10
276.08626719987831
 20
138.89942268265389
 30
0.0
 11
276.08626719987831
 21
134.71651507632731
 31
0.0
  0
LINE
  5
1A6
  8
1
  6
CONTINUOUS
 62
     7
 10
278.72156504529698
 20
135.92708952217029
 30
0.0
 11
278.21636950914041
 21
135.92708952217029
 31
0.0
  0
LINE
  5
1A7
  8
1
  6
CONTINUOUS
 62
     7
 10
278.9416563566993
 20
137.46772870198461
 30
0.0
 11
278.9416563566993
 21
136.33978526573711
 31
0.0
  0
LINE
  5
1A8
  8
1
  6
CONTINUOUS
 62
     7
 10
278.72156504529698
 20
137.6878200133865
 30
0.0
 11
278.9416563566993
 21
137.46772870198461
 31
0.0
  0
LINE
  5
1A9
  8
1
  6
CONTINUOUS
 62
     7
 10
278.72156504529698
 20
135.92708952217029
 30
0.0
 11
278.9416563566993
 21
136.14718083357261
 31
0.0
  0
LINE
  5
1AA
  8
1
  6
CONTINUOUS
 62
     3
 10
278.72156504529698
 20
135.92708952217029
 30
0.0
 11
278.72156504529698
 21
137.6878200133865
 31
0.0
  0
LINE
  5
1AB
  8
1
  6
CONTINUOUS
 62
     7
 10
269.4777299664151
 20
158.70654025227009
 30
0.0
 11
269.4777299664151
 21
159.58690549787869
 31
0.0
  0
LINE
  5
1AC
  8
1
  6
CONTINUOUS
 62
     7
 10
269.96193085149969
 20
158.3764032851677
 30
0.0
 11
269.80786693351843
 21
158.3764032851677
 31
0.0
  0
LINE
  5
1AD
  8
1
  6
CONTINUOUS
 62
     7
 10
280.92247815931592
 20
159.58690549787869
 30
0.0
 11
280.92247815931592
 21
158.70654025227009
 31
0.0
  0
LINE
  5
1AE
  8
1
  6
CONTINUOUS
 62
     7
 10
269.80786693351843
 20
159.91704246498011
 30
0.0
 11
280.59234119221168
 21
159.91704246498011
 31
0.0
  0
LINE
  5
1AF
  8
1
  6
CONTINUOUS
 62
     7
 10
269.4777299664151
 20
149.24261386198779
 30
0.0
 11
269.4777299664151
 21
150.12297910759469
 31
0.0
  0
LINE
  5
1B0
  8
1
  6
CONTINUOUS
 62
     7
 10
269.96193085149969
 20
148.91247689488461
 30
0.0
 11
269.80786693351843
 21
148.91247689488461
 31
0.0
  0
LINE
  5
1B1
  8
1
  6
CONTINUOUS
 62
     7
 10
280.92247815931592
 20
150.12297910759469
 30
0.0
 11
280.92247815931592
 21
149.24261386198779
 31
0.0
  0
LINE
  5
1B2
  8
1
  6
CONTINUOUS
 62
     7
 10
269.80786693351843
 20
150.45311607469799
 30
0.0
 11
280.59234119221168
 21
150.45311607469799
 31
0.0
  0
LINE
  5
1B3
  8
1
  6
CONTINUOUS
 62
     7
 10
269.4777299664151
 20
139.77868747170501
 30
0.0
 11
269.4777299664151
 21
140.65905271731179
 31
0.0
  0
LINE
  5
1B4
  8
1
  6
CONTINUOUS
 62
     7
 10
280.59234119221168
 20
139.44855050460191
 30
0.0
 11
269.80786693351843
 21
139.44855050460191
 31
0.0
  0
LINE
  5
1B5
  8
1
  6
CONTINUOUS
 62
     7
 10
280.92247815931592
 20
140.65905271731179
 30
0.0
 11
280.92247815931592
 21
139.77868747170501
 31
0.0
  0
LINE
  5
1B6
  8
1
  6
CONTINUOUS
 62
     7
 10
280.15215856940893
 20
140.98918968441501
 30
0.0
 11
280.59234119221168
 21
140.98918968441501
 31
0.0
  0
LINE
  5
1B7
  8
1
  6
CONTINUOUS
 62
     7
 10
280.92247815931592
 20
150.12297910759469
 30
0.0
 11
280.92247815931592
 21
158.70654025227009
 31
0.0
  0
LINE
  5
1B8
  8
1
  6
CONTINUOUS
 62
     7
 10
275.97042365277127
 20
150.45311607469799
 30
0.0
 11
275.97042365277127
 21
158.3764032851677
 31
0.0
  0
LINE
  5
1B9
  8
1
  6
CONTINUOUS
 62
     7
 10
276.85078889837962
 20
158.3764032851677
 30
0.0
 11
275.97042365277127
 21
158.3764032851677
 31
0.0
  0
LINE
  5
1BA
  8
1
  6
CONTINUOUS
 62
     7
 10
275.97042365277127
 20
140.98918968441501
 30
0.0
 11
275.97042365277127
 21
148.91247689488461
 31
0.0
  0
LINE
  5
1BB
  8
1
  6
CONTINUOUS
 62
     7
 10
276.85078889837962
 20
148.91247689488461
 30
0.0
 11
275.97042365277127
 21
148.91247689488461
 31
0.0
  0
LINE
  5
1BC
  8
1
  6
CONTINUOUS
 62
     7
 10
275.42019537426768
 20
140.98918968441501
 30
0.0
 11
275.97042365277127
 21
140.98918968441501
 31
0.0
  0
LINE
  5
1BD
  8
1
  6
CONTINUOUS
 62
     7
 10
275.42019537426768
 20
150.45311607469799
 30
0.0
 11
275.42019537426768
 21
158.3764032851677
 31
0.0
  0
LINE
  5
1BE
  8
1
  6
CONTINUOUS
 62
     7
 10
275.97042365277127
 20
158.3764032851677
 30
0.0
 11
275.42019537426768
 21
158.3764032851677
 31
0.0
  0
LINE
  5
1BF
  8
1
  6
CONTINUOUS
 62
     7
 10
275.42019537426768
 20
140.98918968441501
 30
0.0
 11
275.42019537426768
 21
141.5809926526363
 31
0.0
  0
LINE
  5
1C0
  8
1
  6
CONTINUOUS
 62
     7
 10
275.97042365277127
 20
148.91247689488461
 30
0.0
 11
275.42019537426768
 21
148.91247689488461
 31
0.0
  0
LINE
  5
1C1
  8
1
  6
CONTINUOUS
 62
     7
 10
270.2920678186029
 20
140.98918968441501
 30
0.0
 11
275.42019537426768
 21
140.98918968441501
 31
0.0
  0
LINE
  5
1C2
  8
1
  6
CONTINUOUS
 62
     7
 10
280.15215856940893
 20
150.45311607469799
 30
0.0
 11
280.15215856940893
 21
158.3764032851677
 31
0.0
  0
LINE
  5
1C3
  8
1
  6
CONTINUOUS
 62
     7
 10
280.59234119221168
 20
158.3764032851677
 30
0.0
 11
280.15215856940893
 21
158.3764032851677
 31
0.0
  0
LINE
  5
1C4
  8
1
  6
CONTINUOUS
 62
     7
 10
280.15215856940893
 20
140.98918968441501
 30
0.0
 11
280.15215856940893
 21
148.91247689488461
 31
0.0
  0
LINE
  5
1C5
  8
1
  6
CONTINUOUS
 62
     7
 10
276.85078889837962
 20
140.98918968441501
 30
0.0
 11
280.15215856940893
 21
140.98918968441501
 31
0.0
  0
LINE
  5
1C6
  8
1
  6
CONTINUOUS
 62
     7
 10
280.59234119221168
 20
148.91247689488461
 30
0.0
 11
280.15215856940893
 21
148.91247689488461
 31
0.0
  0
LINE
  5
1C7
  8
1
  6
CONTINUOUS
 62
     7
 10
276.85078889837962
 20
150.45311607469799
 30
0.0
 11
276.85078889837962
 21
158.3764032851677
 31
0.0
  0
LINE
  5
1C8
  8
1
  6
CONTINUOUS
 62
     7
 10
280.15215856940893
 20
158.3764032851677
 30
0.0
 11
276.85078889837962
 21
158.3764032851677
 31
0.0
  0
LINE
  5
1C9
  8
1
  6
CONTINUOUS
 62
     7
 10
276.85078889837962
 20
140.98918968441501
 30
0.0
 11
276.85078889837962
 21
148.91247689488461
 31
0.0
  0
LINE
  5
1CA
  8
1
  6
CONTINUOUS
 62
     7
 10
280.15215856940893
 20
148.91247689488461
 30
0.0
 11
276.85078889837962
 21
148.91247689488461
 31
0.0
  0
LINE
  5
1CB
  8
1
  6
CONTINUOUS
 62
     7
 10
275.97042365277127
 20
140.98918968441501
 30
0.0
 11
276.85078889837962
 21
140.98918968441501
 31
0.0
  0
LINE
  5
1CC
  8
1
  6
CONTINUOUS
 62
     7
 10
270.2920678186029
 20
150.45311607469799
 30
0.0
 11
270.2920678186029
 21
158.3764032851677
 31
0.0
  0
LINE
  5
1CD
  8
1
  6
CONTINUOUS
 62
     7
 10
275.42019537426768
 20
158.3764032851677
 30
0.0
 11
270.2920678186029
 21
158.3764032851677
 31
0.0
  0
LINE
  5
1CE
  8
1
  6
CONTINUOUS
 62
     7
 10
270.2920678186029
 20
140.98918968441501
 30
0.0
 11
270.2920678186029
 21
148.91247689488461
 31
0.0
  0
LINE
  5
1CF
  8
1
  6
CONTINUOUS
 62
     7
 10
275.42019537426768
 20
148.91247689488461
 30
0.0
 11
270.2920678186029
 21
148.91247689488461
 31
0.0
  0
LINE
  5
1D0
  8
1
  6
CONTINUOUS
 62
     7
 10
269.96193085149969
 20
140.98918968441501
 30
0.0
 11
270.2920678186029
 21
140.98918968441501
 31
0.0
  0
LINE
  5
1D1
  8
1
  6
CONTINUOUS
 62
     7
 10
269.96193085149969
 20
148.91247689488461
 30
0.0
 11
269.96193085149969
 21
140.98918968441501
 31
0.0
  0
LINE
  5
1D2
  8
1
  6
CONTINUOUS
 62
     7
 10
270.2920678186029
 20
148.91247689488461
 30
0.0
 11
269.96193085149969
 21
148.91247689488461
 31
0.0
  0
LINE
  5
1D3
  8
1
  6
CONTINUOUS
 62
     7
 10
269.80786693351843
 20
140.98918968441501
 30
0.0
 11
269.96193085149969
 21
140.98918968441501
 31
0.0
  0
LINE
  5
1D4
  8
1
  6
CONTINUOUS
 62
     7
 10
270.2920678186029
 20
158.3764032851677
 30
0.0
 11
269.96193085149969
 21
158.3764032851677
 31
0.0
  0
LINE
  5
1D5
  8
1
  6
CONTINUOUS
 62
     7
 10
274.31973881725742
 20
146.9844770070041
 30
0.0
 11
273.12805989038162
 21
146.9844770070041
 31
0.0
  0
LINE
  5
1D6
  8
1
  6
CONTINUOUS
 62
     7
 10
274.31973881725742
 20
146.9041347058583
 30
0.0
 11
274.31973881725742
 21
146.9844770070041
 31
0.0
  0
LINE
  5
1D7
  8
1
  6
CONTINUOUS
 62
     7
 10
273.12805989038162
 20
142.91718957229571
 30
0.0
 11
274.31973881725742
 21
142.91718957229571
 31
0.0
  0
LINE
  5
1D8
  8
1
  6
CONTINUOUS
 62
     7
 10
274.31973881725742
 20
143.93401143097279
 30
0.0
 11
273.12805989038162
 21
143.93401143097279
 31
0.0
  0
LINE
  5
1D9
  8
1
  6
CONTINUOUS
 62
     7
 10
274.31973881725742
 20
145.96765514832671
 30
0.0
 11
273.12805989038162
 21
145.96765514832671
 31
0.0
  0
LINE
  5
1DA
  8
1
  6
CONTINUOUS
 62
     7
 10
272.91115442428651
 20
146.4760660776638
 30
0.0
 11
272.91115442428651
 21
143.4256005016338
 31
0.0
  0
LINE
  5
1DB
  8
1
  6
CONTINUOUS
 62
     7
 10
275.42019537426768
 20
142.63987451993
 30
0.0
 11
275.42019537426768
 21
147.26179205937041
 31
0.0
  0
LINE
  5
1DC
  8
1
  6
CONTINUOUS
 62
     7
 10
274.8699670957626
 20
142.63987451993
 30
0.0
 11
275.42019537426768
 21
142.63987451993
 31
0.0
  0
LINE
  5
1DD
  8
1
  6
CONTINUOUS
 62
     7
 10
274.8699670957626
 20
143.0158338753042
 30
0.0
 11
274.8699670957626
 21
142.63987451993
 31
0.0
  0
LINE
  5
1DE
  8
1
  6
CONTINUOUS
 62
     7
 10
275.42019537426768
 20
147.26179205937041
 30
0.0
 11
274.8699670957626
 21
147.26179205937041
 31
0.0
  0
LINE
  5
1DF
  8
1
  6
CONTINUOUS
 62
     7
 10
274.31973881725742
 20
146.9041347058583
 30
0.0
 11
274.8699670957626
 21
146.9041347058583
 31
0.0
  0
LINE
  5
1E0
  8
1
  6
CONTINUOUS
 62
     7
 10
274.31973881725742
 20
144.95083328965009
 30
0.0
 11
274.31973881725742
 21
146.9041347058583
 31
0.0
  0
LINE
  5
1E1
  8
1
  6
CONTINUOUS
 62
     7
 10
274.8699670957626
 20
147.26179205937041
 30
0.0
 11
274.8699670957626
 21
146.9041347058583
 31
0.0
  0
LINE
  5
1E2
  8
1
  6
CONTINUOUS
 62
     7
 10
274.31973881725742
 20
143.0158338753042
 30
0.0
 11
274.8699670957626
 21
143.0158338753042
 31
0.0
  0
LINE
  5
1E3
  8
1
  6
CONTINUOUS
 62
     7
 10
274.8699670957626
 20
144.95083328965009
 30
0.0
 11
274.8699670957626
 21
143.0158338753042
 31
0.0
  0
LINE
  5
1E4
  8
1
  6
CONTINUOUS
 62
     7
 10
274.31973881725742
 20
142.91718957229571
 30
0.0
 11
274.31973881725742
 21
143.0158338753042
 31
0.0
  0
LINE
  5
1E5
  8
1
  6
CONTINUOUS
 62
     7
 10
274.8699670957626
 20
145.7327637443525
 30
0.0
 11
274.31973881725742
 21
144.95083328965009
 31
0.0
  0
LINE
  5
1E6
  8
1
  6
CONTINUOUS
 62
     7
 10
274.31973881725742
 20
144.26041552190469
 30
0.0
 11
274.31973881725742
 21
144.95083328965009
 31
0.0
  0
LINE
  5
1E7
  8
1
  6
CONTINUOUS
 62
     7
 10
274.8699670957626
 20
146.9041347058583
 30
0.0
 11
274.8699670957626
 21
145.7327637443525
 31
0.0
  0
LINE
  5
1E8
  8
1
  6
CONTINUOUS
 62
     7
 10
274.8699670957626
 20
144.95083328965009
 30
0.0
 11
274.31973881725742
 21
144.26041552190469
 31
0.0
  0
LINE
  5
1E9
  8
1
  6
CONTINUOUS
 62
     7
 10
274.8699670957626
 20
145.7327637443525
 30
0.0
 11
274.8699670957626
 21
144.95083328965009
 31
0.0
  0
LINE
  5
1EA
  8
1
  6
CONTINUOUS
 62
     7
 10
274.31973881725742
 20
143.0158338753042
 30
0.0
 11
274.31973881725742
 21
144.26041552190469
 31
0.0
  0
LINE
  5
1EB
  8
1
  6
CONTINUOUS
 62
     7
 10
274.31973881725742
 20
156.44840339728691
 30
0.0
 11
273.12805989038162
 21
156.44840339728691
 31
0.0
  0
LINE
  5
1EC
  8
1
  6
CONTINUOUS
 62
     7
 10
274.31973881725742
 20
156.3680610961415
 30
0.0
 11
274.31973881725742
 21
156.44840339728691
 31
0.0
  0
LINE
  5
1ED
  8
1
  6
CONTINUOUS
 62
     7
 10
273.12805989038162
 20
152.38111596257951
 30
0.0
 11
274.31973881725742
 21
152.38111596257951
 31
0.0
  0
LINE
  5
1EE
  8
1
  6
CONTINUOUS
 62
     7
 10
274.31973881725742
 20
153.39793782125599
 30
0.0
 11
273.12805989038162
 21
153.39793782125599
 31
0.0
  0
LINE
  5
1EF
  8
1
  6
CONTINUOUS
 62
     7
 10
274.31973881725742
 20
155.43158153860969
 30
0.0
 11
273.12805989038162
 21
155.43158153860969
 31
0.0
  0
LINE
  5
1F0
  8
1
  6
CONTINUOUS
 62
     7
 10
272.91115442428651
 20
155.93999246794789
 30
0.0
 11
272.91115442428651
 21
152.8895268919176
 31
0.0
  0
LINE
  5
1F1
  8
1
  6
CONTINUOUS
 62
     7
 10
275.42019537426768
 20
156.83576410535491
 30
0.0
 11
275.42019537426768
 21
158.3764032851677
 31
0.0
  0
LINE
  5
1F2
  8
1
  6
CONTINUOUS
 62
     7
 10
274.8699670957626
 20
152.1038009102131
 30
0.0
 11
275.42019537426768
 21
152.1038009102131
 31
0.0
  0
LINE
  5
1F3
  8
1
  6
CONTINUOUS
 62
     7
 10
274.8699670957626
 20
152.47976026558831
 30
0.0
 11
274.8699670957626
 21
152.1038009102131
 31
0.0
  0
LINE
  5
1F4
  8
1
  6
CONTINUOUS
 62
     7
 10
275.42019537426768
 20
156.7257184496527
 30
0.0
 11
274.8699670957626
 21
156.7257184496527
 31
0.0
  0
LINE
  5
1F5
  8
1
  6
CONTINUOUS
 62
     7
 10
274.31973881725742
 20
156.3680610961415
 30
0.0
 11
274.8699670957626
 21
156.3680610961415
 31
0.0
  0
LINE
  5
1F6
  8
1
  6
CONTINUOUS
 62
     7
 10
274.31973881725742
 20
154.41475967993341
 30
0.0
 11
274.31973881725742
 21
156.3680610961415
 31
0.0
  0
LINE
  5
1F7
  8
1
  6
CONTINUOUS
 62
     7
 10
274.8699670957626
 20
156.7257184496527
 30
0.0
 11
274.8699670957626
 21
156.3680610961415
 31
0.0
  0
LINE
  5
1F8
  8
1
  6
CONTINUOUS
 62
     7
 10
274.31973881725742
 20
152.47976026558831
 30
0.0
 11
274.8699670957626
 21
152.47976026558831
 31
0.0
  0
LINE
  5
1F9
  8
1
  6
CONTINUOUS
 62
     7
 10
274.8699670957626
 20
154.41475967993341
 30
0.0
 11
274.8699670957626
 21
152.47976026558831
 31
0.0
  0
LINE
  5
1FA
  8
1
  6
CONTINUOUS
 62
     7
 10
274.31973881725742
 20
152.38111596257951
 30
0.0
 11
274.31973881725742
 21
152.47976026558831
 31
0.0
  0
LINE
  5
1FB
  8
1
  6
CONTINUOUS
 62
     7
 10
274.8699670957626
 20
155.1966901346357
 30
0.0
 11
274.31973881725742
 21
154.41475967993341
 31
0.0
  0
LINE
  5
1FC
  8
1
  6
CONTINUOUS
 62
     7
 10
274.31973881725742
 20
153.7243419121877
 30
0.0
 11
274.31973881725742
 21
154.41475967993341
 31
0.0
  0
LINE
  5
1FD
  8
1
  6
CONTINUOUS
 62
     7
 10
274.8699670957626
 20
156.3680610961415
 30
0.0
 11
274.8699670957626
 21
155.1966901346357
 31
0.0
  0
LINE
  5
1FE
  8
1
  6
CONTINUOUS
 62
     7
 10
274.8699670957626
 20
154.41475967993341
 30
0.0
 11
274.31973881725742
 21
153.7243419121877
 31
0.0
  0
LINE
  5
1FF
  8
1
  6
CONTINUOUS
 62
     7
 10
274.8699670957626
 20
155.1966901346357
 30
0.0
 11
274.8699670957626
 21
154.41475967993341
 31
0.0
  0
LINE
  5
200
  8
1
  6
CONTINUOUS
 62
     7
 10
274.31973881725742
 20
152.47976026558831
 30
0.0
 11
274.31973881725742
 21
153.7243419121877
 31
0.0
  0
LINE
  5
201
  8
1
  6
CONTINUOUS
 62
     7
 10
266.61810373837488
 20
132.3465749182767
 30
0.0
 11
266.61810373837488
 21
167.01901805130689
 31
0.0
  0
LINE
  5
202
  8
1
  6
CONTINUOUS
 62
     7
 10
266.88221331205779
 20
132.3465749182767
 30
0.0
 11
266.88221331205779
 21
167.01901805130689
 31
0.0
  0
LINE
  5
203
  8
1
  6
CONTINUOUS
 62
     7
 10
294.9550302170523
 20
167.01901805130689
 30
0.0
 11
294.9550302170523
 21
132.3465749182767
 31
0.0
  0
LINE
  5
204
  8
1
  6
CONTINUOUS
 62
     7
 10
295.21913979073349
 20
132.08246534459491
 30
0.0
 11
295.21913979073349
 21
167.28312762498979
 31
0.0
  0
LINE
  5
205
  8
1
  6
CONTINUOUS
 62
     7
 10
295.21913979073349
 20
167.28312762498979
 30
0.0
 11
266.88221331205779
 21
167.28312762498979
 31
0.0
  0
LINE
  5
206
  8
1
  6
CONTINUOUS
 62
     7
 10
266.88221331205779
 20
132.08246534459491
 30
0.0
 11
295.21913979073349
 21
132.08246534459491
 31
0.0
  0
LINE
  5
207
  8
1
  6
CONTINUOUS
 62
     7
 10
266.88221331205779
 20
132.3465749182767
 30
0.0
 11
266.88221331205779
 21
132.08246534459491
 31
0.0
  0
LINE
  5
208
  8
1
  6
CONTINUOUS
 62
     7
 10
294.9550302170523
 20
132.3465749182767
 30
0.0
 11
266.88221331205779
 21
132.3465749182767
 31
0.0
  0
LINE
  5
209
  8
1
  6
CONTINUOUS
 62
     7
 10
266.88221331205779
 20
167.01901805130689
 30
0.0
 11
294.9550302170523
 21
167.01901805130689
 31
0.0
  0
LINE
  5
20A
  8
1
  6
CONTINUOUS
 62
     7
 10
266.88221331205779
 20
167.28312762498979
 30
0.0
 11
266.88221331205779
 21
167.01901805130689
 31
0.0
  0
LINE
  5
20B
  8
1
  6
CONTINUOUS
 62
     7
 10
266.61810373837488
 20
167.01901805130689
 30
0.0
 11
266.88221331205779
 21
167.01901805130689
 31
0.0
  0
LINE
  5
20C
  8
1
  6
CONTINUOUS
 62
     7
 10
266.88221331205779
 20
132.3465749182767
 30
0.0
 11
266.61810373837488
 21
132.3465749182767
 31
0.0
  0
LINE
  5
20D
  8
1
  6
CONTINUOUS
 62
     7
 10
160.18309182939731
 20
136.62037715308659
 30
0.0
 11
160.18309182939731
 21
137.08256890703029
 31
0.0
  0
LINE
  5
20E
  8
1
  6
CONTINUOUS
 62
     7
 10
160.18309182939731
 20
137.08256890703029
 30
0.0
 11
160.51322879650019
 21
137.08256890703029
 31
0.0
  0
LINE
  5
20F
  8
1
  6
CONTINUOUS
 62
     7
 10
160.51322879650019
 20
137.08256890703029
 30
0.0
 11
160.51322879650019
 21
137.4127058741341
 31
0.0
  0
LINE
  5
210
  8
1
  6
CONTINUOUS
 62
     7
 10
160.51322879650019
 20
137.4127058741341
 30
0.0
 11
160.18309182939731
 21
137.4127058741341
 31
0.0
  0
LINE
  5
211
  8
1
  6
CONTINUOUS
 62
     7
 10
161.00843424715359
 20
138.27106198860091
 30
0.0
 11
161.00843424715359
 21
137.90791132478901
 31
0.0
  0
LINE
  5
212
  8
1
  6
CONTINUOUS
 62
     7
 10
160.67829728005231
 20
138.37010307873209
 30
0.0
 11
160.9093931570238
 21
138.37010307873209
 31
0.0
  0
LINE
  5
213
  8
1
  6
CONTINUOUS
 62
     7
 10
161.00843424715359
 20
136.58736345637661
 30
0.0
 11
161.00843424715359
 21
136.22421279256321
 31
0.0
  0
LINE
  5
214
  8
1
  6
CONTINUOUS
 62
     7
 10
160.9093931570238
 20
136.12517170243231
 30
0.0
 11
160.67829728005231
 21
136.12517170243231
 31
0.0
  0
LINE
  5
215
  8
1
  6
CONTINUOUS
 62
     7
 10
160.18309182939731
 20
137.4127058741341
 30
0.0
 11
160.18309182939731
 21
137.8748976280776
 31
0.0
  0
LINE
  5
216
  8
1
  6
DASHED
 62
     2
 10
236.92213285722369
 20
91.913918447176727
 30
0.0
 11
236.92213285722369
 21
91.693827135774754
 31
0.0
  0
LINE
  5
217
  8
1
  6
DASHED
 62
     2
 10
236.92213285722369
 20
91.693827135774754
 30
0.0
 11
236.81208720152401
 21
91.693827135774754
 31
0.0
  0
LINE
  5
218
  8
1
  6
DASHED
 62
     2
 10
236.59199589012201
 20
91.473735824373051
 30
0.0
 11
236.59199589012201
 21
91.363690168671823
 31
0.0
  0
LINE
  5
219
  8
1
  6
DASHED
 62
     2
 10
236.59199589012201
 20
91.363690168671823
 30
0.0
 11
236.37190457871969
 21
91.363690168671823
 31
0.0
  0
LINE
  5
21A
  8
1
  6
DASHED
 62
     2
 10
236.37190457871969
 20
91.363690168671823
 30
0.0
 11
236.37190457871969
 21
91.473735824373051
 31
0.0
  0
LINE
  5
21B
  8
1
  6
DASHED
 62
     2
 10
236.15181326731781
 20
91.693827135774754
 30
0.0
 11
236.04176761161659
 21
91.693827135774754
 31
0.0
  0
LINE
  5
21C
  8
1
  6
DASHED
 62
     2
 10
236.04176761161659
 20
91.693827135774754
 30
0.0
 11
236.04176761161659
 21
91.913918447176727
 31
0.0
  0
LINE
  5
21D
  8
1
  6
DASHED
 62
     2
 10
236.04176761161659
 20
91.913918447176727
 30
0.0
 11
236.15181326731781
 21
91.913918447176727
 31
0.0
  0
LINE
  5
21E
  8
1
  6
DASHED
 62
     2
 10
236.37190457871969
 20
92.13400975857823
 30
0.0
 11
236.37190457871969
 21
92.244055414279174
 31
0.0
  0
LINE
  5
21F
  8
1
  6
DASHED
 62
     2
 10
236.37190457871969
 20
92.244055414279174
 30
0.0
 11
236.59199589012201
 21
92.244055414279174
 31
0.0
  0
LINE
  5
220
  8
1
  6
DASHED
 62
     2
 10
236.59199589012201
 20
92.244055414279174
 30
0.0
 11
236.59199589012201
 21
92.13400975857823
 31
0.0
  0
LINE
  5
221
  8
1
  6
DASHED
 62
     2
 10
236.81208720152401
 20
91.913918447176727
 30
0.0
 11
236.92213285722369
 21
91.913918447176727
 31
0.0
  0
LINE
  5
222
  8
1
  6
DASHED
 62
     2
 10
239.3981601104951
 20
89.823050988857631
 30
0.0
 11
229.20793239258569
 21
89.823050988857631
 31
0.0
  0
LINE
  5
223
  8
1
  6
DASHED
 62
     2
 10
229.20793239258569
 20
101.2677991817587
 30
0.0
 11
239.3981601104951
 21
101.2677991817587
 31
0.0
  0
LINE
  5
224
  8
1
  6
DASHED
 62
     2
 10
239.72829707759831
 20
100.9376622146558
 30
0.0
 11
239.72829707759831
 21
90.153187955960959
 31
0.0
  0
LINE
  5
225
  8
1
  6
CONTINUOUS
 62
     7
 10
230.03327481034381
 20
137.8748976280776
 30
0.0
 11
230.03327481034381
 21
137.4127058741341
 31
0.0
  0
LINE
  5
226
  8
1
  6
CONTINUOUS
 62
     7
 10
229.5380693596903
 20
136.12517170243231
 30
0.0
 11
229.3069734827173
 21
136.12517170243231
 31
0.0
  0
LINE
  5
227
  8
1
  6
CONTINUOUS
 62
     7
 10
229.20793239258569
 20
136.22421279256321
 30
0.0
 11
229.20793239258569
 21
136.58736345637661
 31
0.0
  0
LINE
  5
228
  8
1
  6
CONTINUOUS
 62
     7
 10
229.3069734827173
 20
138.37010307873209
 30
0.0
 11
229.5380693596903
 21
138.37010307873209
 31
0.0
  0
LINE
  5
229
  8
1
  6
CONTINUOUS
 62
     7
 10
229.20793239258569
 20
137.90791132478901
 30
0.0
 11
229.20793239258569
 21
138.27106198860091
 31
0.0
  0
LINE
  5
22A
  8
1
  6
CONTINUOUS
 62
     7
 10
230.03327481034381
 20
137.4127058741341
 30
0.0
 11
229.7031378432404
 21
137.4127058741341
 31
0.0
  0
LINE
  5
22B
  8
1
  6
CONTINUOUS
 62
     7
 10
229.7031378432404
 20
137.4127058741341
 30
0.0
 11
229.7031378432404
 21
137.08256890703029
 31
0.0
  0
LINE
  5
22C
  8
1
  6
CONTINUOUS
 62
     7
 10
229.7031378432404
 20
137.08256890703029
 30
0.0
 11
230.03327481034381
 21
137.08256890703029
 31
0.0
  0
LINE
  5
22D
  8
1
  6
CONTINUOUS
 62
     7
 10
230.03327481034381
 20
137.08256890703029
 30
0.0
 11
230.03327481034381
 21
136.62037715308659
 31
0.0
  0
LINE
  5
22E
  8
1
  6
CONTINUOUS
 62
     7
 10
230.03327481034381
 20
162.74521581649569
 30
0.0
 11
230.03327481034381
 21
162.28302406255199
 31
0.0
  0
LINE
  5
22F
  8
1
  6
CONTINUOUS
 62
     7
 10
230.03327481034381
 20
162.28302406255199
 30
0.0
 11
229.7031378432404
 21
162.28302406255199
 31
0.0
  0
LINE
  5
230
  8
1
  6
CONTINUOUS
 62
     7
 10
229.7031378432404
 20
162.28302406255199
 30
0.0
 11
229.7031378432404
 21
161.95288709545
 31
0.0
  0
LINE
  5
231
  8
1
  6
CONTINUOUS
 62
     7
 10
229.7031378432404
 20
161.95288709545
 30
0.0
 11
230.03327481034381
 21
161.95288709545
 31
0.0
  0
LINE
  5
232
  8
1
  6
CONTINUOUS
 62
     7
 10
229.20793239258569
 20
161.09453098098231
 30
0.0
 11
229.20793239258569
 21
161.4576816447954
 31
0.0
  0
LINE
  5
233
  8
1
  6
CONTINUOUS
 62
     7
 10
229.5380693596903
 20
160.99548989085091
 30
0.0
 11
229.3069734827173
 21
160.99548989085091
 31
0.0
  0
LINE
  5
234
  8
1
  6
CONTINUOUS
 62
     7
 10
229.20793239258569
 20
162.7782295132065
 30
0.0
 11
229.20793239258569
 21
163.14138017701879
 31
0.0
  0
LINE
  5
235
  8
1
  6
CONTINUOUS
 62
     7
 10
229.3069734827173
 20
163.24042126715091
 30
0.0
 11
229.5380693596903
 21
163.24042126715091
 31
0.0
  0
LINE
  5
236
  8
1
  6
CONTINUOUS
 62
     7
 10
230.03327481034381
 20
161.95288709545
 30
0.0
 11
230.03327481034381
 21
161.49069534150539
 31
0.0
  0
LINE
  5
237
  8
1
  6
CONTINUOUS
 62
     7
 10
160.18309182939731
 20
161.49069534150539
 30
0.0
 11
160.18309182939731
 21
161.95288709545
 31
0.0
  0
LINE
  5
238
  8
1
  6
CONTINUOUS
 62
     7
 10
160.67829728005231
 20
163.24042126715091
 30
0.0
 11
160.9093931570238
 21
163.24042126715091
 31
0.0
  0
LINE
  5
239
  8
1
  6
CONTINUOUS
 62
     7
 10
161.00843424715359
 20
163.14138017701879
 30
0.0
 11
161.00843424715359
 21
162.7782295132065
 31
0.0
  0
LINE
  5
23A
  8
1
  6
CONTINUOUS
 62
     7
 10
160.9093931570238
 20
160.99548989085091
 30
0.0
 11
160.67829728005231
 21
160.99548989085091
 31
0.0
  0
LINE
  5
23B
  8
1
  6
CONTINUOUS
 62
     7
 10
161.00843424715359
 20
161.4576816447954
 30
0.0
 11
161.00843424715359
 21
161.09453098098231
 31
0.0
  0
LINE
  5
23C
  8
1
  6
CONTINUOUS
 62
     7
 10
160.18309182939731
 20
161.95288709545
 30
0.0
 11
160.51322879650019
 21
161.95288709545
 31
0.0
  0
LINE
  5
23D
  8
1
  6
CONTINUOUS
 62
     7
 10
160.51322879650019
 20
161.95288709545
 30
0.0
 11
160.51322879650019
 21
162.28302406255199
 31
0.0
  0
LINE
  5
23E
  8
1
  6
CONTINUOUS
 62
     7
 10
160.51322879650019
 20
162.28302406255199
 30
0.0
 11
160.18309182939731
 21
162.28302406255199
 31
0.0
  0
LINE
  5
23F
  8
1
  6
CONTINUOUS
 62
     7
 10
160.18309182939731
 20
162.28302406255199
 30
0.0
 11
160.18309182939731
 21
162.74521581649569
 31
0.0
  0
LINE
  5
240
  8
1
  6
CONTINUOUS
 62
     7
 10
203.9118357759483
 20
144.4755634373542
 30
0.0
 11
203.9118357759483
 21
154.85129668915991
 31
0.0
  0
LINE
  5
241
  8
1
  6
CONTINUOUS
 62
     7
 10
186.61894702293941
 20
144.16114727820849
 30
0.0
 11
203.59741961680189
 21
144.16114727820849
 31
0.0
  0
LINE
  5
242
  8
1
  6
CONTINUOUS
 62
     7
 10
186.30453086379379
 20
154.85129668915991
 30
0.0
 11
186.30453086379379
 21
144.4755634373542
 31
0.0
  0
LINE
  5
243
  8
1
  6
CONTINUOUS
 62
     7
 10
203.59741961680189
 20
155.16571284830559
 30
0.0
 11
186.61894702293941
 21
155.16571284830559
 31
0.0
  0
LINE
  5
244
  8
1
  6
DASHED
 62
     2
 10
161.00843424715359
 20
95.545425085308494
 30
0.0
 11
161.00843424715359
 21
88.942685743250536
 31
0.0
  0
LINE
  5
245
  8
1
  6
CONTINUOUS
 62
     7
 10
161.00843424715359
 20
139.3385048489001
 30
0.0
 11
161.00843424715359
 21
134.27640468665561
 31
0.0
  0
LINE
  5
246
  8
1
  6
CONTINUOUS
 62
     7
 10
152.46889136475991
 20
139.4529505046022
 30
0.0
 11
150.81820652924441
 21
139.4529505046022
 31
0.0
  0
LINE
  5
247
  8
1
  6
CONTINUOUS
 62
     7
 10
150.4880695621415
 20
139.78308747170539
 30
0.0
 11
150.4880695621415
 21
140.66345271731251
 31
0.0
  0
LINE
  5
248
  8
1
  6
CONTINUOUS
 62
     7
 10
150.81820652924441
 20
140.99358968441561
 30
0.0
 11
152.46889136475991
 21
140.99358968441561
 31
0.0
  0
LINE
  5
249
  8
1
  6
CONTINUOUS
 62
     7
 10
152.46889136475991
 20
140.99358968441561
 30
0.0
 11
153.1291652989664
 21
140.87940396571511
 31
0.0
  0
LINE
  5
24A
  8
1
  6
CONTINUOUS
 62
     7
 10
154.37789396664829
 20
140.66345271731251
 30
0.0
 11
160.5022242309295
 21
140.66345271731251
 31
0.0
  0
LINE
  5
24B
  8
1
  6
CONTINUOUS
 62
     7
 10
160.5022242309295
 20
140.66125271731229
 30
0.0
 11
160.5022242309295
 21
144.95303328964991
 31
0.0
  0
LINE
  5
24C
  8
1
  6
CONTINUOUS
 62
     7
 10
152.46889136475991
 20
140.99138968441551
 30
0.0
 11
152.46889136475991
 21
144.95303328964991
 31
0.0
  0
LINE
  5
24D
  8
1
  6
CONTINUOUS
 62
     7
 10
153.1291652989664
 20
140.8772039657151
 30
0.0
 11
153.1291652989664
 21
144.95303328964991
 31
0.0
  0
LINE
  5
24E
  8
1
  6
CONTINUOUS
 62
     7
 10
153.1291652989664
 20
140.87940396571511
 30
0.0
 11
154.37789396664829
 21
140.66345271731251
 31
0.0
  0
LINE
  5
24F
  8
1
  6
CONTINUOUS
 62
     7
 10
157.1169562259654
 20
143.19230279843461
 30
0.0
 11
158.13351444903861
 21
144.95303328964991
 31
0.0
  0
LINE
  5
250
  8
1
  6
CONTINUOUS
 62
     7
 10
158.13351444903861
 20
144.95303328964991
 30
0.0
 11
157.1169562259654
 21
146.7137637808658
 31
0.0
  0
LINE
  5
251
  8
1
  6
CONTINUOUS
 62
     7
 10
157.1169562259654
 20
146.7137637808658
 30
0.0
 11
155.08383977981811
 21
146.7137637808658
 31
0.0
  0
LINE
  5
252
  8
1
  6
CONTINUOUS
 62
     7
 10
155.08383977981811
 20
146.7137637808658
 30
0.0
 11
154.0672815567448
 21
144.95303328964991
 31
0.0
  0
LINE
  5
253
  8
1
  6
CONTINUOUS
 62
     7
 10
154.0672815567448
 20
144.95303328964991
 30
0.0
 11
155.08383977981811
 21
143.19230279843461
 31
0.0
  0
LINE
  5
254
  8
1
  6
CONTINUOUS
 62
     7
 10
155.08383977981811
 20
143.19230279843461
 30
0.0
 11
156.1003980028924
 21
143.19230279843461
 31
0.0
  0
LINE
  5
255
  8
1
  6
CONTINUOUS
 62
     7
 10
156.1003980028924
 20
143.19230279843461
 30
0.0
 11
157.1169562259654
 21
143.19230279843461
 31
0.0
  0
LINE
  5
256
  8
1
  6
CONTINUOUS
 62
     7
 10
158.13351444903861
 20
154.41255967993371
 30
0.0
 11
157.1169562259654
 21
156.1732901711477
 31
0.0
  0
LINE
  5
257
  8
1
  6
CONTINUOUS
 62
     7
 10
157.1169562259654
 20
152.6518291887173
 30
0.0
 11
158.13351444903861
 21
154.41255967993371
 31
0.0
  0
LINE
  5
258
  8
1
  6
CONTINUOUS
 62
     7
 10
155.08383977981811
 20
152.6518291887173
 30
0.0
 11
157.1169562259654
 21
152.6518291887173
 31
0.0
  0
LINE
  5
259
  8
1
  6
CONTINUOUS
 62
     7
 10
154.0672815567448
 20
154.41255967993371
 30
0.0
 11
155.08383977981811
 21
152.6518291887173
 31
0.0
  0
LINE
  5
25A
  8
1
  6
CONTINUOUS
 62
     7
 10
155.08383977981811
 20
156.1732901711477
 30
0.0
 11
154.0672815567448
 21
154.41255967993371
 31
0.0
  0
LINE
  5
25B
  8
1
  6
CONTINUOUS
 62
     7
 10
156.1003980028924
 20
156.1732901711477
 30
0.0
 11
155.08383977981811
 21
156.1732901711477
 31
0.0
  0
LINE
  5
25C
  8
1
  6
CONTINUOUS
 62
     7
 10
157.1169562259654
 20
156.1732901711477
 30
0.0
 11
156.1003980028924
 21
156.1732901711477
 31
0.0
  0
LINE
  5
25D
  8
1
  6
CONTINUOUS
 62
     7
 10
150.81820652924441
 20
159.91484246498021
 30
0.0
 11
161.00843424715359
 21
159.91484246498021
 31
0.0
  0
LINE
  5
25E
  8
1
  6
CONTINUOUS
 62
     7
 10
150.4880695621415
 20
158.70434025227041
 30
0.0
 11
150.4880695621415
 21
159.5847054978791
 31
0.0
  0
LINE
  5
25F
  8
1
  6
CONTINUOUS
 62
     7
 10
152.46889136475991
 20
158.37420328516819
 30
0.0
 11
150.81820652924441
 21
158.37420328516819
 31
0.0
  0
LINE
  5
260
  8
1
  6
CONTINUOUS
 62
     7
 10
153.1291652989664
 20
158.48838900386741
 30
0.0
 11
152.46889136475991
 21
158.37420328516819
 31
0.0
  0
LINE
  5
261
  8
1
  6
CONTINUOUS
 62
     7
 10
160.5022242309295
 20
158.70434025227041
 30
0.0
 11
154.37789396664829
 21
158.70434025227041
 31
0.0
  0
LINE
  5
262
  8
1
  6
CONTINUOUS
 62
     7
 10
160.5022242309295
 20
150.12297910759469
 30
0.0
 11
160.5022242309295
 21
158.70434025227041
 31
0.0
  0
LINE
  5
263
  8
1
  6
CONTINUOUS
 62
     7
 10
154.37789396664829
 20
150.12297910759469
 30
0.0
 11
160.5022242309295
 21
150.12297910759469
 31
0.0
  0
LINE
  5
264
  8
1
  6
CONTINUOUS
 62
     7
 10
160.5022242309295
 20
149.24261386198819
 30
0.0
 11
160.5022242309295
 21
150.12297910759469
 31
0.0
  0
LINE
  5
265
  8
1
  6
CONTINUOUS
 62
     7
 10
153.1291652989664
 20
150.3389303559992
 30
0.0
 11
154.37789396664829
 21
150.12297910759469
 31
0.0
  0
LINE
  5
266
  8
1
  6
CONTINUOUS
 62
     7
 10
150.81820652924441
 20
150.45311607469841
 30
0.0
 11
152.46889136475991
 21
150.45311607469841
 31
0.0
  0
LINE
  5
267
  8
1
  6
CONTINUOUS
 62
     7
 10
150.4880695621415
 20
149.24261386198819
 30
0.0
 11
150.4880695621415
 21
150.12297910759469
 31
0.0
  0
LINE
  5
268
  8
1
  6
CONTINUOUS
 62
     7
 10
152.46889136475991
 20
148.91247689488421
 30
0.0
 11
150.81820652924441
 21
148.91247689488421
 31
0.0
  0
LINE
  5
269
  8
1
  6
CONTINUOUS
 62
     7
 10
153.1291652989664
 20
149.0266626135847
 30
0.0
 11
152.46889136475991
 21
148.91247689488421
 31
0.0
  0
LINE
  5
26A
  8
1
  6
CONTINUOUS
 62
     7
 10
160.5022242309295
 20
149.24261386198819
 30
0.0
 11
154.37789396664829
 21
149.24261386198819
 31
0.0
  0
LINE
  5
26B
  8
1
  6
CONTINUOUS
 62
     7
 10
152.46889136475991
 20
150.45311607469841
 30
0.0
 11
152.46889136475991
 21
158.37420328516819
 31
0.0
  0
LINE
  5
26C
  8
1
  6
CONTINUOUS
 62
     7
 10
153.1291652989664
 20
150.3389303559992
 30
0.0
 11
153.1291652989664
 21
158.48838900386741
 31
0.0
  0
LINE
  5
26D
  8
1
  6
CONTINUOUS
 62
     7
 10
154.05606116311259
 20
158.6486834891173
 30
0.0
 11
153.1291652989664
 21
158.48838900386741
 31
0.0
  0
LINE
  5
26E
  8
1
  6
CONTINUOUS
 62
     7
 10
152.46889136475991
 20
150.45311607469841
 30
0.0
 11
153.1291652989664
 21
150.3389303559992
 31
0.0
  0
LINE
  5
26F
  8
1
  6
CONTINUOUS
 62
     7
 10
154.37789396664829
 20
149.24261386198819
 30
0.0
 11
153.1291652989664
 21
149.0266626135847
 31
0.0
  0
LINE
  5
270
  8
1
  6
CONTINUOUS
 62
     7
 10
154.37789396664829
 20
158.70434025227041
 30
0.0
 11
154.05606116311259
 21
158.6486834891173
 31
0.0
  0
LINE
  5
271
  8
1
  6
CONTINUOUS
 62
     7
 10
152.46889136475991
 20
144.95083328964989
 30
0.0
 11
152.46889136475991
 21
148.91247689488421
 31
0.0
  0
LINE
  5
272
  8
1
  6
CONTINUOUS
 62
     7
 10
153.1291652989664
 20
144.95083328964989
 30
0.0
 11
153.1291652989664
 21
149.0266626135847
 31
0.0
  0
LINE
  5
273
  8
1
  6
CONTINUOUS
 62
     7
 10
160.5022242309295
 20
144.95083328964989
 30
0.0
 11
160.5022242309295
 21
149.24261386198819
 31
0.0
  0
LINE
  5
274
  8
1
  6
DASHED
 62
     2
 10
150.4880695621415
 20
90.153187955960959
 30
0.0
 11
150.4880695621415
 21
100.9376622146558
 31
0.0
  0
LINE
  5
275
  8
1
  6
DASHED
 62
     2
 10
150.81820652924441
 20
101.2677991817587
 30
0.0
 11
161.00843424715359
 21
101.2677991817587
 31
0.0
  0
LINE
  5
276
  8
1
  6
DASHED
 62
     2
 10
161.00843424715359
 20
89.823050988857631
 30
0.0
 11
150.81820652924441
 21
89.823050988857631
 31
0.0
  0
LINE
  5
277
  8
1
  6
DASHED
 62
     2
 10
153.29423378251619
 20
91.913918447176727
 30
0.0
 11
153.40427943821729
 21
91.913918447176727
 31
0.0
  0
LINE
  5
278
  8
1
  6
DASHED
 62
     2
 10
153.6243707496196
 20
92.13400975857823
 30
0.0
 11
153.6243707496196
 21
92.244055414279174
 31
0.0
  0
LINE
  5
279
  8
1
  6
DASHED
 62
     2
 10
153.6243707496196
 20
92.244055414279174
 30
0.0
 11
153.84446206102129
 21
92.244055414279174
 31
0.0
  0
LINE
  5
27A
  8
1
  6
DASHED
 62
     2
 10
153.84446206102129
 20
92.244055414279174
 30
0.0
 11
153.84446206102129
 21
92.13400975857823
 31
0.0
  0
LINE
  5
27B
  8
1
  6
DASHED
 62
     2
 10
154.0645533724236
 20
91.913918447176727
 30
0.0
 11
154.1745990281245
 21
91.913918447176727
 31
0.0
  0
LINE
  5
27C
  8
1
  6
DASHED
 62
     2
 10
154.1745990281245
 20
91.913918447176727
 30
0.0
 11
154.1745990281245
 21
91.693827135774754
 31
0.0
  0
LINE
  5
27D
  8
1
  6
DASHED
 62
     2
 10
154.1745990281245
 20
91.693827135774754
 30
0.0
 11
154.0645533724236
 21
91.693827135774754
 31
0.0
  0
LINE
  5
27E
  8
1
  6
DASHED
 62
     2
 10
153.84446206102129
 20
91.473735824373051
 30
0.0
 11
153.84446206102129
 21
91.363690168671823
 31
0.0
  0
LINE
  5
27F
  8
1
  6
DASHED
 62
     2
 10
153.84446206102129
 20
91.363690168671823
 30
0.0
 11
153.6243707496196
 21
91.363690168671823
 31
0.0
  0
LINE
  5
280
  8
1
  6
DASHED
 62
     2
 10
153.6243707496196
 20
91.363690168671823
 30
0.0
 11
153.6243707496196
 21
91.473735824373051
 31
0.0
  0
LINE
  5
281
  8
1
  6
DASHED
 62
     2
 10
153.40427943821729
 20
91.693827135774754
 30
0.0
 11
153.29423378251619
 21
91.693827135774754
 31
0.0
  0
LINE
  5
282
  8
1
  6
DASHED
 62
     2
 10
153.29423378251619
 20
91.693827135774754
 30
0.0
 11
153.29423378251619
 21
91.913918447176727
 31
0.0
  0
LINE
  5
283
  8
1
  6
CONTINUOUS
 62
     7
 10
229.7141424088104
 20
153.97457705712969
 30
0.0
 11
229.7141424088104
 21
149.6827964847914
 31
0.0
  0
LINE
  5
284
  8
1
  6
CONTINUOUS
 62
     7
 10
236.16030547662979
 20
158.6508834891176
 30
0.0
 11
235.83847267309429
 21
158.70654025227051
 31
0.0
  0
LINE
  5
285
  8
1
  6
CONTINUOUS
 62
     7
 10
237.0872013407764
 20
158.4905890038674
 30
0.0
 11
236.16030547662979
 21
158.6508834891176
 31
0.0
  0
LINE
  5
286
  8
1
  6
CONTINUOUS
 62
     7
 10
237.0872013407764
 20
158.4905890038674
 30
0.0
 11
237.0872013407764
 21
150.3389303559992
 31
0.0
  0
LINE
  5
287
  8
1
  6
CONTINUOUS
 62
     7
 10
237.74747527498121
 20
158.3764032851681
 30
0.0
 11
237.74747527498121
 21
150.45311607469799
 31
0.0
  0
LINE
  5
288
  8
1
  6
CONTINUOUS
 62
     7
 10
229.7141424088104
 20
158.70654025227051
 30
0.0
 11
229.7141424088104
 21
150.12297910759469
 31
0.0
  0
LINE
  5
289
  8
1
  6
CONTINUOUS
 62
     7
 10
235.83847267309429
 20
158.70654025227051
 30
0.0
 11
229.7141424088104
 21
158.70654025227051
 31
0.0
  0
LINE
  5
28A
  8
1
  6
CONTINUOUS
 62
     7
 10
237.74747527498121
 20
158.3764032851681
 30
0.0
 11
237.0872013407764
 21
158.4905890038674
 31
0.0
  0
LINE
  5
28B
  8
1
  6
CONTINUOUS
 62
     7
 10
239.3981601104951
 20
158.3764032851681
 30
0.0
 11
237.74747527498121
 21
158.3764032851681
 31
0.0
  0
LINE
  5
28C
  8
1
  6
CONTINUOUS
 62
     7
 10
239.72829707759831
 20
159.58690549787909
 30
0.0
 11
239.72829707759831
 21
158.70654025227051
 31
0.0
  0
LINE
  5
28D
  8
1
  6
CONTINUOUS
 62
     7
 10
229.20793239258569
 20
159.91704246498051
 30
0.0
 11
239.3981601104951
 21
159.91704246498051
 31
0.0
  0
LINE
  5
28E
  8
1
  6
CONTINUOUS
 62
     7
 10
234.11596863685
 20
156.17549017114811
 30
0.0
 11
233.0994104137757
 21
156.17549017114811
 31
0.0
  0
LINE
  5
28F
  8
1
  6
CONTINUOUS
 62
     7
 10
235.1325268599233
 20
156.17549017114811
 30
0.0
 11
234.11596863685
 21
156.17549017114811
 31
0.0
  0
LINE
  5
290
  8
1
  6
CONTINUOUS
 62
     7
 10
236.1490850829978
 20
154.4147596799337
 30
0.0
 11
235.1325268599233
 21
156.17549017114811
 31
0.0
  0
LINE
  5
291
  8
1
  6
CONTINUOUS
 62
     7
 10
235.1325268599233
 20
152.65402918871729
 30
0.0
 11
236.1490850829978
 21
154.4147596799337
 31
0.0
  0
LINE
  5
292
  8
1
  6
CONTINUOUS
 62
     7
 10
233.0994104137757
 20
152.65402918871729
 30
0.0
 11
235.1325268599233
 21
152.65402918871729
 31
0.0
  0
LINE
  5
293
  8
1
  6
CONTINUOUS
 62
     7
 10
232.08285219070271
 20
154.4147596799337
 30
0.0
 11
233.0994104137757
 21
152.65402918871729
 31
0.0
  0
LINE
  5
294
  8
1
  6
CONTINUOUS
 62
     7
 10
233.0994104137757
 20
156.17549017114811
 30
0.0
 11
232.08285219070271
 21
154.4147596799337
 31
0.0
  0
LINE
  5
295
  8
1
  6
CONTINUOUS
 62
     7
 10
235.83847267309429
 20
140.65905271731199
 30
0.0
 11
236.16030547662979
 21
140.71470948046581
 31
0.0
  0
LINE
  5
296
  8
1
  6
CONTINUOUS
 62
     7
 10
235.83847267309429
 20
150.12297910759469
 30
0.0
 11
237.0872013407764
 21
150.3389303559976
 31
0.0
  0
LINE
  5
297
  8
1
  6
CONTINUOUS
 62
     7
 10
237.74747527498121
 20
148.91247689488489
 30
0.0
 11
237.0872013407764
 21
149.02666261358419
 31
0.0
  0
LINE
  5
298
  8
1
  6
CONTINUOUS
 62
     7
 10
236.16030547662979
 20
140.71470948046581
 30
0.0
 11
237.0872013407764
 21
140.87500396571551
 31
0.0
  0
LINE
  5
299
  8
1
  6
CONTINUOUS
 62
     7
 10
237.0872013407764
 20
149.02666261358419
 30
0.0
 11
237.0872013407764
 21
140.87500396571551
 31
0.0
  0
LINE
  5
29A
  8
1
  6
CONTINUOUS
 62
     7
 10
237.74747527498121
 20
148.91247689488489
 30
0.0
 11
237.74747527498121
 21
140.98918968441509
 31
0.0
  0
LINE
  5
29B
  8
1
  6
CONTINUOUS
 62
     7
 10
229.7141424088104
 20
149.6827964847914
 30
0.0
 11
229.7141424088104
 21
145.3910159124537
 31
0.0
  0
LINE
  5
29C
  8
1
  6
CONTINUOUS
 62
     7
 10
229.7141424088104
 20
150.12297910759469
 30
0.0
 11
235.83847267309429
 21
150.12297910759469
 31
0.0
  0
LINE
  5
29D
  8
1
  6
CONTINUOUS
 62
     7
 10
237.0872013407764
 20
150.3389303559976
 30
0.0
 11
237.74747527498121
 21
150.45311607469799
 31
0.0
  0
LINE
  5
29E
  8
1
  6
CONTINUOUS
 62
     7
 10
237.74747527498121
 20
150.45311607469799
 30
0.0
 11
239.3981601104951
 21
150.45311607469799
 31
0.0
  0
LINE
  5
29F
  8
1
  6
CONTINUOUS
 62
     7
 10
239.72829707759831
 20
150.12297910759469
 30
0.0
 11
239.72829707759831
 21
149.24261386198799
 31
0.0
  0
LINE
  5
2A0
  8
1
  6
CONTINUOUS
 62
     7
 10
239.3981601104951
 20
148.91247689488489
 30
0.0
 11
237.74747527498121
 21
148.91247689488489
 31
0.0
  0
LINE
  5
2A1
  8
1
  6
CONTINUOUS
 62
     7
 10
237.0872013407764
 20
149.02666261358419
 30
0.0
 11
235.83847267309429
 21
149.24261386198799
 31
0.0
  0
LINE
  5
2A2
  8
1
  6
CONTINUOUS
 62
     7
 10
229.7141424088104
 20
150.12297910759469
 30
0.0
 11
229.7141424088104
 21
149.24261386198799
 31
0.0
  0
LINE
  5
2A3
  8
1
  6
CONTINUOUS
 62
     7
 10
235.83847267309429
 20
149.24261386198799
 30
0.0
 11
229.7141424088104
 21
149.24261386198799
 31
0.0
  0
LINE
  5
2A4
  8
1
  6
CONTINUOUS
 62
     7
 10
229.7141424088104
 20
149.24261386198799
 30
0.0
 11
229.7141424088104
 21
140.65905271731199
 31
0.0
  0
LINE
  5
2A5
  8
1
  6
CONTINUOUS
 62
     7
 10
229.7141424088104
 20
140.65905271731199
 30
0.0
 11
235.83847267309429
 21
140.65905271731199
 31
0.0
  0
LINE
  5
2A6
  8
1
  6
CONTINUOUS
 62
     7
 10
237.0872013407764
 20
140.87500396571551
 30
0.0
 11
237.74747527498121
 21
140.98918968441509
 31
0.0
  0
LINE
  5
2A7
  8
1
  6
CONTINUOUS
 62
     7
 10
237.74747527498121
 20
140.98918968441509
 30
0.0
 11
239.3981601104951
 21
140.98918968441509
 31
0.0
  0
LINE
  5
2A8
  8
1
  6
CONTINUOUS
 62
     7
 10
239.72829707759831
 20
140.65905271731199
 30
0.0
 11
239.72829707759831
 21
139.77868747170521
 31
0.0
  0
LINE
  5
2A9
  8
1
  6
CONTINUOUS
 62
     7
 10
239.3981601104951
 20
139.44855050460191
 30
0.0
 11
229.20793239258569
 21
139.44855050460191
 31
0.0
  0
LINE
  5
2AA
  8
1
  6
CONTINUOUS
 62
     7
 10
233.0994104137757
 20
143.19010279843431
 30
0.0
 11
234.11596863685
 21
143.19010279843431
 31
0.0
  0
LINE
  5
2AB
  8
1
  6
CONTINUOUS
 62
     7
 10
234.11596863685
 20
143.19010279843431
 30
0.0
 11
235.1325268599233
 21
143.19010279843431
 31
0.0
  0
LINE
  5
2AC
  8
1
  6
CONTINUOUS
 62
     7
 10
235.1325268599233
 20
143.19010279843431
 30
0.0
 11
236.1490850829978
 21
144.9508332896504
 31
0.0
  0
LINE
  5
2AD
  8
1
  6
CONTINUOUS
 62
     7
 10
236.1490850829978
 20
144.9508332896504
 30
0.0
 11
235.1325268599233
 21
146.71156378086559
 31
0.0
  0
LINE
  5
2AE
  8
1
  6
CONTINUOUS
 62
     7
 10
235.1325268599233
 20
146.71156378086559
 30
0.0
 11
233.0994104137757
 21
146.71156378086559
 31
0.0
  0
LINE
  5
2AF
  8
1
  6
CONTINUOUS
 62
     7
 10
233.0994104137757
 20
146.71156378086559
 30
0.0
 11
232.08285219070271
 21
144.9508332896504
 31
0.0
  0
LINE
  5
2B0
  8
1
  6
CONTINUOUS
 62
     7
 10
232.08285219070271
 20
144.9508332896504
 30
0.0
 11
233.0994104137757
 21
143.19010279843431
 31
0.0
  0
LINE
  5
2B1
  8
1
  6
CONTINUOUS
 62
     7
 10
241.3079111703633
 20
161.34185352853919
 30
0.0
 11
238.0078697778396
 21
161.34185352853919
 31
0.0
  0
LINE
  5
2B2
  8
1
  6
CONTINUOUS
 62
     7
 10
241.3079111703633
 20
163.54294926536301
 30
0.0
 11
241.3079111703633
 21
167.01901805130689
 31
0.0
  0
LINE
  5
2B3
  8
1
  6
CONTINUOUS
 62
     7
 10
241.3079111703633
 20
163.54294926536301
 30
0.0
 11
238.0078697778396
 21
163.54294926536301
 31
0.0
  0
LINE
  5
2B4
  8
1
  6
CONTINUOUS
 62
     7
 10
241.3079111703633
 20
135.60264370421979
 30
0.0
 11
238.0078697778396
 21
135.60264370421979
 31
0.0
  0
LINE
  5
2B5
  8
1
  6
CONTINUOUS
 62
     7
 10
241.30791117036301
 20
137.80373944104431
 30
0.0
 11
241.30791117036199
 21
139.9852072329337
 31
0.0
  0
LINE
  5
2B6
  8
1
  6
CONTINUOUS
 62
     7
 10
241.30791117036301
 20
137.80373944104431
 30
0.0
 11
238.0078697778396
 21
137.80373944104431
 31
0.0
  0
LINE
  5
2B7
  8
1
  6
CONTINUOUS
 62
     7
 10
148.90845546937931
 20
135.60264370421979
 30
0.0
 11
148.90845546937931
 21
132.3465749182765
 31
0.0
  0
LINE
  5
2B8
  8
1
  6
CONTINUOUS
 62
     7
 10
148.90845546937931
 20
137.80373944104431
 30
0.0
 11
152.2084968619028
 21
137.80373944104431
 31
0.0
  0
LINE
  5
2B9
  8
1
  6
CONTINUOUS
 62
     7
 10
148.90845546937931
 20
161.34185352853919
 30
0.0
 11
152.2084968619028
 21
161.34185352853919
 31
0.0
  0
LINE
  5
2BA
  8
1
  6
CONTINUOUS
 62
     7
 10
148.90845546937931
 20
163.54294926536301
 30
0.0
 11
152.2084968619028
 21
163.54294926536301
 31
0.0
  0
LINE
  5
2BB
  8
1
  6
DASHED
 62
     2
 10
161.00843424715359
 20
101.2677991817587
 30
0.0
 11
161.00843424715359
 21
105.4495340983952
 31
0.0
  0
LINE
  5
2BC
  8
1
  6
DASHED
 62
     2
 10
161.00843424715359
 20
101.2677991817587
 30
0.0
 11
161.00843424715359
 21
89.823050988857631
 31
0.0
  0
LINE
  5
2BD
  8
1
  6
DASHED
 62
     2
 10
161.00843424715359
 20
89.823050988857631
 30
0.0
 11
161.00843424715359
 21
77.37669893112124
 31
0.0
  0
LINE
  5
2BE
  8
1
  6
DASHED
 62
     2
 10
229.20793239258569
 20
105.4495340983952
 30
0.0
 11
229.20793239258569
 21
77.37669893112124
 31
0.0
  0
LINE
  5
2BF
  8
1
  6
CONTINUOUS
 62
     7
 10
209.96434683950091
 20
89.713005333156872
 30
0.0
 11
209.96434683950091
 21
94.334922872597204
 31
0.0
  0
LINE
  5
2C0
  8
1
  6
CONTINUOUS
 62
     7
 10
210.62462077370671
 20
94.334922872597204
 30
0.0
 11
210.62462077370671
 21
89.713005333156872
 31
0.0
  0
LINE
  5
2C1
  8
1
  6
CONTINUOUS
 62
     7
 10
208.6437989710883
 20
89.713005333156872
 30
0.0
 11
208.6437989710883
 21
94.334922872597204
 31
0.0
  0
LINE
  5
2C2
  8
1
  6
CONTINUOUS
 62
     7
 10
209.30407290529459
 20
94.334922872597204
 30
0.0
 11
209.30407290529459
 21
89.713005333156872
 31
0.0
  0
LINE
  5
2C3
  8
1
  6
CONTINUOUS
 62
     7
 10
207.3232511026776
 20
89.713005333156872
 30
0.0
 11
207.3232511026776
 21
94.334922872597204
 31
0.0
  0
LINE
  5
2C4
  8
1
  6
CONTINUOUS
 62
     7
 10
207.98352503688309
 20
94.334922872597204
 30
0.0
 11
207.98352503688309
 21
89.713005333156872
 31
0.0
  0
LINE
  5
2C5
  8
1
  6
CONTINUOUS
 62
     7
 10
206.00270323426651
 20
89.713005333156872
 30
0.0
 11
206.00270323426651
 21
94.334922872597204
 31
0.0
  0
LINE
  5
2C6
  8
1
  6
CONTINUOUS
 62
     7
 10
206.66297716847151
 20
94.334922872597204
 30
0.0
 11
206.66297716847151
 21
89.713005333156872
 31
0.0
  0
LINE
  5
2C7
  8
1
  6
CONTINUOUS
 62
     7
 10
204.68215536585419
 20
89.713005333156872
 30
0.0
 11
204.68215536585419
 21
94.334922872597204
 31
0.0
  0
LINE
  5
2C8
  8
1
  6
CONTINUOUS
 62
     7
 10
205.34242930006019
 20
94.334922872597204
 30
0.0
 11
205.34242930006019
 21
89.713005333156872
 31
0.0
  0
LINE
  5
2C9
  8
1
  6
CONTINUOUS
 62
     7
 10
203.3616074974432
 20
89.713005333156872
 30
0.0
 11
203.3616074974432
 21
94.334922872597204
 31
0.0
  0
LINE
  5
2CA
  8
1
  6
CONTINUOUS
 62
     7
 10
204.02188143164821
 20
94.334922872597204
 30
0.0
 11
204.02188143164821
 21
89.713005333156872
 31
0.0
  0
LINE
  5
2CB
  8
1
  6
CONTINUOUS
 62
     7
 10
202.04105962903091
 20
89.713005333156872
 30
0.0
 11
202.04105962903091
 21
94.334922872597204
 31
0.0
  0
LINE
  5
2CC
  8
1
  6
CONTINUOUS
 62
     7
 10
202.70133356323711
 20
94.334922872597204
 30
0.0
 11
202.70133356323711
 21
89.713005333156872
 31
0.0
  0
LINE
  5
2CD
  8
1
  6
CONTINUOUS
 62
     7
 10
200.72051176061979
 20
89.713005333156872
 30
0.0
 11
200.72051176061979
 21
94.334922872597204
 31
0.0
  0
LINE
  5
2CE
  8
1
  6
CONTINUOUS
 62
     7
 10
201.38078569482639
 20
94.334922872597204
 30
0.0
 11
201.38078569482639
 21
89.713005333156872
 31
0.0
  0
LINE
  5
2CF
  8
1
  6
CONTINUOUS
 62
     7
 10
199.39996389220781
 20
89.713005333156872
 30
0.0
 11
199.39996389220781
 21
94.334922872597204
 31
0.0
  0
LINE
  5
2D0
  8
1
  6
CONTINUOUS
 62
     7
 10
200.06023782641361
 20
94.334922872597204
 30
0.0
 11
200.06023782641361
 21
89.713005333156872
 31
0.0
  0
LINE
  5
2D1
  8
1
  6
CONTINUOUS
 62
     7
 10
198.0794160237968
 20
89.713005333156872
 30
0.0
 11
198.0794160237968
 21
94.334922872597204
 31
0.0
  0
LINE
  5
2D2
  8
1
  6
CONTINUOUS
 62
     7
 10
198.739689958003
 20
94.334922872597204
 30
0.0
 11
198.739689958003
 21
89.713005333156872
 31
0.0
  0
LINE
  5
2D3
  8
1
  6
CONTINUOUS
 62
     7
 10
196.7588681553857
 20
89.713005333156872
 30
0.0
 11
196.7588681553857
 21
94.334922872597204
 31
0.0
  0
LINE
  5
2D4
  8
1
  6
CONTINUOUS
 62
     7
 10
197.41914208959051
 20
94.334922872597204
 30
0.0
 11
197.41914208959051
 21
89.713005333156872
 31
0.0
  0
LINE
  5
2D5
  8
1
  6
CONTINUOUS
 62
     7
 10
195.43832028697321
 20
89.713005333156872
 30
0.0
 11
195.43832028697321
 21
94.334922872597204
 31
0.0
  0
LINE
  5
2D6
  8
1
  6
CONTINUOUS
 62
     7
 10
196.0985942211797
 20
94.334922872597204
 30
0.0
 11
196.0985942211797
 21
89.713005333156872
 31
0.0
  0
LINE
  5
2D7
  8
1
  6
CONTINUOUS
 62
     7
 10
179.5917458660337
 20
89.713005333156872
 30
0.0
 11
179.5917458660337
 21
94.334922872597204
 31
0.0
  0
LINE
  5
2D8
  8
1
  6
CONTINUOUS
 62
     7
 10
180.25201980024011
 20
94.334922872597204
 30
0.0
 11
180.25201980024011
 21
89.713005333156872
 31
0.0
  0
LINE
  5
2D9
  8
1
  6
CONTINUOUS
 62
     7
 10
180.91229373444651
 20
89.713005333156872
 30
0.0
 11
180.91229373444651
 21
94.334922872597204
 31
0.0
  0
LINE
  5
2DA
  8
1
  6
CONTINUOUS
 62
     7
 10
181.57256766865251
 20
94.334922872597204
 30
0.0
 11
181.57256766865251
 21
89.713005333156872
 31
0.0
  0
LINE
  5
2DB
  8
1
  6
CONTINUOUS
 62
     7
 10
182.2328416028588
 20
89.713005333156872
 30
0.0
 11
182.2328416028588
 21
94.334922872597204
 31
0.0
  0
LINE
  5
2DC
  8
1
  6
CONTINUOUS
 62
     7
 10
182.8931155370633
 20
94.334922872597204
 30
0.0
 11
182.8931155370633
 21
89.713005333156872
 31
0.0
  0
LINE
  5
2DD
  8
1
  6
CONTINUOUS
 62
     7
 10
183.55338947126961
 20
89.713005333156872
 30
0.0
 11
183.55338947126961
 21
94.334922872597204
 31
0.0
  0
LINE
  5
2DE
  8
1
  6
CONTINUOUS
 62
     7
 10
184.21366340547581
 20
94.334922872597204
 30
0.0
 11
184.21366340547581
 21
89.713005333156872
 31
0.0
  0
LINE
  5
2DF
  8
1
  6
CONTINUOUS
 62
     7
 10
184.87393733968059
 20
89.713005333156872
 30
0.0
 11
184.87393733968059
 21
94.334922872597204
 31
0.0
  0
LINE
  5
2E0
  8
1
  6
CONTINUOUS
 62
     7
 10
185.53421127388691
 20
94.334922872597204
 30
0.0
 11
185.53421127388691
 21
89.713005333156872
 31
0.0
  0
LINE
  5
2E1
  8
1
  6
CONTINUOUS
 62
     7
 10
186.19448520809291
 20
89.713005333156872
 30
0.0
 11
186.19448520809291
 21
94.334922872597204
 31
0.0
  0
LINE
  5
2E2
  8
1
  6
CONTINUOUS
 62
     7
 10
186.85475914229889
 20
94.334922872597204
 30
0.0
 11
186.85475914229889
 21
89.713005333156872
 31
0.0
  0
LINE
  5
2E3
  8
1
  6
CONTINUOUS
 62
     7
 10
187.5150330765037
 20
89.713005333156872
 30
0.0
 11
187.5150330765037
 21
94.334922872597204
 31
0.0
  0
LINE
  5
2E4
  8
1
  6
CONTINUOUS
 62
     7
 10
188.17530701070999
 20
94.334922872597204
 30
0.0
 11
188.17530701070999
 21
89.713005333156872
 31
0.0
  0
LINE
  5
2E5
  8
1
  6
CONTINUOUS
 62
     7
 10
188.83558094491599
 20
89.713005333156872
 30
0.0
 11
188.83558094491599
 21
94.334922872597204
 31
0.0
  0
LINE
  5
2E6
  8
1
  6
CONTINUOUS
 62
     7
 10
189.495854879121
 20
94.334922872597204
 30
0.0
 11
189.495854879121
 21
89.713005333156872
 31
0.0
  0
LINE
  5
2E7
  8
1
  6
CONTINUOUS
 62
     7
 10
190.15612881332731
 20
89.713005333156872
 30
0.0
 11
190.15612881332731
 21
94.334922872597204
 31
0.0
  0
LINE
  5
2E8
  8
1
  6
CONTINUOUS
 62
     7
 10
190.81640274753329
 20
94.334922872597204
 30
0.0
 11
190.81640274753329
 21
89.713005333156872
 31
0.0
  0
LINE
  5
2E9
  8
1
  6
CONTINUOUS
 62
     7
 10
191.47667668173929
 20
89.713005333156872
 30
0.0
 11
191.47667668173929
 21
94.334922872597204
 31
0.0
  0
LINE
  5
2EA
  8
1
  6
CONTINUOUS
 62
     7
 10
192.1369506159443
 20
94.334922872597204
 30
0.0
 11
192.1369506159443
 21
89.713005333156872
 31
0.0
  0
LINE
  5
2EB
  8
1
  6
CONTINUOUS
 62
     7
 10
192.7972245501503
 20
89.713005333156872
 30
0.0
 11
192.7972245501503
 21
94.334922872597204
 31
0.0
  0
LINE
  5
2EC
  8
1
  6
CONTINUOUS
 62
     7
 10
193.45749848435639
 20
94.334922872597204
 30
0.0
 11
193.45749848435639
 21
89.713005333156872
 31
0.0
  0
LINE
  5
2ED
  8
1
  6
CONTINUOUS
 62
     7
 10
194.11777241856089
 20
89.713005333156872
 30
0.0
 11
194.11777241856089
 21
94.334922872597204
 31
0.0
  0
LINE
  5
2EE
  8
1
  6
CONTINUOUS
 62
     7
 10
194.7780463527674
 20
94.334922872597204
 30
0.0
 11
194.7780463527674
 21
89.713005333156872
 31
0.0
  0
LINE
  5
2EF
  8
1
  6
CONTINUOUS
 62
     7
 10
209.96434683950091
 20
97.196109920822607
 30
0.0
 11
209.96434683950091
 21
101.818027460262
 31
0.0
  0
LINE
  5
2F0
  8
1
  6
CONTINUOUS
 62
     7
 10
210.62462077370671
 20
101.818027460262
 30
0.0
 11
210.62462077370671
 21
97.196109920822607
 31
0.0
  0
LINE
  5
2F1
  8
1
  6
CONTINUOUS
 62
     7
 10
208.6437989710883
 20
97.196109920822607
 30
0.0
 11
208.6437989710883
 21
101.818027460262
 31
0.0
  0
LINE
  5
2F2
  8
1
  6
CONTINUOUS
 62
     7
 10
209.30407290529459
 20
101.818027460262
 30
0.0
 11
209.30407290529459
 21
97.196109920822607
 31
0.0
  0
LINE
  5
2F3
  8
1
  6
CONTINUOUS
 62
     7
 10
207.3232511026776
 20
97.196109920822607
 30
0.0
 11
207.3232511026776
 21
101.818027460262
 31
0.0
  0
LINE
  5
2F4
  8
1
  6
CONTINUOUS
 62
     7
 10
207.98352503688309
 20
101.818027460262
 30
0.0
 11
207.98352503688309
 21
97.196109920822607
 31
0.0
  0
LINE
  5
2F5
  8
1
  6
CONTINUOUS
 62
     7
 10
206.00270323426651
 20
97.196109920822607
 30
0.0
 11
206.00270323426651
 21
101.818027460262
 31
0.0
  0
LINE
  5
2F6
  8
1
  6
CONTINUOUS
 62
     7
 10
206.66297716847151
 20
101.818027460262
 30
0.0
 11
206.66297716847151
 21
97.196109920822607
 31
0.0
  0
LINE
  5
2F7
  8
1
  6
CONTINUOUS
 62
     7
 10
204.68215536585419
 20
97.196109920822607
 30
0.0
 11
204.68215536585419
 21
101.818027460262
 31
0.0
  0
LINE
  5
2F8
  8
1
  6
CONTINUOUS
 62
     7
 10
205.34242930006019
 20
101.818027460262
 30
0.0
 11
205.34242930006019
 21
97.196109920822607
 31
0.0
  0
LINE
  5
2F9
  8
1
  6
CONTINUOUS
 62
     7
 10
203.3616074974432
 20
97.196109920822607
 30
0.0
 11
203.3616074974432
 21
101.818027460262
 31
0.0
  0
LINE
  5
2FA
  8
1
  6
CONTINUOUS
 62
     7
 10
204.02188143164821
 20
101.818027460262
 30
0.0
 11
204.02188143164821
 21
97.196109920822607
 31
0.0
  0
LINE
  5
2FB
  8
1
  6
CONTINUOUS
 62
     7
 10
202.04105962903091
 20
97.196109920822607
 30
0.0
 11
202.04105962903091
 21
101.818027460262
 31
0.0
  0
LINE
  5
2FC
  8
1
  6
CONTINUOUS
 62
     7
 10
202.70133356323711
 20
101.818027460262
 30
0.0
 11
202.70133356323711
 21
97.196109920822607
 31
0.0
  0
LINE
  5
2FD
  8
1
  6
CONTINUOUS
 62
     7
 10
200.72051176061979
 20
97.196109920822607
 30
0.0
 11
200.72051176061979
 21
101.818027460262
 31
0.0
  0
LINE
  5
2FE
  8
1
  6
CONTINUOUS
 62
     7
 10
201.38078569482639
 20
101.818027460262
 30
0.0
 11
201.38078569482639
 21
97.196109920822607
 31
0.0
  0
LINE
  5
2FF
  8
1
  6
CONTINUOUS
 62
     7
 10
199.39996389220781
 20
97.196109920822607
 30
0.0
 11
199.39996389220781
 21
101.818027460262
 31
0.0
  0
LINE
  5
300
  8
1
  6
CONTINUOUS
 62
     7
 10
200.06023782641361
 20
101.818027460262
 30
0.0
 11
200.06023782641361
 21
97.196109920822607
 31
0.0
  0
LINE
  5
301
  8
1
  6
CONTINUOUS
 62
     7
 10
198.0794160237968
 20
97.196109920822607
 30
0.0
 11
198.0794160237968
 21
101.818027460262
 31
0.0
  0
LINE
  5
302
  8
1
  6
CONTINUOUS
 62
     7
 10
198.739689958003
 20
101.818027460262
 30
0.0
 11
198.739689958003
 21
97.196109920822607
 31
0.0
  0
LINE
  5
303
  8
1
  6
CONTINUOUS
 62
     7
 10
196.7588681553857
 20
97.196109920822607
 30
0.0
 11
196.7588681553857
 21
101.818027460262
 31
0.0
  0
LINE
  5
304
  8
1
  6
CONTINUOUS
 62
     7
 10
197.41914208959051
 20
101.818027460262
 30
0.0
 11
197.41914208959051
 21
97.196109920822607
 31
0.0
  0
LINE
  5
305
  8
1
  6
CONTINUOUS
 62
     7
 10
195.43832028697321
 20
97.196109920822607
 30
0.0
 11
195.43832028697321
 21
101.818027460262
 31
0.0
  0
LINE
  5
306
  8
1
  6
CONTINUOUS
 62
     7
 10
196.0985942211797
 20
101.818027460262
 30
0.0
 11
196.0985942211797
 21
97.196109920822607
 31
0.0
  0
LINE
  5
307
  8
1
  6
CONTINUOUS
 62
     7
 10
179.5917458660337
 20
97.196109920822607
 30
0.0
 11
179.5917458660337
 21
101.818027460262
 31
0.0
  0
LINE
  5
308
  8
1
  6
CONTINUOUS
 62
     7
 10
180.25201980024011
 20
101.818027460262
 30
0.0
 11
180.25201980024011
 21
97.196109920822607
 31
0.0
  0
LINE
  5
309
  8
1
  6
CONTINUOUS
 62
     7
 10
180.91229373444651
 20
97.196109920822607
 30
0.0
 11
180.91229373444651
 21
101.818027460262
 31
0.0
  0
LINE
  5
30A
  8
1
  6
CONTINUOUS
 62
     7
 10
181.57256766865251
 20
101.818027460262
 30
0.0
 11
181.57256766865251
 21
97.196109920822607
 31
0.0
  0
LINE
  5
30B
  8
1
  6
CONTINUOUS
 62
     7
 10
182.2328416028588
 20
97.196109920822607
 30
0.0
 11
182.2328416028588
 21
101.818027460262
 31
0.0
  0
LINE
  5
30C
  8
1
  6
CONTINUOUS
 62
     7
 10
182.8931155370633
 20
101.818027460262
 30
0.0
 11
182.8931155370633
 21
97.196109920822607
 31
0.0
  0
LINE
  5
30D
  8
1
  6
CONTINUOUS
 62
     7
 10
183.55338947126961
 20
97.196109920822607
 30
0.0
 11
183.55338947126961
 21
101.818027460262
 31
0.0
  0
LINE
  5
30E
  8
1
  6
CONTINUOUS
 62
     7
 10
184.21366340547581
 20
101.818027460262
 30
0.0
 11
184.21366340547581
 21
97.196109920822607
 31
0.0
  0
LINE
  5
30F
  8
1
  6
CONTINUOUS
 62
     7
 10
184.87393733968059
 20
97.196109920822607
 30
0.0
 11
184.87393733968059
 21
101.818027460262
 31
0.0
  0
LINE
  5
310
  8
1
  6
CONTINUOUS
 62
     7
 10
185.53421127388691
 20
101.818027460262
 30
0.0
 11
185.53421127388691
 21
97.196109920822607
 31
0.0
  0
LINE
  5
311
  8
1
  6
CONTINUOUS
 62
     7
 10
186.19448520809291
 20
97.196109920822607
 30
0.0
 11
186.19448520809291
 21
101.818027460262
 31
0.0
  0
LINE
  5
312
  8
1
  6
CONTINUOUS
 62
     7
 10
186.85475914229889
 20
101.818027460262
 30
0.0
 11
186.85475914229889
 21
97.196109920822607
 31
0.0
  0
LINE
  5
313
  8
1
  6
CONTINUOUS
 62
     7
 10
187.5150330765037
 20
97.196109920822607
 30
0.0
 11
187.5150330765037
 21
101.818027460262
 31
0.0
  0
LINE
  5
314
  8
1
  6
CONTINUOUS
 62
     7
 10
188.17530701070999
 20
101.818027460262
 30
0.0
 11
188.17530701070999
 21
97.196109920822607
 31
0.0
  0
LINE
  5
315
  8
1
  6
CONTINUOUS
 62
     7
 10
188.83558094491599
 20
97.196109920822607
 30
0.0
 11
188.83558094491599
 21
101.818027460262
 31
0.0
  0
LINE
  5
316
  8
1
  6
CONTINUOUS
 62
     7
 10
189.495854879121
 20
101.818027460262
 30
0.0
 11
189.495854879121
 21
97.196109920822607
 31
0.0
  0
LINE
  5
317
  8
1
  6
CONTINUOUS
 62
     7
 10
190.15612881332731
 20
97.196109920822607
 30
0.0
 11
190.15612881332731
 21
101.818027460262
 31
0.0
  0
LINE
  5
318
  8
1
  6
CONTINUOUS
 62
     7
 10
190.81640274753329
 20
101.818027460262
 30
0.0
 11
190.81640274753329
 21
97.196109920822607
 31
0.0
  0
LINE
  5
319
  8
1
  6
CONTINUOUS
 62
     7
 10
191.47667668173929
 20
97.196109920822607
 30
0.0
 11
191.47667668173929
 21
101.818027460262
 31
0.0
  0
LINE
  5
31A
  8
1
  6
CONTINUOUS
 62
     7
 10
192.1369506159443
 20
101.818027460262
 30
0.0
 11
192.1369506159443
 21
97.196109920822607
 31
0.0
  0
LINE
  5
31B
  8
1
  6
CONTINUOUS
 62
     7
 10
192.7972245501503
 20
97.196109920822607
 30
0.0
 11
192.7972245501503
 21
101.818027460262
 31
0.0
  0
LINE
  5
31C
  8
1
  6
CONTINUOUS
 62
     7
 10
193.45749848435639
 20
101.818027460262
 30
0.0
 11
193.45749848435639
 21
97.196109920822607
 31
0.0
  0
LINE
  5
31D
  8
1
  6
CONTINUOUS
 62
     7
 10
194.11777241856089
 20
97.196109920822607
 30
0.0
 11
194.11777241856089
 21
101.818027460262
 31
0.0
  0
LINE
  5
31E
  8
1
  6
CONTINUOUS
 62
     7
 10
194.7780463527674
 20
101.818027460262
 30
0.0
 11
194.7780463527674
 21
97.196109920822607
 31
0.0
  0
LINE
  5
31F
  8
1
  6
CONTINUOUS
 62
     7
 10
195.10818331987039
 20
105.7136436720772
 30
0.0
 11
161.00843424715359
 21
105.7136436720772
 31
0.0
  0
LINE
  5
320
  8
1
  6
DOT_CENTER
 62
     3
 10
195.10818331987039
 20
105.7136436720772
 30
0.0
 11
195.10818331987039
 21
105.4495340983952
 31
0.0
  0
LINE
  5
321
  8
1
  6
CONTINUOUS
 62
     7
 10
170.01777382005051
 20
132.3465749182765
 30
0.0
 11
168.6972259516395
 21
132.3465749182765
 31
0.0
  0
LINE
  5
322
  8
1
  6
CONTINUOUS
 62
     7
 10
168.6972259516395
 20
132.3465749182765
 30
0.0
 11
170.01777382005051
 21
132.3465749182765
 31
0.0
  0
LINE
  5
323
  8
1
  6
CONTINUOUS
 62
     7
 10
170.01777382005051
 20
132.3465749182765
 30
0.0
 11
170.89813906565851
 21
132.3465749182765
 31
0.0
  0
LINE
  5
324
  8
1
  6
CONTINUOUS
 62
     7
 10
170.01777382005051
 20
132.3465749182765
 30
0.0
 11
170.89813906565851
 21
132.3465749182765
 31
0.0
  0
LINE
  5
325
  8
1
  6
CONTINUOUS
 62
     7
 10
170.89813906565851
 20
132.3465749182765
 30
0.0
 11
195.10818331987039
 21
132.3465749182765
 31
0.0
  0
LINE
  5
326
  8
1
  6
CONTINUOUS
 62
     7
 10
170.89813906565851
 20
167.01901805130689
 30
0.0
 11
168.6972259516395
 21
167.01901805130689
 31
0.0
  0
LINE
  5
327
  8
1
  6
CONTINUOUS
 62
     7
 10
168.6972259516395
 20
167.01901805130689
 30
0.0
 11
162.9893473611742
 21
167.01901805130689
 31
0.0
  0
LINE
  5
328
  8
1
  6
CONTINUOUS
 62
     7
 10
153.30523834808741
 20
77.112589357438424
 30
0.0
 11
148.90845546937931
 21
77.112589357438424
 31
0.0
  0
LINE
  5
329
  8
1
  6
CONTINUOUS
 62
     7
 10
148.90845546937931
 20
77.37669893112124
 30
0.0
 11
148.90845546937931
 21
104.349077541385
 31
0.0
  0
LINE
  5
32A
  8
1
  6
DASHED
 62
     2
 10
161.00843424715359
 20
77.37669893112124
 30
0.0
 11
153.30523834808741
 21
77.37669893112124
 31
0.0
  0
LINE
  5
32B
  8
1
  6
DOT_CENTER
 62
     3
 10
153.30523834808741
 20
77.37669893112124
 30
0.0
 11
153.30523834808741
 21
77.112589357438424
 31
0.0
  0
LINE
  5
32C
  8
1
  6
DASHED
 62
     2
 10
153.30523834808741
 20
77.37669893112124
 30
0.0
 11
148.90845546937931
 21
77.37669893112124
 31
0.0
  0
LINE
  5
32D
  8
1
  6
CONTINUOUS
 62
     7
 10
229.20793239258569
 20
167.01901805130689
 30
0.0
 11
229.20793239258569
 21
132.3465749182765
 31
0.0
  0
LINE
  5
32E
  8
1
  6
CONTINUOUS
 62
     7
 10
161.00843424715359
 20
132.3465749182765
 30
0.0
 11
161.00843424715359
 21
167.01901805130689
 31
0.0
  0
LINE
  5
32F
  8
1
  6
CONTINUOUS
 62
     7
 10
161.2725438208364
 20
105.4495340983952
 30
0.0
 11
195.10818331987039
 21
105.4495340983952
 31
0.0
  0
LINE
  5
330
  8
1
  6
CONTINUOUS
 62
     7
 10
241.3079111703633
 20
132.3465749182765
 30
0.0
 11
241.3079111703633
 21
135.60264370421979
 31
0.0
  0
LINE
  5
331
  8
1
  6
CONTINUOUS
 62
     7
 10
241.3079111703633
 20
167.01901805130689
 30
0.0
 11
241.3079111703633
 21
167.28312762498979
 31
0.0
  0
LINE
  5
332
  8
1
  6
CONTINUOUS
 62
     7
 10
228.94382281890469
 20
167.01901805130689
 30
0.0
 11
229.20793239258569
 21
167.01901805130689
 31
0.0
  0
LINE
  5
333
  8
1
  6
CONTINUOUS
 62
     7
 10
228.94382281890469
 20
167.01901805130689
 30
0.0
 11
227.22701927856821
 21
167.01901805130689
 31
0.0
  0
LINE
  5
334
  8
1
  6
CONTINUOUS
 62
     7
 10
221.5191406881026
 20
132.3465749182765
 30
0.0
 11
227.22701927856821
 21
132.3465749182765
 31
0.0
  0
LINE
  5
335
  8
1
  6
CONTINUOUS
 62
     7
 10
219.3182275740823
 20
132.3465749182765
 30
0.0
 11
221.5191406881026
 21
132.3465749182765
 31
0.0
  0
LINE
  5
336
  8
1
  6
CONTINUOUS
 62
     7
 10
219.3182275740823
 20
132.3465749182765
 30
0.0
 11
221.5191406881026
 21
132.3465749182765
 31
0.0
  0
LINE
  5
337
  8
1
  6
CONTINUOUS
 62
     7
 10
221.5191406881026
 20
167.01901805130689
 30
0.0
 11
219.3182275740823
 21
167.01901805130689
 31
0.0
  0
LINE
  5
338
  8
1
  6
CONTINUOUS
 62
     7
 10
219.3182275740823
 20
167.01901805130689
 30
0.0
 11
195.10818331987039
 21
167.01901805130689
 31
0.0
  0
LINE
  5
339
  8
1
  6
CONTINUOUS
 62
     7
 10
148.90845546937931
 20
167.01901805130689
 30
0.0
 11
148.90845546937931
 21
163.54294926536301
 31
0.0
  0
LINE
  5
33A
  8
1
  6
CONTINUOUS
 62
     7
 10
148.90845546937931
 20
132.3465749182765
 30
0.0
 11
148.90845546937931
 21
132.08246534459471
 31
0.0
  0
LINE
  5
33B
  8
1
  6
CONTINUOUS
 62
     7
 10
161.2725438208364
 20
167.01901805130689
 30
0.0
 11
161.00843424715359
 21
167.01901805130689
 31
0.0
  0
LINE
  5
33C
  8
1
  6
CONTINUOUS
 62
     7
 10
161.00843424715359
 20
167.01901805130689
 30
0.0
 11
148.90845546937931
 21
167.01901805130689
 31
0.0
  0
LINE
  5
33D
  8
1
  6
CONTINUOUS
 62
     7
 10
162.9893473611742
 20
167.01901805130689
 30
0.0
 11
161.2725438208364
 21
167.01901805130689
 31
0.0
  0
LINE
  5
33E
  8
1
  6
CONTINUOUS
 62
     7
 10
161.2725438208364
 20
167.01901805130689
 30
0.0
 11
161.00843424715359
 21
167.01901805130689
 31
0.0
  0
LINE
  5
33F
  8
1
  6
CONTINUOUS
 62
     7
 10
161.2725438208364
 20
167.01901805130689
 30
0.0
 11
162.9893473611742
 21
167.01901805130689
 31
0.0
  0
LINE
  5
340
  8
1
  6
CONTINUOUS
 62
     7
 10
163.2093473611742
 20
132.3465749182765
 30
0.0
 11
168.6972259516395
 21
132.3465749182765
 31
0.0
  0
LINE
  5
341
  8
1
  6
CONTINUOUS
 62
     7
 10
161.00843424715359
 20
132.3465749182765
 30
0.0
 11
163.2093473611742
 21
132.3465749182765
 31
0.0
  0
LINE
  5
342
  8
1
  6
DASHED
 62
     2
 10
161.2725438208364
 20
105.4495340983952
 30
0.0
 11
161.00843424715359
 21
105.4495340983952
 31
0.0
  0
LINE
  5
343
  8
1
  6
CONTINUOUS
 62
     7
 10
241.3079111703633
 20
77.37669893112124
 30
0.0
 11
241.3079111703633
 21
77.112589357438424
 31
0.0
  0
LINE
  5
344
  8
1
  6
CONTINUOUS
 62
     7
 10
148.90845546937931
 20
132.08246534459471
 30
0.0
 11
241.3079111703633
 21
132.08246534459471
 31
0.0
  0
LINE
  5
345
  8
1
  6
CONTINUOUS
 62
     7
 10
148.90845546937931
 20
167.28312762498979
 30
0.0
 11
148.90845546937931
 21
167.01901805130689
 31
0.0
  0
LINE
  5
346
  8
1
  6
CONTINUOUS
 62
     7
 10
148.90845546937931
 20
132.3465749182765
 30
0.0
 11
161.00843424715359
 21
132.3465749182765
 31
0.0
  0
LINE
  5
347
  8
1
  6
CONTINUOUS
 62
     7
 10
161.00843424715359
 20
167.01901805130689
 30
0.0
 11
161.2725438208364
 21
167.01901805130689
 31
0.0
  0
LINE
  5
348
  8
1
  6
CONTINUOUS
 62
     7
 10
163.2093473611742
 20
132.3465749182765
 30
0.0
 11
161.00843424715359
 21
132.3465749182765
 31
0.0
  0
LINE
  5
349
  8
1
  6
CONTINUOUS
 62
     7
 10
161.00843424715359
 20
167.01901805130689
 30
0.0
 11
148.90845546937931
 21
167.01901805130689
 31
0.0
  0
LINE
  5
34A
  8
1
  6
CONTINUOUS
 62
     7
 10
162.9893473611742
 20
167.01901805130689
 30
0.0
 11
161.2725438208364
 21
167.01901805130689
 31
0.0
  0
LINE
  5
34B
  8
1
  6
CONTINUOUS
 62
     7
 10
163.2093473611742
 20
132.3465749182765
 30
0.0
 11
168.6972259516395
 21
132.3465749182765
 31
0.0
  0
LINE
  5
34C
  8
1
  6
CONTINUOUS
 62
     7
 10
161.00843424715359
 20
132.3465749182765
 30
0.0
 11
163.2093473611742
 21
132.3465749182765
 31
0.0
  0
LINE
  5
34D
  8
1
  6
CONTINUOUS
 62
     7
 10
241.3079111703633
 20
167.28312762498979
 30
0.0
 11
148.90845546937931
 21
167.28312762498979
 31
0.0
  0
LINE
  5
34E
  8
1
  6
CONTINUOUS
 62
     7
 10
195.10818331987039
 20
167.01901805130689
 30
0.0
 11
170.89813906565851
 21
167.01901805130689
 31
0.0
  0
LINE
  5
34F
  8
1
  6
CONTINUOUS
 62
     7
 10
150.00891202638959
 20
105.4495340983952
 30
0.0
 11
161.00843424715359
 21
105.4495340983952
 31
0.0
  0
LINE
  5
350
  8
1
  6
CONTINUOUS
 62
     7
 10
241.3079111703633
 20
77.112589357438424
 30
0.0
 11
153.30523834808741
 21
77.112589357438424
 31
0.0
  0
LINE
  5
351
  8
1
  6
CONTINUOUS
 62
     7
 10
148.90845546937931
 20
77.112589357438424
 30
0.0
 11
148.90845546937931
 21
77.37669893112124
 31
0.0
  0
LINE
  5
352
  8
1
  6
DASHED
 62
     2
 10
161.00843424715359
 20
105.4495340983952
 30
0.0
 11
161.2725438208364
 21
105.4495340983952
 31
0.0
  0
LINE
  5
353
  8
1
  6
CONTINUOUS
 62
     7
 10
241.3079111703633
 20
132.08246534459471
 30
0.0
 11
241.3079111703633
 21
132.3465749182765
 31
0.0
  0
LINE
  5
354
  8
1
  6
CONTINUOUS
 62
     7
 10
229.20793239258569
 20
132.3465749182765
 30
0.0
 11
241.3079111703633
 21
132.3465749182765
 31
0.0
  0
LINE
  5
355
  8
1
  6
CONTINUOUS
 62
     7
 10
227.22701927856821
 20
167.01901805130689
 30
0.0
 11
228.94382281890469
 21
167.01901805130689
 31
0.0
  0
LINE
  5
356
  8
1
  6
CONTINUOUS
 62
     7
 10
229.20793239258569
 20
132.3465749182765
 30
0.0
 11
227.22701927856821
 21
132.3465749182765
 31
0.0
  0
LINE
  5
357
  8
1
  6
CONTINUOUS
 62
     7
 10
241.3079111703633
 20
167.01901805130689
 30
0.0
 11
229.20793239258569
 21
167.01901805130689
 31
0.0
  0
LINE
  5
358
  8
1
  6
CONTINUOUS
 62
     7
 10
229.20793239258569
 20
167.01901805130689
 30
0.0
 11
228.94382281890469
 21
167.01901805130689
 31
0.0
  0
LINE
  5
359
  8
1
  6
CONTINUOUS
 62
     7
 10
195.10818331987039
 20
132.3465749182765
 30
0.0
 11
219.3182275740823
 21
132.3465749182765
 31
0.0
  0
LINE
  5
35A
  8
1
  6
CONTINUOUS
 62
     7
 10
227.22701927856821
 20
132.3465749182765
 30
0.0
 11
229.20793239258569
 21
132.3465749182765
 31
0.0
  0
LINE
  5
35B
  8
1
  6
CONTINUOUS
 62
     7
 10
227.22701927856821
 20
167.01901805130689
 30
0.0
 11
221.5191406881026
 21
167.01901805130689
 31
0.0
  0
LINE
  5
35C
  8
1
  6
CONTINUOUS
 62
     7
 10
195.10818331987039
 20
105.4495340983952
 30
0.0
 11
229.20793239258569
 21
105.4495340983952
 31
0.0
  0
LINE
  5
35D
  8
1
  6
CONTINUOUS
 62
     7
 10
241.3079111703633
 20
104.349077541385
 30
0.0
 11
241.3079111703633
 21
77.37669893112124
 31
0.0
  0
LINE
  5
35E
  8
1
  6
DASHED
 62
     2
 10
241.3079111703633
 20
77.37669893112124
 30
0.0
 11
229.20793239258569
 21
77.37669893112124
 31
0.0
  0
LINE
  5
35F
  8
1
  6
CONTINUOUS
 62
     7
 10
229.20793239258569
 20
105.4495340983952
 30
0.0
 11
229.20793239258569
 21
105.7136436720772
 31
0.0
  0
LINE
  5
360
  8
1
  6
CONTINUOUS
 62
     7
 10
229.20793239258569
 20
105.4495340983952
 30
0.0
 11
240.2074546133527
 21
105.4495340983952
 31
0.0
  0
LINE
  5
361
  8
1
  6
CONTINUOUS
 62
     7
 10
161.00843424715359
 20
105.7136436720772
 30
0.0
 11
161.00843424715359
 21
105.4495340983952
 31
0.0
  0
LINE
  5
362
  8
1
  6
CONTINUOUS
 62
     7
 10
161.00843424715359
 20
105.4495340983952
 30
0.0
 11
161.2725438208364
 21
105.4495340983952
 31
0.0
  0
LINE
  5
363
  8
1
  6
CONTINUOUS
 62
     7
 10
148.90845546937931
 20
104.349077541385
 30
0.0
 11
150.00891202638959
 21
105.4495340983952
 31
0.0
  0
LINE
  5
364
  8
1
  6
CONTINUOUS
 62
     7
 10
240.2074546133527
 20
105.4495340983952
 30
0.0
 11
241.3079111703633
 21
104.349077541385
 31
0.0
  0
LINE
  5
365
  8
1
  6
CONTINUOUS
 62
     7
 10
148.90845546937931
 20
132.3465749182765
 30
0.0
 11
161.00843424715359
 21
132.3465749182765
 31
0.0
  0
LINE
  5
366
  8
1
  6
CONTINUOUS
 62
     7
 10
168.6972259516395
 20
167.01901805130689
 30
0.0
 11
162.9893473611742
 21
167.01901805130689
 31
0.0
  0
LINE
  5
367
  8
1
  6
CONTINUOUS
 62
     7
 10
170.89813906565851
 20
132.3465749182765
 30
0.0
 11
195.10818331987039
 21
132.3465749182765
 31
0.0
  0
LINE
  5
368
  8
1
  6
CONTINUOUS
 62
     7
 10
195.10818331987039
 20
167.01901805130689
 30
0.0
 11
170.89813906565851
 21
167.01901805130689
 31
0.0
  0
LINE
  5
369
  8
1
  6
CONTINUOUS
 62
     7
 10
168.6972259516395
 20
167.01901805130689
 30
0.0
 11
170.89813906565851
 21
167.01901805130689
 31
0.0
  0
LINE
  5
36A
  8
1
  6
CONTINUOUS
 62
     7
 10
170.89813906565851
 20
132.3465749182765
 30
0.0
 11
170.01777382005051
 21
132.3465749182765
 31
0.0
  0
LINE
  5
36B
  8
1
  6
CONTINUOUS
 62
     7
 10
170.89813906565851
 20
167.01901805130689
 30
0.0
 11
168.6972259516395
 21
167.01901805130689
 31
0.0
  0
LINE
  5
36C
  8
1
  6
CONTINUOUS
 62
     7
 10
168.6972259516395
 20
132.3465749182765
 30
0.0
 11
170.01777382005051
 21
132.3465749182765
 31
0.0
  0
LINE
  5
36D
  8
1
  6
CONTINUOUS
 62
     7
 10
219.3182275740823
 20
167.01901805130689
 30
0.0
 11
221.5191406881026
 21
167.01901805130689
 31
0.0
  0
LINE
  5
36E
  8
1
  6
CONTINUOUS
 62
     7
 10
221.5191406881026
 20
132.3465749182765
 30
0.0
 11
219.3182275740823
 21
132.3465749182765
 31
0.0
  0
LINE
  5
36F
  8
1
  6
CONTINUOUS
 62
     7
 10
221.5191406881026
 20
167.01901805130689
 30
0.0
 11
219.3182275740823
 21
167.01901805130689
 31
0.0
  0
LINE
  5
370
  8
1
  6
CONTINUOUS
 62
     7
 10
272.09281340508232
 20
134.86096174943501
 30
0.0
 11
272.09281340508232
 21
133.99498543636739
 31
0.0
  0
LINE
  5
371
  8
1
  6
CONTINUOUS
 62
     7
 10
272.50347487997391
 20
134.56229885860569
 30
0.0
 11
272.50347487997391
 21
133.4547573051091
 31
0.0
  0
LINE
  5
372
  8
1
  6
CONTINUOUS
 62
     7
 10
272.88924778062977
 20
134.28852454201061
 30
0.0
 11
272.88924778062977
 21
133.74097590882221
 31
0.0
  0
LINE
  5
373
  8
1
  6
CONTINUOUS
 62
     7
 10
272.09281340508232
 20
133.99498543636739
 30
0.0
 11
271.11037147313198
 21
133.99498543636739
 31
0.0
  0
LINE
  5
374
  8
1
  6
CONTINUOUS
 62
     7
 10
272.09281340508232
 20
133.99498543636739
 30
0.0
 11
272.09281340508232
 21
133.09387297868949
 31
0.0
  0
LINE
  5
375
  8
1
  6
CONTINUOUS
 62
     7
 10
161.00843424715359
 20
139.4529505046022
 30
0.0
 11
150.81820652924441
 21
139.4529505046022
 31
0.0
  0
LINE
  5
376
  8
1
  6
CONTINUOUS
 62
     7
 10
280.92247815931592
 20
140.65905271731179
 30
0.0
 11
280.92247815931592
 21
149.24261386198779
 31
0.0
  0
LINE
  5
377
  8
1
  6
CONTINUOUS
 62
     7
 10
269.96193085149969
 20
158.3764032851677
 30
0.0
 11
269.96193085149969
 21
150.45311607469799
 31
0.0
  0
LINE
  5
378
  8
1
  6
CONTINUOUS
 62
     7
 10
270.2920678186029
 20
150.45311607469799
 30
0.0
 11
270.2920678186029
 21
158.3764032851677
 31
0.0
  0
LINE
  5
379
  8
1
  6
CONTINUOUS
 62
     7
 10
270.2920678186029
 20
150.45311607469799
 30
0.0
 11
270.2920678186029
 21
158.3764032851677
 31
0.0
  0
LINE
  5
37A
  8
1
  6
CONTINUOUS
 62
     7
 10
270.2920678186029
 20
150.45311607469799
 30
0.0
 11
270.2920678186029
 21
158.3764032851677
 31
0.0
  0
LINE
  5
37B
  8
1
  6
CONTINUOUS
 62
     7
 10
270.2920678186029
 20
150.45311607469799
 30
0.0
 11
270.2920678186029
 21
158.3764032851677
 31
0.0
  0
LINE
  5
37C
  8
1
  6
CONTINUOUS
 62
     7
 10
278.9416563566993
 20
136.33978526573711
 30
0.0
 11
278.9416563566993
 21
136.14718083357261
 31
0.0
  0
LINE
  5
37D
  8
1
  6
CONTINUOUS
 62
     7
 10
266.61810373837488
 20
141.6693488598066
 30
0.0
 11
266.61810373837488
 21
140.3493488598065
 31
0.0
  0
LINE
  5
37E
  8
1
  6
CONTINUOUS
 62
     7
 10
266.61810373837488
 20
134.4244737281166
 30
0.0
 11
266.61810373837488
 21
133.1044737281166
 31
0.0
  0
LINE
  5
37F
  8
1
  6
CONTINUOUS
 62
     7
 10
266.61810373837488
 20
159.01624410977621
 30
0.0
 11
266.61810373837488
 21
157.69624410977619
 31
0.0
  0
LINE
  5
380
  8
1
  6
CONTINUOUS
 62
     7
 10
266.61810373837488
 20
166.2611192414661
 30
0.0
 11
266.61810373837488
 21
164.94111924146611
 31
0.0
  0
LINE
  5
381
  8
1
  6
CONTINUOUS
 62
     7
 10
195.10818331987039
 20
132.3465749182765
 30
0.0
 11
219.3182275740823
 21
132.3465749182765
 31
0.0
  0
ARC
  5
382
  8
1
  6
CONTINUOUS
 62
     7
 10
213.36579238824629
 20
104.7236436720755
 30
0.0
 40
1.1898319209031221
 50
56.309932474020599
 51
123.6900675259794
  0
ARC
  5
383
  8
1
  6
CONTINUOUS
 62
     7
 10
227.66793239258541
 20
104.7236436720755
 30
0.0
 40
1.189831920903168
 50
56.309932474017181
 51
123.6900675259805
  0
ARC
  5
384
  8
1
  6
CONTINUOUS
 62
     7
 10
195.1180638490919
 20
104.7236436720755
 30
0.0
 40
1.1898319209031221
 50
56.309932474020599
 51
123.6900675259794
  0
ARC
  5
385
  8
1
  6
CONTINUOUS
 62
     7
 10
176.85057425149449
 20
104.7236436720755
 30
0.0
 40
1.189831920903184
 50
56.309932474016037
 51
123.6900675259794
  0
ARC
  5
386
  8
1
  6
CONTINUOUS
 62
     7
 10
162.5484342471554
 20
104.7236436720755
 30
0.0
 40
1.1898319209031221
 50
56.309932474020599
 51
123.6900675259794
  0
ARC
  5
387
  8
1
  6
CONTINUOUS
 62
     7
 10
285.83393365526109
 20
133.07246534459469
 30
0.0
 40
1.1898319209032091
 50
236.30993247401179
 51
303.69006752597829
  0
ARC
  5
388
  8
1
  6
CONTINUOUS
 62
     7
 10
276.15289760290261
 20
133.0724653445946
 30
0.0
 40
1.1898319209032
 50
236.30993247401489
 51
303.69006752597829
  0
ARC
  5
389
  8
1
  6
CONTINUOUS
 62
     7
 10
285.83393365526109
 20
166.29312762498819
 30
0.0
 40
1.1898319209031369
 50
56.309932474019462
 51
123.69006752597829
  0
ARC
  5
38A
  8
1
  6
CONTINUOUS
 62
     7
 10
276.15289760290261
 20
166.29312762498819
 30
0.0
 40
1.189831920903105
 50
56.309932474021743
 51
123.6900675259851
  0
ARC
  5
38B
  8
1
  6
CONTINUOUS
 62
     7
 10
162.5484342471554
 20
166.29312762498819
 30
0.0
 40
1.1898319209031221
 50
56.309932474020599
 51
123.6900675259794
  0
ARC
  5
38C
  8
1
  6
CONTINUOUS
 62
     7
 10
227.6679323925857
 20
166.29312762498819
 30
0.0
 40
1.1898319209031221
 50
56.309932474020599
 51
123.6900675259794
  0
ARC
  5
38D
  8
1
  6
CONTINUOUS
 62
     7
 10
162.5484342471554
 20
133.07246534459469
 30
0.0
 40
1.189831920903099
 50
236.3099324740198
 51
303.69006752598023
  0
ARC
  5
38E
  8
1
  6
CONTINUOUS
 62
     7
 10
227.6679323925857
 20
133.07246534459469
 30
0.0
 40
1.189831920903099
 50
236.3099324740198
 51
303.69006752598023
  0
ARC
  5
38F
  8
1
  6
CONTINUOUS
 62
     7
 10
238.00786977783849
 20
136.70319157263131
 30
0.0
 40
1.100547868413003
 50
89.999999999942304
 51
270.0000000000577
  0
ARC
  5
390
  8
1
  6
CONTINUOUS
 62
     7
 10
233.9398955877287
 20
136.80745476777761
 30
0.0
 40
1.536614933413005
 50
180.0
 51
0.0
  0
ARC
  5
391
  8
1
  6
CONTINUOUS
 62
     7
 10
233.9398955877287
 20
136.80745476777761
 30
0.0
 40
1.536614933411186
 50
0.0
 51
180.0
  0
ARC
  5
392
  8
1
  6
DASHED
 62
     2
 10
232.7010566186745
 20
96.954009478281094
 30
0.0
 40
0.7483104587661381
 50
56.506784786790121
 51
123.49321521317719
  0
ARC
  5
393
  8
1
  6
DASHED
 62
     2
 10
233.9398955877287
 20
94.895462210746402
 30
0.0
 40
2.8068577263006671
 50
72.887969535916909
 51
107.1120304640848
  0
ARC
  5
394
  8
1
  6
DASHED
 62
     2
 10
232.7010566186745
 20
96.954009478281094
 30
0.0
 40
0.7483104587661381
 50
56.506784786790121
 51
123.49321521317719
  0
ARC
  5
395
  8
1
  6
DASHED
 62
     2
 10
235.17873455678139
 20
96.954009478281094
 30
0.0
 40
0.7483104587669694
 50
56.506784786693927
 51
123.4932152131191
  0
ARC
  5
396
  8
1
  6
DASHED
 62
     2
 10
235.17873455678139
 20
94.356932003736546
 30
0.0
 40
0.7483104587645125
 50
236.50678478683821
 51
303.49321521334872
  0
ARC
  5
397
  8
1
  6
DASHED
 62
     2
 10
233.9398955877287
 20
96.415479271272304
 30
0.0
 40
2.8068577263007461
 50
252.8879695359156
 51
287.11203046408269
  0
ARC
  5
398
  8
1
  6
DASHED
 62
     2
 10
232.7010566186745
 20
94.356932003736546
 30
0.0
 40
0.7483104587650145
 50
236.5067847867802
 51
303.49321521325248
  0
ARC
  5
399
  8
1
  6
CONTINUOUS
 62
     7
 10
273.61544662077318
 20
143.4256005016338
 30
0.0
 40
0.70429219648745
 50
133.79049833262681
 51
226.20950166732189
  0
ARC
  5
39A
  8
1
  6
CONTINUOUS
 62
     7
 10
273.61544662077318
 20
146.4760660776638
 30
0.0
 40
0.7042921964883321
 50
133.79049833255809
 51
226.2095016672707
  0
ARC
  5
39B
  8
1
  6
CONTINUOUS
 62
     7
 10
275.40296501108702
 20
144.95083328965009
 30
0.0
 40
2.4918105868011349
 50
155.91663153690561
 51
204.08336846310871
  0
ARC
  5
39C
  8
1
  6
CONTINUOUS
 62
     7
 10
273.61544662077318
 20
152.8895268919176
 30
0.0
 40
0.7042921964870191
 50
133.79049833266049
 51
226.20950166732189
  0
ARC
  5
39D
  8
1
  6
CONTINUOUS
 62
     7
 10
273.61544662077318
 20
155.93999246794789
 30
0.0
 40
0.7042921964874704
 50
133.7904983326253
 51
226.2095016673284
  0
ARC
  5
39E
  8
1
  6
CONTINUOUS
 62
     7
 10
275.40296501108702
 20
154.41475967993341
 30
0.0
 40
2.4918105868009959
 50
155.9166315369128
 51
204.0833684631111
  0
ARC
  5
39F
  8
1
  6
CONTINUOUS
 62
     7
 10
238.0078697778396
 20
162.4424013969514
 30
0.0
 40
1.1005478684116099
 50
90.0
 51
270.0
  0
ARC
  5
3A0
  8
1
  6
CONTINUOUS
 62
     7
 10
152.2084968619028
 20
136.70319157263191
 30
0.0
 40
1.1005478684121199
 50
270.0
 51
90.0
  0
ARC
  5
3A1
  8
1
  6
CONTINUOUS
 62
     7
 10
152.2084968619028
 20
162.4424013969514
 30
0.0
 40
1.1005478684122061
 50
270.0
 51
90.0
  0
ARC
  5
3A2
  8
1
  6
CONTINUOUS
 62
     7
 10
279.60193029090402
 20
137.2476373905827
 30
0.0
 40
1.1225672134784781
 50
233.97189007732749
 51
156.91343659032489
  0
ARC
  5
3A3
  8
1
  6
CONTINUOUS
 62
     7
 10
267.60810373837489
 20
141.00934885980649
 30
0.0
 40
1.189831920903184
 50
146.30993247401611
 51
213.6900675259794
  0
ARC
  5
3A4
  8
1
  6
CONTINUOUS
 62
     7
 10
267.60810373837489
 20
133.7644737281166
 30
0.0
 40
1.1898319209031221
 50
146.3099324740206
 51
213.6900675259794
  0
ARC
  5
3A5
  8
1
  6
CONTINUOUS
 62
     7
 10
267.60810373837489
 20
158.35624410977621
 30
0.0
 40
1.1898319209031221
 50
146.3099324740206
 51
213.69006752598051
  0
ARC
  5
3A6
  8
1
  6
CONTINUOUS
 62
     7
 10
267.60810373837489
 20
165.60111924146611
 30
0.0
 40
1.1898319209031221
 50
146.3099324740206
 51
213.6900675259794
  0
CIRCLE
  5
3A7
  8
1
  6
CONTINUOUS
 62
     7
 10
227.0079323925857
 20
85.913643672077185
 30
0.0
 40
0.3300000000000125
  0
CIRCLE
  5
3A8
  8
1
  6
CONTINUOUS
 62
     7
 10
227.0079323925857
 20
85.913643672077185
 30
0.0
 40
0.6599999999999966
  0
CIRCLE
  5
3A9
  8
1
  6
CONTINUOUS
 62
     7
 10
227.0079323925857
 20
95.813643672077191
 30
0.0
 40
0.3300000000000125
  0
CIRCLE
  5
3AA
  8
1
  6
CONTINUOUS
 62
     7
 10
227.0079323925857
 20
95.813643672077191
 30
0.0
 40
0.6599999999999966
  0
CIRCLE
  5
3AB
  8
1
  6
DASHED
 62
     2
 10
236.48195023442059
 20
91.803872791474859
 30
0.0
 40
0.7483781423200528
  0
CIRCLE
  5
3AC
  8
1
  6
CONTINUOUS
 62
     7
 10
233.9398955877287
 20
136.80745476777761
 30
0.0
 40
1.9323102904345999
  0
CIRCLE
  5
3AD
  8
1
  6
CONTINUOUS
 62
     7
 10
270.79827783482602
 20
137.2476373905827
 30
0.0
 40
1.1225672134784099
  0
CIRCLE
  5
3AE
  8
1
  6
CONTINUOUS
 62
     7
 10
279.60193029090402
 20
162.11795557900089
 30
0.0
 40
1.122567213478435
  0
CIRCLE
  5
3AF
  8
1
  6
CONTINUOUS
 62
     7
 10
270.79827783482602
 20
162.11795557900089
 30
0.0
 40
1.1225672134808791
  0
CIRCLE
  5
3B0
  8
1
  6
DASHED
 62
     2
 10
236.48195023442059
 20
91.803872791474859
 30
0.0
 40
0.7483781423200528
  0
CIRCLE
  5
3B1
  8
1
  6
CONTINUOUS
 62
     7
 10
156.1003980028924
 20
144.95303328964991
 30
0.0
 40
1.7607304912152979
  0
CIRCLE
  5
3B2
  8
1
  6
CONTINUOUS
 62
     7
 10
156.1003980028924
 20
144.95303328964991
 30
0.0
 40
2.310958769719321
  0
CIRCLE
  5
3B3
  8
1
  6
CONTINUOUS
 62
     7
 10
156.1003980028924
 20
154.41255967993371
 30
0.0
 40
1.7607304912139901
  0
CIRCLE
  5
3B4
  8
1
  6
CONTINUOUS
 62
     7
 10
156.1003980028924
 20
154.41255967993371
 30
0.0
 40
2.3109587697194049
  0
CIRCLE
  5
3B5
  8
1
  6
DASHED
 62
     2
 10
153.7344164053205
 20
91.803872791474859
 30
0.0
 40
0.7483781423200356
  0
CIRCLE
  5
3B6
  8
1
  6
CONTINUOUS
 62
     7
 10
234.11596863685
 20
154.4147596799337
 30
0.0
 40
2.3109587697192908
  0
CIRCLE
  5
3B7
  8
1
  6
CONTINUOUS
 62
     7
 10
234.11596863685
 20
154.4147596799337
 30
0.0
 40
1.7607304912144159
  0
CIRCLE
  5
3B8
  8
1
  6
CONTINUOUS
 62
     7
 10
234.11596863685
 20
144.9508332896504
 30
0.0
 40
2.3109587697202012
  0
CIRCLE
  5
3B9
  8
1
  6
CONTINUOUS
 62
     7
 10
234.11596863685
 20
144.9508332896504
 30
0.0
 40
1.760730491216093
  0
CIRCLE
  5
3BA
  8
1
  6
CONTINUOUS
 62
     7
 10
272.13649285286658
 20
134.00607033515129
 30
0.0
 40
1.2774691850894251
  0
CIRCLE
  5
3BB
  8
1
  6
CONTINUOUS
 62
     7
 10
195.10818331987039
 20
165.5833583715125
 30
0.0
 40
0.649343478027788
  0
CIRCLE
  5
3BC
  8
1
  6
CONTINUOUS
 62
     7
 10
195.10818331987039
 20
165.5833583715125
 30
0.0
 40
0.3316277991448163
  0
CIRCLE
  5
3BD
  8
1
  6
CONTINUOUS
 62
     7
 10
213.37567291746791
 20
165.5833583715125
 30
0.0
 40
0.6493434780275891
  0
CIRCLE
  5
3BE
  8
1
  6
CONTINUOUS
 62
     7
 10
213.37567291746791
 20
165.5833583715125
 30
0.0
 40
0.3316277991447938
  0
CIRCLE
  5
3BF
  8
1
  6
CONTINUOUS
 62
     7
 10
227.67781292180709
 20
141.0276553954632
 30
0.0
 40
0.649343478027788
  0
CIRCLE
  5
3C0
  8
1
  6
CONTINUOUS
 62
     7
 10
227.67781292180709
 20
141.0276553954632
 30
0.0
 40
0.3316277991447417
  0
CIRCLE
  5
3C1
  8
1
  6
CONTINUOUS
 62
     7
 10
227.67781292180709
 20
158.33793757411971
 30
0.0
 40
0.649343478027788
  0
CIRCLE
  5
3C2
  8
1
  6
CONTINUOUS
 62
     7
 10
227.67781292180709
 20
158.33793757411971
 30
0.0
 40
0.3316277991447417
  0
CIRCLE
  5
3C3
  8
1
  6
CONTINUOUS
 62
     7
 10
163.20843424715559
 20
85.913643672077185
 30
0.0
 40
0.3300000000000978
  0
CIRCLE
  5
3C4
  8
1
  6
CONTINUOUS
 62
     7
 10
163.20843424715559
 20
85.913643672077185
 30
0.0
 40
0.6599999999999966
  0
CIRCLE
  5
3C5
  8
1
  6
CONTINUOUS
 62
     7
 10
163.20843424715559
 20
95.813643672077191
 30
0.0
 40
0.3300000000000978
  0
CIRCLE
  5
3C6
  8
1
  6
CONTINUOUS
 62
     7
 10
163.20843424715559
 20
95.813643672077191
 30
0.0
 40
0.6599999999999966
  0
CIRCLE
  5
3C7
  8
1
  6
CONTINUOUS
 62
     7
 10
162.53855371793401
 20
141.0276553954632
 30
0.0
 40
0.649343478027788
  0
CIRCLE
  5
3C8
  8
1
  6
CONTINUOUS
 62
     7
 10
162.53855371793401
 20
141.0276553954632
 30
0.0
 40
0.3316277991447417
  0
CIRCLE
  5
3C9
  8
1
  6
CONTINUOUS
 62
     7
 10
162.53855371793401
 20
158.33793757411971
 30
0.0
 40
0.649343478027788
  0
CIRCLE
  5
3CA
  8
1
  6
CONTINUOUS
 62
     7
 10
162.53855371793401
 20
158.33793757411971
 30
0.0
 40
0.3316277991447417
  0
CIRCLE
  5
3CB
  8
1
  6
CONTINUOUS
 62
     7
 10
176.84069372227319
 20
165.5833583715125
 30
0.0
 40
0.6493434780275891
  0
CIRCLE
  5
3CC
  8
1
  6
CONTINUOUS
 62
     7
 10
176.84069372227319
 20
165.5833583715125
 30
0.0
 40
0.3316277991447938
  0
CIRCLE
  5
3CD
  8
1
  6
CONTINUOUS
 62
     7
 10
195.10818331987039
 20
133.7822345980704
 30
0.0
 40
0.649343478027788
  0
CIRCLE
  5
3CE
  8
1
  6
CONTINUOUS
 62
     7
 10
195.10818331987039
 20
133.7822345980704
 30
0.0
 40
0.3316277991448338
  0
CIRCLE
  5
3CF
  8
1
  6
CONTINUOUS
 62
     7
 10
213.37567291746791
 20
133.7822345980704
 30
0.0
 40
0.6493434780275891
  0
CIRCLE
  5
3D0
  8
1
  6
CONTINUOUS
 62
     7
 10
213.37567291746791
 20
133.7822345980704
 30
0.0
 40
0.3316277991448113
  0
CIRCLE
  5
3D1
  8
1
  6
CONTINUOUS
 62
     7
 10
176.84069372227319
 20
133.7822345980704
 30
0.0
 40
0.6493434780275891
  0
CIRCLE
  5
3D2
  8
1
  6
CONTINUOUS
 62
     7
 10
176.84069372227319
 20
133.7822345980704
 30
0.0
 40
0.3316277991448113
  0
ARC
  5
3D3
  8
1
  6
CONTINUOUS
 62
     7
 10
277.81165252798837
 20
135.560386456858
 30
0.0
 40
0.4047169811516085
 50
270.0
 51
0.0
  0
ARC
  5
3D4
  8
1
  6
CONTINUOUS
 62
     7
 10
277.81165252798837
 20
138.05452307869709
 30
0.0
 40
0.4047169811520348
 50
0.0
 51
90.0
  0
ARC
  5
3D5
  8
1
  6
CONTINUOUS
 62
     7
 10
274.1407905603624
 20
135.560386456858
 30
0.0
 40
0.4047169811514096
 50
180.0
 51
270.0
  0
ARC
  5
3D6
  8
1
  6
CONTINUOUS
 62
     7
 10
274.1407905603624
 20
138.05452307869709
 30
0.0
 40
0.4047169811518074
 50
90.0
 51
180.0
  0
ARC
  5
3D7
  8
1
  6
DASHED
 62
     2
 10
236.81208720152401
 20
92.13400975857823
 30
0.0
 40
0.2200913114020011
 50
180.0
 51
270.0
  0
ARC
  5
3D8
  8
1
  6
DASHED
 62
     2
 10
236.15181326731781
 20
92.13400975857823
 30
0.0
 40
0.2200913114015037
 50
270.0
 51
0.0
  0
ARC
  5
3D9
  8
1
  6
DASHED
 62
     2
 10
236.15181326731781
 20
91.473735824373051
 30
0.0
 40
0.2200913114018874
 50
0.0
 51
90.0
  0
ARC
  5
3DA
  8
1
  6
DASHED
 62
     2
 10
236.81208720152401
 20
91.473735824373051
 30
0.0
 40
0.2200913114017169
 50
90.0
 51
180.0
  0
ARC
  5
3DB
  8
1
  6
CONTINUOUS
 62
     7
 10
229.3069734827173
 20
138.27106198860091
 30
0.0
 40
0.0990410901311805
 50
90.0
 51
180.0
  0
ARC
  5
3DC
  8
1
  6
CONTINUOUS
 62
     7
 10
229.3069734827173
 20
136.22421279256321
 30
0.0
 40
0.0990410901316068
 50
180.0
 51
270.0
  0
ARC
  5
3DD
  8
1
  6
CONTINUOUS
 62
     7
 10
229.5380693596903
 20
136.62037715308659
 30
0.0
 40
0.4952054506542822
 50
270.0
 51
0.0
  0
ARC
  5
3DE
  8
1
  6
CONTINUOUS
 62
     7
 10
229.5380693596903
 20
137.8748976280776
 30
0.0
 40
0.4952054506535148
 50
0.0
 51
90.0
  0
ARC
  5
3DF
  8
1
  6
CONTINUOUS
 62
     7
 10
270.30307238417282
 20
137.74284284123701
 30
0.0
 40
0.3301369671031011
 50
270.0
 51
0.0
  0
ARC
  5
3E0
  8
1
  6
CONTINUOUS
 62
     7
 10
270.30307238417282
 20
136.75243193992799
 30
0.0
 40
0.330136967103158
 50
0.0
 51
90.0
  0
ARC
  5
3E1
  8
1
  6
CONTINUOUS
 62
     7
 10
271.2934832854807
 20
136.75243193992799
 30
0.0
 40
0.3301369671021064
 50
90.0
 51
180.0
  0
ARC
  5
3E2
  8
1
  6
CONTINUOUS
 62
     7
 10
271.2934832854807
 20
137.74284284123701
 30
0.0
 40
0.3301369671029306
 50
180.0
 51
270.0
  0
ARC
  5
3E3
  8
1
  6
CONTINUOUS
 62
     7
 10
279.10672484025059
 20
161.62275012834641
 30
0.0
 40
0.3301369671033854
 50
0.0
 51
90.0
  0
ARC
  5
3E4
  8
1
  6
CONTINUOUS
 62
     7
 10
279.10672484025059
 20
162.61316102965449
 30
0.0
 40
0.3301369671029022
 50
270.0
 51
0.0
  0
ARC
  5
3E5
  8
1
  6
CONTINUOUS
 62
     7
 10
280.09713574155847
 20
162.61316102965449
 30
0.0
 40
0.3301369671015664
 50
180.0
 51
270.0
  0
ARC
  5
3E6
  8
1
  6
CONTINUOUS
 62
     7
 10
280.09713574155847
 20
161.62275012834641
 30
0.0
 40
0.3301369671031011
 50
90.0
 51
180.0
  0
ARC
  5
3E7
  8
1
  6
CONTINUOUS
 62
     7
 10
270.30307238417282
 20
161.62275012834641
 30
0.0
 40
0.330136967103158
 50
0.0
 51
90.0
  0
ARC
  5
3E8
  8
1
  6
CONTINUOUS
 62
     7
 10
270.30307238417282
 20
162.61316102965449
 30
0.0
 40
0.3301369671029022
 50
270.0
 51
0.0
  0
ARC
  5
3E9
  8
1
  6
CONTINUOUS
 62
     7
 10
271.2934832854807
 20
162.61316102965449
 30
0.0
 40
0.3301369671029306
 50
180.0
 51
270.0
  0
ARC
  5
3EA
  8
1
  6
CONTINUOUS
 62
     7
 10
271.2934832854807
 20
161.62275012834641
 30
0.0
 40
0.3301369671031011
 50
90.0
 51
180.0
  0
ARC
  5
3EB
  8
1
  6
CONTINUOUS
 62
     7
 10
280.09713574155847
 20
137.74284284123701
 30
0.0
 40
0.3301369671015664
 50
180.0
 51
270.0
  0
ARC
  5
3EC
  8
1
  6
CONTINUOUS
 62
     7
 10
280.09713574155847
 20
136.75243193992799
 30
0.0
 40
0.3301369671021064
 50
90.0
 51
180.0
  0
ARC
  5
3ED
  8
1
  6
CONTINUOUS
 62
     7
 10
279.10672484025059
 20
136.75243193992799
 30
0.0
 40
0.3301369671033854
 50
0.0
 51
90.0
  0
ARC
  5
3EE
  8
1
  6
CONTINUOUS
 62
     7
 10
279.10672484025059
 20
137.74284284123701
 30
0.0
 40
0.3301369671031011
 50
270.0
 51
0.0
  0
ARC
  5
3EF
  8
1
  6
CONTINUOUS
 62
     7
 10
269.80786693351843
 20
159.58690549787869
 30
0.0
 40
0.3301369671014243
 50
90.0
 51
180.0
  0
ARC
  5
3F0
  8
1
  6
CONTINUOUS
 62
     7
 10
269.80786693351843
 20
158.70654025227009
 30
0.0
 40
0.3301369671032148
 50
180.0
 51
270.0
  0
ARC
  5
3F1
  8
1
  6
CONTINUOUS
 62
     7
 10
280.59234119221168
 20
158.70654025227009
 30
0.0
 40
0.3301369671023906
 50
270.0
 51
0.0
  0
ARC
  5
3F2
  8
1
  6
CONTINUOUS
 62
     7
 10
280.59234119221168
 20
159.58690549787869
 30
0.0
 40
0.330136967104238
 50
0.0
 51
90.0
  0
ARC
  5
3F3
  8
1
  6
CONTINUOUS
 62
     7
 10
269.80786693351843
 20
150.12297910759469
 30
0.0
 40
0.3301369671033001
 50
90.0
 51
180.0
  0
ARC
  5
3F4
  8
1
  6
CONTINUOUS
 62
     7
 10
269.80786693351843
 20
149.24261386198779
 30
0.0
 40
0.3301369671032148
 50
180.0
 51
270.0
  0
ARC
  5
3F5
  8
1
  6
CONTINUOUS
 62
     7
 10
280.59234119221168
 20
150.12297910759469
 30
0.0
 40
0.330136967104238
 50
0.0
 51
90.0
  0
ARC
  5
3F6
  8
1
  6
CONTINUOUS
 62
     7
 10
280.59234119221168
 20
149.24261386198779
 30
0.0
 40
0.3301369671031864
 50
270.0
 51
0.0
  0
ARC
  5
3F7
  8
1
  6
CONTINUOUS
 62
     7
 10
280.59234119221168
 20
140.65905271731179
 30
0.0
 40
0.330136967104238
 50
0.0
 51
90.0
  0
ARC
  5
3F8
  8
1
  6
CONTINUOUS
 62
     7
 10
280.59234119221168
 20
139.77868747170501
 30
0.0
 40
0.3301369671031011
 50
270.0
 51
0.0
  0
ARC
  5
3F9
  8
1
  6
CONTINUOUS
 62
     7
 10
269.80786693351843
 20
140.65905271731179
 30
0.0
 40
0.3301369671032148
 50
90.0
 51
180.0
  0
ARC
  5
3FA
  8
1
  6
CONTINUOUS
 62
     7
 10
269.80786693351843
 20
139.77868747170501
 30
0.0
 40
0.3301369671032148
 50
180.0
 51
270.0
  0
ARC
  5
3FB
  8
1
  6
CONTINUOUS
 62
     7
 10
160.9093931570238
 20
138.27106198860091
 30
0.0
 40
0.0990410901299015
 50
0.0
 51
90.0
  0
ARC
  5
3FC
  8
1
  6
CONTINUOUS
 62
     7
 10
160.9093931570238
 20
136.22421279256321
 30
0.0
 40
0.0990410901308962
 50
270.0
 51
0.0
  0
ARC
  5
3FD
  8
1
  6
CONTINUOUS
 62
     7
 10
160.67829728005231
 20
136.62037715308659
 30
0.0
 40
0.4952054506549928
 50
180.0
 51
270.0
  0
ARC
  5
3FE
  8
1
  6
CONTINUOUS
 62
     7
 10
160.67829728005231
 20
137.8748976280776
 30
0.0
 40
0.4952054506544812
 50
90.0
 51
180.0
  0
ARC
  5
3FF
  8
1
  6
DASHED
 62
     2
 10
236.81208720152401
 20
91.473735824373051
 30
0.0
 40
0.2200913114017169
 50
90.0
 51
180.0
  0
ARC
  5
400
  8
1
  6
DASHED
 62
     2
 10
236.15181326731781
 20
91.473735824373051
 30
0.0
 40
0.2200913114018874
 50
0.0
 51
90.0
  0
ARC
  5
401
  8
1
  6
DASHED
 62
     2
 10
236.15181326731781
 20
92.13400975857823
 30
0.0
 40
0.2200913114015037
 50
270.0
 51
0.0
  0
ARC
  5
402
  8
1
  6
DASHED
 62
     2
 10
236.81208720152401
 20
92.13400975857823
 30
0.0
 40
0.2200913114020011
 50
180.0
 51
270.0
  0
ARC
  5
403
  8
1
  6
DASHED
 62
     2
 10
239.3981601104951
 20
90.153187955960959
 30
0.0
 40
0.3301369671033569
 50
270.0
 51
0.0
  0
ARC
  5
404
  8
1
  6
DASHED
 62
     2
 10
239.3981601104951
 20
100.9376622146558
 30
0.0
 40
0.3301369671032148
 50
0.0
 51
90.0
  0
ARC
  5
405
  8
1
  6
CONTINUOUS
 62
     7
 10
229.5380693596903
 20
137.8748976280776
 30
0.0
 40
0.4952054506535148
 50
0.0
 51
90.0
  0
ARC
  5
406
  8
1
  6
CONTINUOUS
 62
     7
 10
229.5380693596903
 20
136.62037715308659
 30
0.0
 40
0.4952054506542822
 50
270.0
 51
0.0
  0
ARC
  5
407
  8
1
  6
CONTINUOUS
 62
     7
 10
229.3069734827173
 20
136.22421279256321
 30
0.0
 40
0.0990410901316068
 50
180.0
 51
270.0
  0
ARC
  5
408
  8
1
  6
CONTINUOUS
 62
     7
 10
229.3069734827173
 20
138.27106198860091
 30
0.0
 40
0.0990410901311805
 50
90.0
 51
180.0
  0
ARC
  5
409
  8
1
  6
CONTINUOUS
 62
     7
 10
229.3069734827173
 20
161.09453098098231
 30
0.0
 40
0.0990410901316068
 50
180.0
 51
270.0
  0
ARC
  5
40A
  8
1
  6
CONTINUOUS
 62
     7
 10
229.3069734827173
 20
163.14138017701879
 30
0.0
 40
0.0990410901321184
 50
90.0
 51
180.0
  0
ARC
  5
40B
  8
1
  6
CONTINUOUS
 62
     7
 10
229.5380693596903
 20
162.74521581649569
 30
0.0
 40
0.4952054506535148
 50
0.0
 51
90.0
  0
ARC
  5
40C
  8
1
  6
CONTINUOUS
 62
     7
 10
229.5380693596903
 20
161.49069534150539
 30
0.0
 40
0.4952054506544812
 50
270.0
 51
0.0
  0
ARC
  5
40D
  8
1
  6
CONTINUOUS
 62
     7
 10
160.67829728005231
 20
161.49069534150539
 30
0.0
 40
0.4952054506549928
 50
180.0
 51
270.0
  0
ARC
  5
40E
  8
1
  6
CONTINUOUS
 62
     7
 10
160.67829728005231
 20
162.74521581649569
 30
0.0
 40
0.4952054506552201
 50
90.0
 51
180.0
  0
ARC
  5
40F
  8
1
  6
CONTINUOUS
 62
     7
 10
160.9093931570238
 20
163.14138017701879
 30
0.0
 40
0.0990410901299015
 50
0.0
 51
90.0
  0
ARC
  5
410
  8
1
  6
CONTINUOUS
 62
     7
 10
160.9093931570238
 20
161.09453098098231
 30
0.0
 40
0.0990410901314078
 50
270.0
 51
0.0
  0
ARC
  5
411
  8
1
  6
CONTINUOUS
 62
     7
 10
186.61894702293941
 20
154.85129668915991
 30
0.0
 40
0.314416159145793
 50
90.0
 51
180.0
  0
ARC
  5
412
  8
1
  6
CONTINUOUS
 62
     7
 10
186.61894702293941
 20
144.4755634373542
 30
0.0
 40
0.3144161591456225
 50
180.0
 51
270.0
  0
ARC
  5
413
  8
1
  6
CONTINUOUS
 62
     7
 10
203.59741961680189
 20
144.4755634373542
 30
0.0
 40
0.3144161591457078
 50
270.0
 51
0.0
  0
ARC
  5
414
  8
1
  6
CONTINUOUS
 62
     7
 10
203.59741961680189
 20
154.85129668915991
 30
0.0
 40
0.3144161591464183
 50
0.0
 51
90.0
  0
ARC
  5
415
  8
1
  6
CONTINUOUS
 62
     7
 10
150.81820652924441
 20
140.66345271731251
 30
0.0
 40
0.3301369671031011
 50
90.0
 51
180.0
  0
ARC
  5
416
  8
1
  6
CONTINUOUS
 62
     7
 10
150.81820652924441
 20
139.78308747170539
 30
0.0
 40
0.3301369671029022
 50
180.0
 51
270.0
  0
ARC
  5
417
  8
1
  6
CONTINUOUS
 62
     7
 10
150.81820652924441
 20
149.24261386198819
 30
0.0
 40
0.3301369671029022
 50
180.0
 51
270.0
  0
ARC
  5
418
  8
1
  6
CONTINUOUS
 62
     7
 10
150.81820652924441
 20
150.12297910759469
 30
0.0
 40
0.3301369671037264
 50
90.0
 51
180.0
  0
ARC
  5
419
  8
1
  6
CONTINUOUS
 62
     7
 10
150.81820652924441
 20
158.70434025227041
 30
0.0
 40
0.3301369671029022
 50
180.0
 51
270.0
  0
ARC
  5
41A
  8
1
  6
CONTINUOUS
 62
     7
 10
150.81820652924441
 20
159.5847054978791
 30
0.0
 40
0.3301369671011116
 50
90.0
 51
180.0
  0
ARC
  5
41B
  8
1
  6
DASHED
 62
     2
 10
150.81820652924441
 20
100.9376622146558
 30
0.0
 40
0.3301369671029022
 50
90.0
 51
180.0
  0
ARC
  5
41C
  8
1
  6
DASHED
 62
     2
 10
150.81820652924441
 20
90.153187955960959
 30
0.0
 40
0.3301369671029022
 50
180.0
 51
270.0
  0
ARC
  5
41D
  8
1
  6
DASHED
 62
     2
 10
153.40427943821729
 20
92.13400975857823
 30
0.0
 40
0.2200913114015037
 50
270.0
 51
0.0
  0
ARC
  5
41E
  8
1
  6
DASHED
 62
     2
 10
154.0645533724236
 20
92.13400975857823
 30
0.0
 40
0.2200913114023137
 50
180.0
 51
270.0
  0
ARC
  5
41F
  8
1
  6
DASHED
 62
     2
 10
154.0645533724236
 20
91.473735824373051
 30
0.0
 40
0.2200913114017169
 50
90.0
 51
180.0
  0
ARC
  5
420
  8
1
  6
DASHED
 62
     2
 10
153.40427943821729
 20
91.473735824373051
 30
0.0
 40
0.2200913114023137
 50
0.0
 51
90.0
  0
ARC
  5
421
  8
1
  6
CONTINUOUS
 62
     7
 10
239.3981601104951
 20
159.58690549787909
 30
0.0
 40
0.3301369671032148
 50
0.0
 51
90.0
  0
ARC
  5
422
  8
1
  6
CONTINUOUS
 62
     7
 10
239.3981601104951
 20
158.70654025227051
 30
0.0
 40
0.3301369671023053
 50
270.0
 51
0.0
  0
ARC
  5
423
  8
1
  6
CONTINUOUS
 62
     7
 10
239.3981601104951
 20
139.77868747170521
 30
0.0
 40
0.3301369671033001
 50
270.0
 51
0.0
  0
ARC
  5
424
  8
1
  6
CONTINUOUS
 62
     7
 10
239.3981601104951
 20
140.65905271731199
 30
0.0
 40
0.3301369671032148
 50
0.0
 51
90.0
  0
ARC
  5
425
  8
1
  6
CONTINUOUS
 62
     7
 10
239.3981601104951
 20
149.24261386198799
 30
0.0
 40
0.3301369671031011
 50
270.0
 51
0.0
  0
ARC
  5
426
  8
1
  6
CONTINUOUS
 62
     7
 10
239.3981601104951
 20
150.12297910759469
 30
0.0
 40
0.3301369671032148
 50
0.0
 51
90.0
  0
ARC
  5
427
  8
1
  6
CONTINUOUS
 62
     7
 10
210.29448380660381
 20
89.713005333156872
 30
0.0
 40
0.3301369671022343
 50
270.0
 51
0.0
  0
ARC
  5
428
  8
1
  6
CONTINUOUS
 62
     7
 10
210.29448380660381
 20
89.713005333156872
 30
0.0
 40
0.3301369671029022
 50
180.0
 51
270.0
  0
ARC
  5
429
  8
1
  6
CONTINUOUS
 62
     7
 10
210.29448380660381
 20
94.334922872597204
 30
0.0
 40
0.3301369671029022
 50
0.0
 51
90.0
  0
ARC
  5
42A
  8
1
  6
CONTINUOUS
 62
     7
 10
210.29448380660381
 20
94.334922872597204
 30
0.0
 40
0.3301369671031154
 50
90.0
 51
180.0
  0
ARC
  5
42B
  8
1
  6
CONTINUOUS
 62
     7
 10
208.97393593819149
 20
89.713005333156872
 30
0.0
 40
0.3301369671022343
 50
270.0
 51
0.0
  0
ARC
  5
42C
  8
1
  6
CONTINUOUS
 62
     7
 10
208.97393593819149
 20
89.713005333156872
 30
0.0
 40
0.3301369671031864
 50
180.0
 51
270.0
  0
ARC
  5
42D
  8
1
  6
CONTINUOUS
 62
     7
 10
208.97393593819149
 20
94.334922872597204
 30
0.0
 40
0.3301369671031011
 50
0.0
 51
90.0
  0
ARC
  5
42E
  8
1
  6
CONTINUOUS
 62
     7
 10
208.97393593819149
 20
94.334922872597204
 30
0.0
 40
0.3301369671031154
 50
90.0
 51
180.0
  0
ARC
  5
42F
  8
1
  6
CONTINUOUS
 62
     7
 10
207.65338806978039
 20
89.713005333156872
 30
0.0
 40
0.3301369671022343
 50
270.0
 51
0.0
  0
ARC
  5
430
  8
1
  6
CONTINUOUS
 62
     7
 10
207.65338806978039
 20
89.713005333156872
 30
0.0
 40
0.3301369671027885
 50
180.0
 51
270.0
  0
ARC
  5
431
  8
1
  6
CONTINUOUS
 62
     7
 10
207.65338806978039
 20
94.334922872597204
 30
0.0
 40
0.3301369671027032
 50
0.0
 51
90.0
  0
ARC
  5
432
  8
1
  6
CONTINUOUS
 62
     7
 10
207.65338806978039
 20
94.334922872597204
 30
0.0
 40
0.3301369671031154
 50
90.0
 51
180.0
  0
ARC
  5
433
  8
1
  6
CONTINUOUS
 62
     7
 10
206.33284020136961
 20
89.713005333156872
 30
0.0
 40
0.3301369671022343
 50
270.0
 51
0.0
  0
ARC
  5
434
  8
1
  6
CONTINUOUS
 62
     7
 10
206.33284020136961
 20
89.713005333156872
 30
0.0
 40
0.3301369671031011
 50
180.0
 51
270.0
  0
ARC
  5
435
  8
1
  6
CONTINUOUS
 62
     7
 10
206.33284020136961
 20
94.334922872597204
 30
0.0
 40
0.3301369671019074
 50
0.0
 51
90.0
  0
ARC
  5
436
  8
1
  6
CONTINUOUS
 62
     7
 10
206.33284020136961
 20
94.334922872597204
 30
0.0
 40
0.3301369671031154
 50
90.0
 51
180.0
  0
ARC
  5
437
  8
1
  6
CONTINUOUS
 62
     7
 10
205.01229233295709
 20
89.713005333156872
 30
0.0
 40
0.3301369671022343
 50
270.0
 51
0.0
  0
ARC
  5
438
  8
1
  6
CONTINUOUS
 62
     7
 10
205.01229233295709
 20
89.713005333156872
 30
0.0
 40
0.3301369671029022
 50
180.0
 51
270.0
  0
ARC
  5
439
  8
1
  6
CONTINUOUS
 62
     7
 10
205.01229233295709
 20
94.334922872597204
 30
0.0
 40
0.3301369671031011
 50
0.0
 51
90.0
  0
ARC
  5
43A
  8
1
  6
CONTINUOUS
 62
     7
 10
205.01229233295709
 20
94.334922872597204
 30
0.0
 40
0.3301369671031154
 50
90.0
 51
180.0
  0
ARC
  5
43B
  8
1
  6
CONTINUOUS
 62
     7
 10
203.6917444645448
 20
89.713005333156872
 30
0.0
 40
0.3301369671022343
 50
270.0
 51
0.0
  0
ARC
  5
43C
  8
1
  6
CONTINUOUS
 62
     7
 10
203.6917444645448
 20
89.713005333156872
 30
0.0
 40
0.3301369671015948
 50
180.0
 51
270.0
  0
ARC
  5
43D
  8
1
  6
CONTINUOUS
 62
     7
 10
203.6917444645448
 20
94.334922872597204
 30
0.0
 40
0.3301369671034138
 50
0.0
 51
90.0
  0
ARC
  5
43E
  8
1
  6
CONTINUOUS
 62
     7
 10
203.6917444645448
 20
94.334922872597204
 30
0.0
 40
0.3301369671031154
 50
90.0
 51
180.0
  0
ARC
  5
43F
  8
1
  6
CONTINUOUS
 62
     7
 10
202.3711965961343
 20
89.713005333156872
 30
0.0
 40
0.3301369671022343
 50
270.0
 51
0.0
  0
ARC
  5
440
  8
1
  6
CONTINUOUS
 62
     7
 10
202.3711965961343
 20
89.713005333156872
 30
0.0
 40
0.3301369671033854
 50
180.0
 51
270.0
  0
ARC
  5
441
  8
1
  6
CONTINUOUS
 62
     7
 10
202.3711965961343
 20
94.334922872597204
 30
0.0
 40
0.3301369671028169
 50
0.0
 51
90.0
  0
ARC
  5
442
  8
1
  6
CONTINUOUS
 62
     7
 10
202.3711965961343
 20
94.334922872597204
 30
0.0
 40
0.3301369671031154
 50
90.0
 51
180.0
  0
ARC
  5
443
  8
1
  6
CONTINUOUS
 62
     7
 10
201.050648727723
 20
89.713005333156872
 30
0.0
 40
0.3301369671022343
 50
270.0
 51
0.0
  0
ARC
  5
444
  8
1
  6
CONTINUOUS
 62
     7
 10
201.050648727723
 20
89.713005333156872
 30
0.0
 40
0.3301369671032148
 50
180.0
 51
270.0
  0
ARC
  5
445
  8
1
  6
CONTINUOUS
 62
     7
 10
201.050648727723
 20
94.334922872597204
 30
0.0
 40
0.3301369671033854
 50
0.0
 51
90.0
  0
ARC
  5
446
  8
1
  6
CONTINUOUS
 62
     7
 10
201.050648727723
 20
94.334922872597204
 30
0.0
 40
0.3301369671031154
 50
90.0
 51
180.0
  0
ARC
  5
447
  8
1
  6
CONTINUOUS
 62
     7
 10
199.73010085931071
 20
89.713005333156872
 30
0.0
 40
0.3301369671022343
 50
270.0
 51
0.0
  0
ARC
  5
448
  8
1
  6
CONTINUOUS
 62
     7
 10
199.73010085931071
 20
89.713005333156872
 30
0.0
 40
0.3301369671029022
 50
180.0
 51
270.0
  0
ARC
  5
449
  8
1
  6
CONTINUOUS
 62
     7
 10
199.73010085931071
 20
94.334922872597204
 30
0.0
 40
0.3301369671029022
 50
0.0
 51
90.0
  0
ARC
  5
44A
  8
1
  6
CONTINUOUS
 62
     7
 10
199.73010085931071
 20
94.334922872597204
 30
0.0
 40
0.3301369671031154
 50
90.0
 51
180.0
  0
ARC
  5
44B
  8
1
  6
CONTINUOUS
 62
     7
 10
198.4095529908999
 20
89.713005333156872
 30
0.0
 40
0.3301369671022343
 50
270.0
 51
0.0
  0
ARC
  5
44C
  8
1
  6
CONTINUOUS
 62
     7
 10
198.4095529908999
 20
89.713005333156872
 30
0.0
 40
0.3301369671031011
 50
180.0
 51
270.0
  0
ARC
  5
44D
  8
1
  6
CONTINUOUS
 62
     7
 10
198.4095529908999
 20
94.334922872597204
 30
0.0
 40
0.3301369671031011
 50
0.0
 51
90.0
  0
ARC
  5
44E
  8
1
  6
CONTINUOUS
 62
     7
 10
198.4095529908999
 20
94.334922872597204
 30
0.0
 40
0.3301369671031154
 50
90.0
 51
180.0
  0
ARC
  5
44F
  8
1
  6
CONTINUOUS
 62
     7
 10
197.08900512248741
 20
89.713005333156872
 30
0.0
 40
0.3301369671022343
 50
270.0
 51
0.0
  0
ARC
  5
450
  8
1
  6
CONTINUOUS
 62
     7
 10
197.08900512248741
 20
89.713005333156872
 30
0.0
 40
0.3301369671017085
 50
180.0
 51
270.0
  0
ARC
  5
451
  8
1
  6
CONTINUOUS
 62
     7
 10
197.08900512248741
 20
94.334922872597204
 30
0.0
 40
0.3301369671031011
 50
0.0
 51
90.0
  0
ARC
  5
452
  8
1
  6
CONTINUOUS
 62
     7
 10
197.08900512248741
 20
94.334922872597204
 30
0.0
 40
0.3301369671031154
 50
90.0
 51
180.0
  0
ARC
  5
453
  8
1
  6
CONTINUOUS
 62
     7
 10
195.76845725407631
 20
89.713005333156872
 30
0.0
 40
0.3301369671022343
 50
270.0
 51
0.0
  0
ARC
  5
454
  8
1
  6
CONTINUOUS
 62
     7
 10
195.76845725407631
 20
89.713005333156872
 30
0.0
 40
0.3301369671031011
 50
180.0
 51
270.0
  0
ARC
  5
455
  8
1
  6
CONTINUOUS
 62
     7
 10
195.76845725407631
 20
94.334922872597204
 30
0.0
 40
0.3301369671033854
 50
0.0
 51
90.0
  0
ARC
  5
456
  8
1
  6
CONTINUOUS
 62
     7
 10
195.76845725407631
 20
94.334922872597204
 30
0.0
 40
0.3301369671031154
 50
90.0
 51
180.0
  0
ARC
  5
457
  8
1
  6
CONTINUOUS
 62
     7
 10
179.92188283313709
 20
89.713005333156872
 30
0.0
 40
0.3301369671022343
 50
270.0
 51
0.0
  0
ARC
  5
458
  8
1
  6
CONTINUOUS
 62
     7
 10
179.92188283313709
 20
89.713005333156872
 30
0.0
 40
0.3301369671033854
 50
180.0
 51
270.0
  0
ARC
  5
459
  8
1
  6
CONTINUOUS
 62
     7
 10
179.92188283313709
 20
94.334922872597204
 30
0.0
 40
0.3301369671031011
 50
0.0
 51
90.0
  0
ARC
  5
45A
  8
1
  6
CONTINUOUS
 62
     7
 10
179.92188283313709
 20
94.334922872597204
 30
0.0
 40
0.3301369671031154
 50
90.0
 51
180.0
  0
ARC
  5
45B
  8
1
  6
CONTINUOUS
 62
     7
 10
181.2424307015481
 20
89.713005333156872
 30
0.0
 40
0.3301369671022343
 50
270.0
 51
0.0
  0
ARC
  5
45C
  8
1
  6
CONTINUOUS
 62
     7
 10
181.2424307015481
 20
89.713005333156872
 30
0.0
 40
0.3301369671015948
 50
180.0
 51
270.0
  0
ARC
  5
45D
  8
1
  6
CONTINUOUS
 62
     7
 10
181.2424307015481
 20
94.334922872597204
 30
0.0
 40
0.3301369671044085
 50
0.0
 51
90.0
  0
ARC
  5
45E
  8
1
  6
CONTINUOUS
 62
     7
 10
181.2424307015481
 20
94.334922872597204
 30
0.0
 40
0.3301369671031154
 50
90.0
 51
180.0
  0
ARC
  5
45F
  8
1
  6
CONTINUOUS
 62
     7
 10
182.56297856996039
 20
89.713005333156872
 30
0.0
 40
0.3301369671022343
 50
270.0
 51
0.0
  0
ARC
  5
460
  8
1
  6
CONTINUOUS
 62
     7
 10
182.56297856996039
 20
89.713005333156872
 30
0.0
 40
0.3301369671015948
 50
180.0
 51
270.0
  0
ARC
  5
461
  8
1
  6
CONTINUOUS
 62
     7
 10
182.56297856996039
 20
94.334922872597204
 30
0.0
 40
0.3301369671029022
 50
0.0
 51
90.0
  0
ARC
  5
462
  8
1
  6
CONTINUOUS
 62
     7
 10
182.56297856996039
 20
94.334922872597204
 30
0.0
 40
0.3301369671031154
 50
90.0
 51
180.0
  0
ARC
  5
463
  8
1
  6
CONTINUOUS
 62
     7
 10
183.88352643837121
 20
89.713005333156872
 30
0.0
 40
0.3301369671022343
 50
270.0
 51
0.0
  0
ARC
  5
464
  8
1
  6
CONTINUOUS
 62
     7
 10
183.88352643837121
 20
89.713005333156872
 30
0.0
 40
0.3301369671015948
 50
180.0
 51
270.0
  0
ARC
  5
465
  8
1
  6
CONTINUOUS
 62
     7
 10
183.88352643837121
 20
94.334922872597204
 30
0.0
 40
0.3301369671046075
 50
0.0
 51
90.0
  0
ARC
  5
466
  8
1
  6
CONTINUOUS
 62
     7
 10
183.88352643837121
 20
94.334922872597204
 30
0.0
 40
0.3301369671031154
 50
90.0
 51
180.0
  0
ARC
  5
467
  8
1
  6
CONTINUOUS
 62
     7
 10
185.2040743067835
 20
89.713005333156872
 30
0.0
 40
0.3301369671022343
 50
270.0
 51
0.0
  0
ARC
  5
468
  8
1
  6
CONTINUOUS
 62
     7
 10
185.2040743067835
 20
89.713005333156872
 30
0.0
 40
0.3301369671029022
 50
180.0
 51
270.0
  0
ARC
  5
469
  8
1
  6
CONTINUOUS
 62
     7
 10
185.2040743067835
 20
94.334922872597204
 30
0.0
 40
0.3301369671034138
 50
0.0
 51
90.0
  0
ARC
  5
46A
  8
1
  6
CONTINUOUS
 62
     7
 10
185.2040743067835
 20
94.334922872597204
 30
0.0
 40
0.3301369671031154
 50
90.0
 51
180.0
  0
ARC
  5
46B
  8
1
  6
CONTINUOUS
 62
     7
 10
186.52462217519579
 20
89.713005333156872
 30
0.0
 40
0.3301369671022343
 50
270.0
 51
0.0
  0
ARC
  5
46C
  8
1
  6
CONTINUOUS
 62
     7
 10
186.52462217519579
 20
89.713005333156872
 30
0.0
 40
0.3301369671028738
 50
180.0
 51
270.0
  0
ARC
  5
46D
  8
1
  6
CONTINUOUS
 62
     7
 10
186.52462217519579
 20
94.334922872597204
 30
0.0
 40
0.3301369671031011
 50
0.0
 51
90.0
  0
ARC
  5
46E
  8
1
  6
CONTINUOUS
 62
     7
 10
186.52462217519579
 20
94.334922872597204
 30
0.0
 40
0.3301369671031154
 50
90.0
 51
180.0
  0
ARC
  5
46F
  8
1
  6
CONTINUOUS
 62
     7
 10
187.8451700436068
 20
89.713005333156872
 30
0.0
 40
0.3301369671022343
 50
270.0
 51
0.0
  0
ARC
  5
470
  8
1
  6
CONTINUOUS
 62
     7
 10
187.8451700436068
 20
89.713005333156872
 30
0.0
 40
0.3301369671031011
 50
180.0
 51
270.0
  0
ARC
  5
471
  8
1
  6
CONTINUOUS
 62
     7
 10
187.8451700436068
 20
94.334922872597204
 30
0.0
 40
0.3301369671031864
 50
0.0
 51
90.0
  0
ARC
  5
472
  8
1
  6
CONTINUOUS
 62
     7
 10
187.8451700436068
 20
94.334922872597204
 30
0.0
 40
0.3301369671031154
 50
90.0
 51
180.0
  0
ARC
  5
473
  8
1
  6
CONTINUOUS
 62
     7
 10
189.16571791201909
 20
89.713005333156872
 30
0.0
 40
0.3301369671022343
 50
270.0
 51
0.0
  0
ARC
  5
474
  8
1
  6
CONTINUOUS
 62
     7
 10
189.16571791201909
 20
89.713005333156872
 30
0.0
 40
0.3301369671031011
 50
180.0
 51
270.0
  0
ARC
  5
475
  8
1
  6
CONTINUOUS
 62
     7
 10
189.16571791201909
 20
94.334922872597204
 30
0.0
 40
0.3301369671019074
 50
0.0
 51
90.0
  0
ARC
  5
476
  8
1
  6
CONTINUOUS
 62
     7
 10
189.16571791201909
 20
94.334922872597204
 30
0.0
 40
0.3301369671031154
 50
90.0
 51
180.0
  0
ARC
  5
477
  8
1
  6
CONTINUOUS
 62
     7
 10
190.48626578043039
 20
89.713005333156872
 30
0.0
 40
0.3301369671022343
 50
270.0
 51
0.0
  0
ARC
  5
478
  8
1
  6
CONTINUOUS
 62
     7
 10
190.48626578043039
 20
89.713005333156872
 30
0.0
 40
0.3301369671030727
 50
180.0
 51
270.0
  0
ARC
  5
479
  8
1
  6
CONTINUOUS
 62
     7
 10
190.48626578043039
 20
94.334922872597204
 30
0.0
 40
0.3301369671029022
 50
0.0
 51
90.0
  0
ARC
  5
47A
  8
1
  6
CONTINUOUS
 62
     7
 10
190.48626578043039
 20
94.334922872597204
 30
0.0
 40
0.3301369671031154
 50
90.0
 51
180.0
  0
ARC
  5
47B
  8
1
  6
CONTINUOUS
 62
     7
 10
191.80681364884271
 20
89.713005333156872
 30
0.0
 40
0.3301369671022343
 50
270.0
 51
0.0
  0
ARC
  5
47C
  8
1
  6
CONTINUOUS
 62
     7
 10
191.80681364884271
 20
89.713005333156872
 30
0.0
 40
0.3301369671034138
 50
180.0
 51
270.0
  0
ARC
  5
47D
  8
1
  6
CONTINUOUS
 62
     7
 10
191.80681364884271
 20
94.334922872597204
 30
0.0
 40
0.3301369671015948
 50
0.0
 51
90.0
  0
ARC
  5
47E
  8
1
  6
CONTINUOUS
 62
     7
 10
191.80681364884271
 20
94.334922872597204
 30
0.0
 40
0.3301369671031154
 50
90.0
 51
180.0
  0
ARC
  5
47F
  8
1
  6
CONTINUOUS
 62
     7
 10
193.12736151725321
 20
89.713005333156872
 30
0.0
 40
0.3301369671022343
 50
270.0
 51
0.0
  0
ARC
  5
480
  8
1
  6
CONTINUOUS
 62
     7
 10
193.12736151725321
 20
89.713005333156872
 30
0.0
 40
0.3301369671029022
 50
180.0
 51
270.0
  0
ARC
  5
481
  8
1
  6
CONTINUOUS
 62
     7
 10
193.12736151725321
 20
94.334922872597204
 30
0.0
 40
0.3301369671031864
 50
0.0
 51
90.0
  0
ARC
  5
482
  8
1
  6
CONTINUOUS
 62
     7
 10
193.12736151725321
 20
94.334922872597204
 30
0.0
 40
0.3301369671031154
 50
90.0
 51
180.0
  0
ARC
  5
483
  8
1
  6
CONTINUOUS
 62
     7
 10
194.4479093856643
 20
89.713005333156872
 30
0.0
 40
0.3301369671022343
 50
270.0
 51
0.0
  0
ARC
  5
484
  8
1
  6
CONTINUOUS
 62
     7
 10
194.4479093856643
 20
89.713005333156872
 30
0.0
 40
0.3301369671034138
 50
180.0
 51
270.0
  0
ARC
  5
485
  8
1
  6
CONTINUOUS
 62
     7
 10
194.4479093856643
 20
94.334922872597204
 30
0.0
 40
0.3301369671031011
 50
0.0
 51
90.0
  0
ARC
  5
486
  8
1
  6
CONTINUOUS
 62
     7
 10
194.4479093856643
 20
94.334922872597204
 30
0.0
 40
0.3301369671031154
 50
90.0
 51
180.0
  0
ARC
  5
487
  8
1
  6
CONTINUOUS
 62
     7
 10
210.29448380660381
 20
97.196109920822607
 30
0.0
 40
0.330136967102888
 50
270.0
 51
0.0
  0
ARC
  5
488
  8
1
  6
CONTINUOUS
 62
     7
 10
210.29448380660381
 20
97.196109920822607
 30
0.0
 40
0.3301369671029022
 50
180.0
 51
270.0
  0
ARC
  5
489
  8
1
  6
CONTINUOUS
 62
     7
 10
210.29448380660381
 20
101.818027460262
 30
0.0
 40
0.3301369671029022
 50
0.0
 51
90.0
  0
ARC
  5
48A
  8
1
  6
CONTINUOUS
 62
     7
 10
210.29448380660381
 20
101.818027460262
 30
0.0
 40
0.3301369671037975
 50
90.0
 51
180.0
  0
ARC
  5
48B
  8
1
  6
CONTINUOUS
 62
     7
 10
208.97393593819149
 20
97.196109920822607
 30
0.0
 40
0.330136967102888
 50
270.0
 51
0.0
  0
ARC
  5
48C
  8
1
  6
CONTINUOUS
 62
     7
 10
208.97393593819149
 20
97.196109920822607
 30
0.0
 40
0.3301369671031864
 50
180.0
 51
270.0
  0
ARC
  5
48D
  8
1
  6
CONTINUOUS
 62
     7
 10
208.97393593819149
 20
101.818027460262
 30
0.0
 40
0.3301369671031011
 50
0.0
 51
90.0
  0
ARC
  5
48E
  8
1
  6
CONTINUOUS
 62
     7
 10
208.97393593819149
 20
101.818027460262
 30
0.0
 40
0.3301369671037975
 50
90.0
 51
180.0
  0
ARC
  5
48F
  8
1
  6
CONTINUOUS
 62
     7
 10
207.65338806978039
 20
97.196109920822607
 30
0.0
 40
0.330136967102888
 50
270.0
 51
0.0
  0
ARC
  5
490
  8
1
  6
CONTINUOUS
 62
     7
 10
207.65338806978039
 20
97.196109920822607
 30
0.0
 40
0.3301369671027885
 50
180.0
 51
270.0
  0
ARC
  5
491
  8
1
  6
CONTINUOUS
 62
     7
 10
207.65338806978039
 20
101.818027460262
 30
0.0
 40
0.3301369671027032
 50
0.0
 51
90.0
  0
ARC
  5
492
  8
1
  6
CONTINUOUS
 62
     7
 10
207.65338806978039
 20
101.818027460262
 30
0.0
 40
0.3301369671037975
 50
90.0
 51
180.0
  0
ARC
  5
493
  8
1
  6
CONTINUOUS
 62
     7
 10
206.33284020136961
 20
97.196109920822607
 30
0.0
 40
0.330136967102888
 50
270.0
 51
0.0
  0
ARC
  5
494
  8
1
  6
CONTINUOUS
 62
     7
 10
206.33284020136961
 20
97.196109920822607
 30
0.0
 40
0.3301369671031011
 50
180.0
 51
270.0
  0
ARC
  5
495
  8
1
  6
CONTINUOUS
 62
     7
 10
206.33284020136961
 20
101.818027460262
 30
0.0
 40
0.3301369671019074
 50
0.0
 51
90.0
  0
ARC
  5
496
  8
1
  6
CONTINUOUS
 62
     7
 10
206.33284020136961
 20
101.818027460262
 30
0.0
 40
0.3301369671037975
 50
90.0
 51
180.0
  0
ARC
  5
497
  8
1
  6
CONTINUOUS
 62
     7
 10
205.01229233295709
 20
97.196109920822607
 30
0.0
 40
0.330136967102888
 50
270.0
 51
0.0
  0
ARC
  5
498
  8
1
  6
CONTINUOUS
 62
     7
 10
205.01229233295709
 20
97.196109920822607
 30
0.0
 40
0.3301369671029022
 50
180.0
 51
270.0
  0
ARC
  5
499
  8
1
  6
CONTINUOUS
 62
     7
 10
205.01229233295709
 20
101.818027460262
 30
0.0
 40
0.3301369671031011
 50
0.0
 51
90.0
  0
ARC
  5
49A
  8
1
  6
CONTINUOUS
 62
     7
 10
205.01229233295709
 20
101.818027460262
 30
0.0
 40
0.3301369671037975
 50
90.0
 51
180.0
  0
ARC
  5
49B
  8
1
  6
CONTINUOUS
 62
     7
 10
203.6917444645448
 20
97.196109920822607
 30
0.0
 40
0.330136967102888
 50
270.0
 51
0.0
  0
ARC
  5
49C
  8
1
  6
CONTINUOUS
 62
     7
 10
203.6917444645448
 20
97.196109920822607
 30
0.0
 40
0.3301369671015948
 50
180.0
 51
270.0
  0
ARC
  5
49D
  8
1
  6
CONTINUOUS
 62
     7
 10
203.6917444645448
 20
101.818027460262
 30
0.0
 40
0.3301369671034138
 50
0.0
 51
90.0
  0
ARC
  5
49E
  8
1
  6
CONTINUOUS
 62
     7
 10
203.6917444645448
 20
101.818027460262
 30
0.0
 40
0.3301369671037975
 50
90.0
 51
180.0
  0
ARC
  5
49F
  8
1
  6
CONTINUOUS
 62
     7
 10
202.3711965961343
 20
97.196109920822607
 30
0.0
 40
0.330136967102888
 50
270.0
 51
0.0
  0
ARC
  5
4A0
  8
1
  6
CONTINUOUS
 62
     7
 10
202.3711965961343
 20
97.196109920822607
 30
0.0
 40
0.3301369671033854
 50
180.0
 51
270.0
  0
ARC
  5
4A1
  8
1
  6
CONTINUOUS
 62
     7
 10
202.3711965961343
 20
101.818027460262
 30
0.0
 40
0.3301369671028169
 50
0.0
 51
90.0
  0
ARC
  5
4A2
  8
1
  6
CONTINUOUS
 62
     7
 10
202.3711965961343
 20
101.818027460262
 30
0.0
 40
0.3301369671037975
 50
90.0
 51
180.0
  0
ARC
  5
4A3
  8
1
  6
CONTINUOUS
 62
     7
 10
201.050648727723
 20
97.196109920822607
 30
0.0
 40
0.330136967102888
 50
270.0
 51
0.0
  0
ARC
  5
4A4
  8
1
  6
CONTINUOUS
 62
     7
 10
201.050648727723
 20
97.196109920822607
 30
0.0
 40
0.3301369671032148
 50
180.0
 51
270.0
  0
ARC
  5
4A5
  8
1
  6
CONTINUOUS
 62
     7
 10
201.050648727723
 20
101.818027460262
 30
0.0
 40
0.3301369671033854
 50
0.0
 51
90.0
  0
ARC
  5
4A6
  8
1
  6
CONTINUOUS
 62
     7
 10
201.050648727723
 20
101.818027460262
 30
0.0
 40
0.3301369671037975
 50
90.0
 51
180.0
  0
ARC
  5
4A7
  8
1
  6
CONTINUOUS
 62
     7
 10
199.73010085931071
 20
97.196109920822607
 30
0.0
 40
0.330136967102888
 50
270.0
 51
0.0
  0
ARC
  5
4A8
  8
1
  6
CONTINUOUS
 62
     7
 10
199.73010085931071
 20
97.196109920822607
 30
0.0
 40
0.3301369671029022
 50
180.0
 51
270.0
  0
ARC
  5
4A9
  8
1
  6
CONTINUOUS
 62
     7
 10
199.73010085931071
 20
101.818027460262
 30
0.0
 40
0.3301369671029022
 50
0.0
 51
90.0
  0
ARC
  5
4AA
  8
1
  6
CONTINUOUS
 62
     7
 10
199.73010085931071
 20
101.818027460262
 30
0.0
 40
0.3301369671037975
 50
90.0
 51
180.0
  0
ARC
  5
4AB
  8
1
  6
CONTINUOUS
 62
     7
 10
198.4095529908999
 20
97.196109920822607
 30
0.0
 40
0.330136967102888
 50
270.0
 51
0.0
  0
ARC
  5
4AC
  8
1
  6
CONTINUOUS
 62
     7
 10
198.4095529908999
 20
97.196109920822607
 30
0.0
 40
0.3301369671031011
 50
180.0
 51
270.0
  0
ARC
  5
4AD
  8
1
  6
CONTINUOUS
 62
     7
 10
198.4095529908999
 20
101.818027460262
 30
0.0
 40
0.3301369671031011
 50
0.0
 51
90.0
  0
ARC
  5
4AE
  8
1
  6
CONTINUOUS
 62
     7
 10
198.4095529908999
 20
101.818027460262
 30
0.0
 40
0.3301369671037975
 50
90.0
 51
180.0
  0
ARC
  5
4AF
  8
1
  6
CONTINUOUS
 62
     7
 10
197.08900512248741
 20
97.196109920822607
 30
0.0
 40
0.330136967102888
 50
270.0
 51
0.0
  0
ARC
  5
4B0
  8
1
  6
CONTINUOUS
 62
     7
 10
197.08900512248741
 20
97.196109920822607
 30
0.0
 40
0.3301369671017085
 50
180.0
 51
270.0
  0
ARC
  5
4B1
  8
1
  6
CONTINUOUS
 62
     7
 10
197.08900512248741
 20
101.818027460262
 30
0.0
 40
0.3301369671031011
 50
0.0
 51
90.0
  0
ARC
  5
4B2
  8
1
  6
CONTINUOUS
 62
     7
 10
197.08900512248741
 20
101.818027460262
 30
0.0
 40
0.3301369671037975
 50
90.0
 51
180.0
  0
ARC
  5
4B3
  8
1
  6
CONTINUOUS
 62
     7
 10
195.76845725407631
 20
97.196109920822607
 30
0.0
 40
0.330136967102888
 50
270.0
 51
0.0
  0
ARC
  5
4B4
  8
1
  6
CONTINUOUS
 62
     7
 10
195.76845725407631
 20
97.196109920822607
 30
0.0
 40
0.3301369671031011
 50
180.0
 51
270.0
  0
ARC
  5
4B5
  8
1
  6
CONTINUOUS
 62
     7
 10
195.76845725407631
 20
101.818027460262
 30
0.0
 40
0.3301369671033854
 50
0.0
 51
90.0
  0
ARC
  5
4B6
  8
1
  6
CONTINUOUS
 62
     7
 10
195.76845725407631
 20
101.818027460262
 30
0.0
 40
0.3301369671037975
 50
90.0
 51
180.0
  0
ARC
  5
4B7
  8
1
  6
CONTINUOUS
 62
     7
 10
179.92188283313709
 20
97.196109920822607
 30
0.0
 40
0.330136967102888
 50
270.0
 51
0.0
  0
ARC
  5
4B8
  8
1
  6
CONTINUOUS
 62
     7
 10
179.92188283313709
 20
97.196109920822607
 30
0.0
 40
0.3301369671033854
 50
180.0
 51
270.0
  0
ARC
  5
4B9
  8
1
  6
CONTINUOUS
 62
     7
 10
179.92188283313709
 20
101.818027460262
 30
0.0
 40
0.3301369671031011
 50
0.0
 51
90.0
  0
ARC
  5
4BA
  8
1
  6
CONTINUOUS
 62
     7
 10
179.92188283313709
 20
101.818027460262
 30
0.0
 40
0.3301369671037975
 50
90.0
 51
180.0
  0
ARC
  5
4BB
  8
1
  6
CONTINUOUS
 62
     7
 10
181.2424307015481
 20
97.196109920822607
 30
0.0
 40
0.330136967102888
 50
270.0
 51
0.0
  0
ARC
  5
4BC
  8
1
  6
CONTINUOUS
 62
     7
 10
181.2424307015481
 20
97.196109920822607
 30
0.0
 40
0.3301369671015948
 50
180.0
 51
270.0
  0
ARC
  5
4BD
  8
1
  6
CONTINUOUS
 62
     7
 10
181.2424307015481
 20
101.818027460262
 30
0.0
 40
0.3301369671044085
 50
0.0
 51
90.0
  0
ARC
  5
4BE
  8
1
  6
CONTINUOUS
 62
     7
 10
181.2424307015481
 20
101.818027460262
 30
0.0
 40
0.3301369671037975
 50
90.0
 51
180.0
  0
ARC
  5
4BF
  8
1
  6
CONTINUOUS
 62
     7
 10
182.56297856996039
 20
97.196109920822607
 30
0.0
 40
0.330136967102888
 50
270.0
 51
0.0
  0
ARC
  5
4C0
  8
1
  6
CONTINUOUS
 62
     7
 10
182.56297856996039
 20
97.196109920822607
 30
0.0
 40
0.3301369671015948
 50
180.0
 51
270.0
  0
ARC
  5
4C1
  8
1
  6
CONTINUOUS
 62
     7
 10
182.56297856996039
 20
101.818027460262
 30
0.0
 40
0.3301369671029022
 50
0.0
 51
90.0
  0
ARC
  5
4C2
  8
1
  6
CONTINUOUS
 62
     7
 10
182.56297856996039
 20
101.818027460262
 30
0.0
 40
0.3301369671037975
 50
90.0
 51
180.0
  0
ARC
  5
4C3
  8
1
  6
CONTINUOUS
 62
     7
 10
183.88352643837121
 20
97.196109920822607
 30
0.0
 40
0.330136967102888
 50
270.0
 51
0.0
  0
ARC
  5
4C4
  8
1
  6
CONTINUOUS
 62
     7
 10
183.88352643837121
 20
97.196109920822607
 30
0.0
 40
0.3301369671015948
 50
180.0
 51
270.0
  0
ARC
  5
4C5
  8
1
  6
CONTINUOUS
 62
     7
 10
183.88352643837121
 20
101.818027460262
 30
0.0
 40
0.3301369671046075
 50
0.0
 51
90.0
  0
ARC
  5
4C6
  8
1
  6
CONTINUOUS
 62
     7
 10
183.88352643837121
 20
101.818027460262
 30
0.0
 40
0.3301369671037975
 50
90.0
 51
180.0
  0
ARC
  5
4C7
  8
1
  6
CONTINUOUS
 62
     7
 10
185.2040743067835
 20
97.196109920822607
 30
0.0
 40
0.330136967102888
 50
270.0
 51
0.0
  0
ARC
  5
4C8
  8
1
  6
CONTINUOUS
 62
     7
 10
185.2040743067835
 20
97.196109920822607
 30
0.0
 40
0.3301369671029022
 50
180.0
 51
270.0
  0
ARC
  5
4C9
  8
1
  6
CONTINUOUS
 62
     7
 10
185.2040743067835
 20
101.818027460262
 30
0.0
 40
0.3301369671034138
 50
0.0
 51
90.0
  0
ARC
  5
4CA
  8
1
  6
CONTINUOUS
 62
     7
 10
185.2040743067835
 20
101.818027460262
 30
0.0
 40
0.3301369671037975
 50
90.0
 51
180.0
  0
ARC
  5
4CB
  8
1
  6
CONTINUOUS
 62
     7
 10
186.52462217519579
 20
97.196109920822607
 30
0.0
 40
0.330136967102888
 50
270.0
 51
0.0
  0
ARC
  5
4CC
  8
1
  6
CONTINUOUS
 62
     7
 10
186.52462217519579
 20
97.196109920822607
 30
0.0
 40
0.3301369671028738
 50
180.0
 51
270.0
  0
ARC
  5
4CD
  8
1
  6
CONTINUOUS
 62
     7
 10
186.52462217519579
 20
101.818027460262
 30
0.0
 40
0.3301369671031011
 50
0.0
 51
90.0
  0
ARC
  5
4CE
  8
1
  6
CONTINUOUS
 62
     7
 10
186.52462217519579
 20
101.818027460262
 30
0.0
 40
0.3301369671037975
 50
90.0
 51
180.0
  0
ARC
  5
4CF
  8
1
  6
CONTINUOUS
 62
     7
 10
187.8451700436068
 20
97.196109920822607
 30
0.0
 40
0.330136967102888
 50
270.0
 51
0.0
  0
ARC
  5
4D0
  8
1
  6
CONTINUOUS
 62
     7
 10
187.8451700436068
 20
97.196109920822607
 30
0.0
 40
0.3301369671031011
 50
180.0
 51
270.0
  0
ARC
  5
4D1
  8
1
  6
CONTINUOUS
 62
     7
 10
187.8451700436068
 20
101.818027460262
 30
0.0
 40
0.3301369671031864
 50
0.0
 51
90.0
  0
ARC
  5
4D2
  8
1
  6
CONTINUOUS
 62
     7
 10
187.8451700436068
 20
101.818027460262
 30
0.0
 40
0.3301369671037975
 50
90.0
 51
180.0
  0
ARC
  5
4D3
  8
1
  6
CONTINUOUS
 62
     7
 10
189.16571791201909
 20
97.196109920822607
 30
0.0
 40
0.330136967102888
 50
270.0
 51
0.0
  0
ARC
  5
4D4
  8
1
  6
CONTINUOUS
 62
     7
 10
189.16571791201909
 20
97.196109920822607
 30
0.0
 40
0.3301369671031011
 50
180.0
 51
270.0
  0
ARC
  5
4D5
  8
1
  6
CONTINUOUS
 62
     7
 10
189.16571791201909
 20
101.818027460262
 30
0.0
 40
0.3301369671019074
 50
0.0
 51
90.0
  0
ARC
  5
4D6
  8
1
  6
CONTINUOUS
 62
     7
 10
189.16571791201909
 20
101.818027460262
 30
0.0
 40
0.3301369671037975
 50
90.0
 51
180.0
  0
ARC
  5
4D7
  8
1
  6
CONTINUOUS
 62
     7
 10
190.48626578043039
 20
97.196109920822607
 30
0.0
 40
0.330136967102888
 50
270.0
 51
0.0
  0
ARC
  5
4D8
  8
1
  6
CONTINUOUS
 62
     7
 10
190.48626578043039
 20
97.196109920822607
 30
0.0
 40
0.3301369671030727
 50
180.0
 51
270.0
  0
ARC
  5
4D9
  8
1
  6
CONTINUOUS
 62
     7
 10
190.48626578043039
 20
101.818027460262
 30
0.0
 40
0.3301369671029022
 50
0.0
 51
90.0
  0
ARC
  5
4DA
  8
1
  6
CONTINUOUS
 62
     7
 10
190.48626578043039
 20
101.818027460262
 30
0.0
 40
0.3301369671037975
 50
90.0
 51
180.0
  0
ARC
  5
4DB
  8
1
  6
CONTINUOUS
 62
     7
 10
191.80681364884271
 20
97.196109920822607
 30
0.0
 40
0.330136967102888
 50
270.0
 51
0.0
  0
ARC
  5
4DC
  8
1
  6
CONTINUOUS
 62
     7
 10
191.80681364884271
 20
97.196109920822607
 30
0.0
 40
0.3301369671034138
 50
180.0
 51
270.0
  0
ARC
  5
4DD
  8
1
  6
CONTINUOUS
 62
     7
 10
191.80681364884271
 20
101.818027460262
 30
0.0
 40
0.3301369671015948
 50
0.0
 51
90.0
  0
ARC
  5
4DE
  8
1
  6
CONTINUOUS
 62
     7
 10
191.80681364884271
 20
101.818027460262
 30
0.0
 40
0.3301369671037975
 50
90.0
 51
180.0
  0
ARC
  5
4DF
  8
1
  6
CONTINUOUS
 62
     7
 10
193.12736151725321
 20
97.196109920822607
 30
0.0
 40
0.330136967102888
 50
270.0
 51
0.0
  0
ARC
  5
4E0
  8
1
  6
CONTINUOUS
 62
     7
 10
193.12736151725321
 20
97.196109920822607
 30
0.0
 40
0.3301369671029022
 50
180.0
 51
270.0
  0
ARC
  5
4E1
  8
1
  6
CONTINUOUS
 62
     7
 10
193.12736151725321
 20
101.818027460262
 30
0.0
 40
0.3301369671031864
 50
0.0
 51
90.0
  0
ARC
  5
4E2
  8
1
  6
CONTINUOUS
 62
     7
 10
193.12736151725321
 20
101.818027460262
 30
0.0
 40
0.3301369671037975
 50
90.0
 51
180.0
  0
ARC
  5
4E3
  8
1
  6
CONTINUOUS
 62
     7
 10
194.4479093856643
 20
97.196109920822607
 30
0.0
 40
0.330136967102888
 50
270.0
 51
0.0
  0
ARC
  5
4E4
  8
1
  6
CONTINUOUS
 62
     7
 10
194.4479093856643
 20
97.196109920822607
 30
0.0
 40
0.3301369671034138
 50
180.0
 51
270.0
  0
ARC
  5
4E5
  8
1
  6
CONTINUOUS
 62
     7
 10
194.4479093856643
 20
101.818027460262
 30
0.0
 40
0.3301369671031011
 50
0.0
 51
90.0
  0
ARC
  5
4E6
  8
1
  6
CONTINUOUS
 62
     7
 10
194.4479093856643
 20
101.818027460262
 30
0.0
 40
0.3301369671037975
 50
90.0
 51
180.0
  0
ENDBLK
  5
49
  8
0
  0
BLOCK
  8
0
  2
GENAXEH
 70
     0
 10
0.0
 20
0.0
 30
0.0
  3
GENAXEH
  1

  0
LINE
  5
582
  8
0
 10
-1.0
 20
0.0
 30
0.0
 11
1.0
 21
0.0
 31
0.0
  0
ENDBLK
  5
584
  8
0
  0
BLOCK
  8
0
  2
*D4
 70
     1
 10
0.0
 20
0.0
 30
0.0
  3
*D4
  1

  0
LINE
  5
639
  8
AM_5
  6
BYBLOCK
 10
147.90845546937931
 20
486.97862320783298
 30
0.0
 11
93.363007469379156
 21
486.97862320783298
 31
0.0
  0
LINE
  5
63A
  8
AM_5
  6
BYBLOCK
 10
147.90845546937931
 20
326.9756320427619
 30
0.0
 11
93.363007469379113
 21
326.97563204276202
 31
0.0
  0
LINE
  5
63B
  8
AM_5
  6
BYBLOCK
 10
94.363007469379156
 20
483.47862320783298
 30
0.0
 11
94.363007469379113
 21
330.47563204276202
 31
0.0
  0
SOLID
  5
63C
  8
AM_5
 10
93.779674136045827
 20
483.47862320783298
 30
0.0
 11
94.946340802712484
 21
483.47862320783298
 31
0.0
 12
94.363007469379156
 22
486.97862320783298
 32
0.0
 13
94.363007469379156
 23
486.97862320783298
 33
0.0
  0
SOLID
  5
63D
  8
AM_5
 10
93.779674136045784
 20
330.47563204276202
 30
0.0
 11
94.946340802712456
 21
330.47563204276202
 31
0.0
 12
94.363007469379113
 22
326.97563204276202
 32
0.0
 13
94.363007469379113
 23
326.97563204276202
 33
0.0
  0
INSERT
  5
63E
  8
0
  2
*U7
 10
0.0
 20
0.0
 30
0.0
  0
POINT
  5
63F
  8
DEFPOINTS
 62
     0
 10
148.90845546937931
 20
486.97862320783298
 30
0.0
  0
POINT
  5
640
  8
DEFPOINTS
 62
     0
 10
148.90845546937931
 20
326.9756320427619
 30
0.0
  0
POINT
  5
641
  8
DEFPOINTS
 62
     0
 10
94.363007469379113
 20
326.97563204276202
 30
0.0
  0
ENDBLK
  5
5F2
  8
0
  0
BLOCK
  8
0
  2
*D5
 70
     1
 10
0.0
 20
0.0
 30
0.0
  3
*D5
  1

  0
LINE
  5
67E
  8
AM_5
  6
BYBLOCK
 10
147.90845546937931
 20
352.98142026956498
 30
0.0
 11
118.21722751618771
 21
352.98142026956509
 31
0.0
  0
LINE
  5
67F
  8
AM_5
  6
BYBLOCK
 10
147.90845546937931
 20
342.9764408482331
 30
0.0
 11
118.21722751618771
 21
342.97644084823321
 31
0.0
  0
LINE
  5
680
  8
AM_5
  6
BYBLOCK
 10
119.21722751618771
 20
349.48142026956509
 30
0.0
 11
119.21722751618771
 21
346.47644084823321
 31
0.0
  0
SOLID
  5
681
  8
AM_5
 10
118.63389418285431
 20
349.48142026956509
 30
0.0
 11
119.80056084952101
 21
349.48142026956509
 31
0.0
 12
119.21722751618771
 22
352.98142026956509
 32
0.0
 13
119.21722751618771
 23
352.98142026956509
 33
0.0
  0
SOLID
  5
682
  8
AM_5
 10
118.63389418285431
 20
346.47644084823321
 30
0.0
 11
119.80056084952101
 21
346.47644084823321
 31
0.0
 12
119.21722751618771
 22
342.97644084823321
 32
0.0
 13
119.21722751618771
 23
342.97644084823321
 33
0.0
  0
INSERT
  5
683
  8
0
  2
*U8
 10
0.0
 20
0.0
 30
0.0
  0
POINT
  5
684
  8
DEFPOINTS
 62
     0
 10
148.90845546937931
 20
352.98142026956498
 30
0.0
  0
POINT
  5
685
  8
DEFPOINTS
 62
     0
 10
148.90845546937931
 20
342.9764408482331
 30
0.0
  0
POINT
  5
686
  8
DEFPOINTS
 62
     0
 10
119.21722751618771
 20
342.97644084823321
 30
0.0
  0
ENDBLK
  5
645
  8
0
  0
BLOCK
  8
0
  2
*D6
 70
     1
 10
0.0
 20
0.0
 30
0.0
  3
*D6
  1

  0
LINE
  5
6C3
  8
AM_5
  6
BYBLOCK
 10
813.95694076061602
 20
330.92092633876888
 30
0.0
 11
813.95694076061602
 21
289.23763051453182
 31
0.0
  0
LINE
  5
6C4
  8
AM_5
  6
BYBLOCK
 10
726.98934851102285
 20
335.94808240088861
 30
0.0
 11
726.98934851102285
 21
289.23763051453182
 31
0.0
  0
LINE
  5
6C5
  8
AM_5
  6
BYBLOCK
 10
810.45694076061602
 20
290.23763051453182
 30
0.0
 11
730.48934851102297
 21
290.23763051453182
 31
0.0
  0
SOLID
  5
6C6
  8
AM_5
 10
810.45694076061602
 20
290.82096384786519
 30
0.0
 11
810.45694076061602
 21
289.6542971811985
 31
0.0
 12
813.95694076061602
 22
290.23763051453182
 32
0.0
 13
813.95694076061602
 23
290.23763051453182
 33
0.0
  0
SOLID
  5
6C7
  8
AM_5
 10
730.48934851102297
 20
290.82096384786519
 30
0.0
 11
730.48934851102297
 21
289.6542971811985
 31
0.0
 12
726.98934851102285
 22
290.23763051453182
 32
0.0
 13
726.98934851102285
 23
290.23763051453182
 33
0.0
  0
INSERT
  5
6C8
  8
0
  2
*U9
 10
0.0
 20
0.0
 30
0.0
  0
POINT
  5
6C9
  8
DEFPOINTS
 62
     0
 10
813.95694076061602
 20
331.92092633876888
 30
0.0
  0
POINT
  5
6CA
  8
DEFPOINTS
 62
     0
 10
726.98934851102285
 20
336.94808240088861
 30
0.0
  0
POINT
  5
6CB
  8
DEFPOINTS
 62
     0
 10
726.98934851102285
 20
290.23763051453182
 30
0.0
  0
ENDBLK
  5
68A
  8
0
  0
BLOCK
  8
0
  2
*U7
 70
     1
 10
0.0
 20
0.0
 30
0.0
  3
*U7
  1

  0
TEXT
  5
757
  8
AM_5
 62
     2
 10
92.86300746937907
 20
403.18546095863081
 30
0.0
 40
3.5
  1
160
 50
90.0
  0
ENDBLK
  5
759
  8
0
  0
BLOCK
  8
0
  2
*U8
 70
     1
 10
0.0
 20
0.0
 30
0.0
  3
*U8
  1

  0
TEXT
  5
75B
  8
AM_5
 62
     2
 10
117.71722751618761
 20
345.93726389223252
 30
0.0
 40
3.5
  1
10
 50
90.0
  0
ENDBLK
  5
75D
  8
0
  0
BLOCK
  8
0
  2
*U9
 70
     1
 10
0.0
 20
0.0
 30
0.0
  3
*U9
  1

  0
TEXT
  5
75F
  8
AM_5
 62
     2
 10
763.47314463581949
 20
291.73763051453182
 30
0.0
 40
3.5
  1
86.97
  0
ENDBLK
  5
761
  8
0
  0
ENDSEC
  0
SECTION
  2
ENTITIES
  0
INSERT
  5
6C
  8
0
  2
TOP__1
 10
995.08209442681527
 20
-179.50737196111541
 30
0.0
 41
4.5454540000000003
 42
4.5454540000000003
 43
4.5454540000000003
  0
ENDSEC
  0
EOF
