  0
SECTION
  2
HEADER
  9
$ACADVER
  1
AC1015
  9
$ACADMAINTVER
 70
     6
  9
$DWGCODEPAGE
  3
ANSI_932
  9
$INSBASE
 10
0.0
 20
0.0
 30
0.0
  9
$EXTMIN
 10
-0.0000000000000568
 20
0.0
 30
0.0
  9
$EXTMAX
 10
420.0
 20
297.0
 30
0.0
  9
$LIMMIN
 10
0.0
 20
0.0
  9
$LIMMAX
 10
420.0
 20
297.0
  9
$ORTHOMODE
 70
     0
  9
$REGENMODE
 70
     1
  9
$FILLMODE
 70
     1
  9
$QTEXTMODE
 70
     0
  9
$MIRRTEXT
 70
     1
  9
$LTSCALE
 40
1.0
  9
$ATTMODE
 70
     1
  9
$TEXTSIZE
 40
2.5
  9
$TRACEWID
 40
1.0
  9
$TEXTSTYLE
  7
Standard
  9
$CLAYER
  8
画層1
  9
$CELTYPE
  6
ByLayer
  9
$CECOLOR
 62
   256
  9
$CELTSCALE
 40
1.0
  9
$DISPSILH
 70
     0
  9
$DIMSCALE
 40
1.0
  9
$DIMASZ
 40
2.5
  9
$DIMEXO
 40
0.625
  9
$DIMDLI
 40
3.75
  9
$DIMRND
 40
0.0
  9
$DIMDLE
 40
0.0
  9
$DIMEXE
 40
1.25
  9
$DIMTP
 40
0.0
  9
$DIMTM
 40
0.0
  9
$DIMTXT
 40
2.5
  9
$DIMCEN
 40
2.5
  9
$DIMTSZ
 40
0.0
  9
$DIMTOL
 70
     0
  9
$DIMLIM
 70
     0
  9
$DIMTIH
 70
     0
  9
$DIMTOH
 70
     0
  9
$DIMSE1
 70
     0
  9
$DIMSE2
 70
     0
  9
$DIMTAD
 70
     1
  9
$DIMZIN
 70
     8
  9
$DIMBLK
  1

  9
$DIMASO
 70
     1
  9
$DIMSHO
 70
     1
  9
$DIMPOST
  1

  9
$DIMAPOST
  1

  9
$DIMALT
 70
     0
  9
$DIMALTD
 70
     3
  9
$DIMALTF
 40
0.03937007874016
  9
$DIMLFAC
 40
1.0
  9
$DIMTOFL
 70
     1
  9
$DIMTVP
 40
0.0
  9
$DIMTIX
 70
     0
  9
$DIMSOXD
 70
     0
  9
$DIMSAH
 70
     0
  9
$DIMBLK1
  1

  9
$DIMBLK2
  1

  9
$DIMSTYLE
  2
ISO-25
  9
$DIMCLRD
 70
     0
  9
$DIMCLRE
 70
     0
  9
$DIMCLRT
 70
     0
  9
$DIMTFAC
 40
1.0
  9
$DIMGAP
 40
0.625
  9
$DIMJUST
 70
     0
  9
$DIMSD1
 70
     0
  9
$DIMSD2
 70
     0
  9
$DIMTOLJ
 70
     0
  9
$DIMTZIN
 70
     8
  9
$DIMALTZ
 70
     0
  9
$DIMALTTZ
 70
     0
  9
$DIMUPT
 70
     0
  9
$DIMDEC
 70
     2
  9
$DIMTDEC
 70
     2
  9
$DIMALTU
 70
     2
  9
$DIMALTTD
 70
     3
  9
$DIMTXSTY
  7
Standard
  9
$DIMAUNIT
 70
     0
  9
$DIMADEC
 70
     0
  9
$DIMALTRND
 40
0.0
  9
$DIMAZIN
 70
     0
  9
$DIMDSEP
 70
    44
  9
$DIMATFIT
 70
     3
  9
$DIMFRAC
 70
     0
  9
$DIMLDRBLK
  1

  9
$DIMLUNIT
 70
     2
  9
$DIMLWD
 70
    -2
  9
$DIMLWE
 70
    -2
  9
$DIMTMOVE
 70
     0
  9
$LUNITS
 70
     2
  9
$LUPREC
 70
     4
  9
$SKETCHINC
 40
1.0
  9
$FILLETRAD
 40
10.0
  9
$AUNITS
 70
     0
  9
$AUPREC
 70
     0
  9
$MENU
  1
.
  9
$ELEVATION
 40
0.0
  9
$PELEVATION
 40
0.0
  9
$THICKNESS
 40
0.0
  9
$LIMCHECK
 70
     0
  9
$CHAMFERA
 40
10.0
  9
$CHAMFERB
 40
10.0
  9
$CHAMFERC
 40
20.0
  9
$CHAMFERD
 40
0.0
  9
$SKPOLY
 70
     0
  9
$TDCREATE
 40
2454637.578950150
  9
$TDUCREATE
 40
2454637.203950150
  9
$TDUPDATE
 40
2455006.701451458
  9
$TDUUPDATE
 40
2455006.326451458
  9
$TDINDWG
 40
0.1565077083
  9
$TDUSRTIMER
 40
0.1565077083
  9
$USRTIMER
 70
     1
  9
$ANGBASE
 50
0.0
  9
$ANGDIR
 70
     0
  9
$PDMODE
 70
     0
  9
$PDSIZE
 40
0.0
  9
$PLINEWID
 40
0.0
  9
$SPLFRAME
 70
     0
  9
$SPLINETYPE
 70
     6
  9
$SPLINESEGS
 70
     8
  9
$HANDSEED
  5
22F
  9
$SURFTAB1
 70
     6
  9
$SURFTAB2
 70
     6
  9
$SURFTYPE
 70
     6
  9
$SURFU
 70
     6
  9
$SURFV
 70
     6
  9
$UCSBASE
  2

  9
$UCSNAME
  2

  9
$UCSORG
 10
0.0
 20
0.0
 30
0.0
  9
$UCSXDIR
 10
1.0
 20
0.0
 30
0.0
  9
$UCSYDIR
 10
0.0
 20
1.0
 30
0.0
  9
$UCSORTHOREF
  2

  9
$UCSORTHOVIEW
 70
     0
  9
$UCSORGTOP
 10
0.0
 20
0.0
 30
0.0
  9
$UCSORGBOTTOM
 10
0.0
 20
0.0
 30
0.0
  9
$UCSORGLEFT
 10
0.0
 20
0.0
 30
0.0
  9
$UCSORGRIGHT
 10
0.0
 20
0.0
 30
0.0
  9
$UCSORGFRONT
 10
0.0
 20
0.0
 30
0.0
  9
$UCSORGBACK
 10
0.0
 20
0.0
 30
0.0
  9
$PUCSBASE
  2

  9
$PUCSNAME
  2

  9
$PUCSORG
 10
0.0
 20
0.0
 30
0.0
  9
$PUCSXDIR
 10
1.0
 20
0.0
 30
0.0
  9
$PUCSYDIR
 10
0.0
 20
1.0
 30
0.0
  9
$PUCSORTHOREF
  2

  9
$PUCSORTHOVIEW
 70
     0
  9
$PUCSORGTOP
 10
0.0
 20
0.0
 30
0.0
  9
$PUCSORGBOTTOM
 10
0.0
 20
0.0
 30
0.0
  9
$PUCSORGLEFT
 10
0.0
 20
0.0
 30
0.0
  9
$PUCSORGRIGHT
 10
0.0
 20
0.0
 30
0.0
  9
$PUCSORGFRONT
 10
0.0
 20
0.0
 30
0.0
  9
$PUCSORGBACK
 10
0.0
 20
0.0
 30
0.0
  9
$USERI1
 70
     0
  9
$USERI2
 70
     0
  9
$USERI3
 70
     0
  9
$USERI4
 70
     0
  9
$USERI5
 70
     0
  9
$USERR1
 40
0.0
  9
$USERR2
 40
0.0
  9
$USERR3
 40
0.0
  9
$USERR4
 40
0.0
  9
$USERR5
 40
0.0
  9
$WORLDVIEW
 70
     1
  9
$SHADEDGE
 70
     3
  9
$SHADEDIF
 70
    70
  9
$TILEMODE
 70
     1
  9
$MAXACTVP
 70
    64
  9
$PINSBASE
 10
0.0
 20
0.0
 30
0.0
  9
$PLIMCHECK
 70
     0
  9
$PEXTMIN
 10
1.000000000000000E+20
 20
1.000000000000000E+20
 30
1.000000000000000E+20
  9
$PEXTMAX
 10
-1.000000000000000E+20
 20
-1.000000000000000E+20
 30
-1.000000000000000E+20
  9
$PLIMMIN
 10
0.0
 20
0.0
  9
$PLIMMAX
 10
420.0
 20
297.0
  9
$UNITMODE
 70
     0
  9
$VISRETAIN
 70
     1
  9
$PLINEGEN
 70
     0
  9
$PSLTSCALE
 70
     1
  9
$TREEDEPTH
 70
  3020
  9
$CMLSTYLE
  2
Standard
  9
$CMLJUST
 70
     0
  9
$CMLSCALE
 40
20.0
  9
$PROXYGRAPHICS
 70
     1
  9
$MEASUREMENT
 70
     1
  9
$CELWEIGHT
370
    -1
  9
$ENDCAPS
280
     0
  9
$JOINSTYLE
280
     0
  9
$LWDISPLAY
290
     0
  9
$INSUNITS
 70
     4
  9
$HYPERLINKBASE
  1

  9
$STYLESHEET
  1

  9
$XEDIT
290
     1
  9
$CEPSNTYPE
380
     0
  9
$PSTYLEMODE
290
     1
  9
$FINGERPRINTGUID
  2
{FDEAD578-A652-11D2-9A35-0060089B3A3F}
  9
$VERSIONGUID
  2
{668D4F08-CAD7-47C5-A8B5-D4A732A38B20}
  9
$EXTNAMES
290
     1
  9
$PSVPSCALE
 40
0.0
  9
$OLESTARTUP
290
     0
  0
ENDSEC
  0
SECTION
  2
CLASSES
  0
CLASS
  1
ACDBDICTIONARYWDFLT
  2
AcDbDictionaryWithDefault
  3
AutoCAD 2000
 90
        0
280
     0
281
     0
  0
CLASS
  1
ACDBPLACEHOLDER
  2
AcDbPlaceHolder
  3
AutoCAD 2000
 90
        0
280
     0
281
     0
  0
CLASS
  1
LAYOUT
  2
AcDbLayout
  3
AutoCAD 2000
 90
        0
280
     0
281
     0
  0
ENDSEC
  0
SECTION
  2
TABLES
  0
TABLE
  2
VPORT
  5
8
330
0
100
AcDbSymbolTable
 70
     2
  0
VPORT
  5
22E
330
8
100
AcDbSymbolTableRecord
100
AcDbViewportTableRecord
  2
*Active
 70
     0
 10
0.0
 20
0.0
 11
1.0
 21
1.0
 12
230.8557840777333
 22
139.088370934263
 13
0.0
 23
0.0
 14
10.0
 24
10.0
 15
10.0
 25
10.0
 16
0.0
 26
0.0
 36
1.0
 17
0.0
 27
0.0
 37
0.0
 40
333.2447603865312
 41
1.708108108108108
 42
50.0
 43
0.0
 44
0.0
 50
0.0
 51
0.0
 71
     0
 72
   100
 73
     1
 74
     3
 75
     0
 76
     0
 77
     0
 78
     0
281
     0
 65
     1
110
0.0
120
0.0
130
0.0
111
1.0
121
0.0
131
0.0
112
0.0
122
1.0
132
0.0
 79
     0
146
0.0
  0
ENDTAB
  0
TABLE
  2
LTYPE
  5
5
330
0
100
AcDbSymbolTable
 70
     1
  0
LTYPE
  5
14
330
5
100
AcDbSymbolTableRecord
100
AcDbLinetypeTableRecord
  2
ByBlock
 70
     0
  3

 72
    65
 73
     0
 40
0.0
  0
LTYPE
  5
15
330
5
100
AcDbSymbolTableRecord
100
AcDbLinetypeTableRecord
  2
ByLayer
 70
     0
  3

 72
    65
 73
     0
 40
0.0
  0
LTYPE
  5
16
330
5
100
AcDbSymbolTableRecord
100
AcDbLinetypeTableRecord
  2
Continuous
 70
     0
  3
Solid line
 72
    65
 73
     0
 40
0.0
  0
ENDTAB
  0
TABLE
  2
LAYER
  5
2
330
0
100
AcDbSymbolTable
 70
     6
  0
LAYER
  5
10
330
2
100
AcDbSymbolTableRecord
100
AcDbLayerTableRecord
  2
0
 70
     0
 62
     7
  6
Continuous
370
    -3
390
F
  0
LAYER
  5
44
330
2
100
AcDbSymbolTableRecord
100
AcDbLayerTableRecord
  2
画層1
 70
     0
 62
     7
  6
Continuous
370
    -3
390
F
  0
LAYER
  5
45
330
2
100
AcDbSymbolTableRecord
100
AcDbLayerTableRecord
  2
取り付け金具
 70
     0
 62
     2
  6
Continuous
370
    -3
390
F
  0
LAYER
  5
46
330
2
100
AcDbSymbolTableRecord
100
AcDbLayerTableRecord
  2
SR107　6打点
 70
     0
 62
     3
  6
Continuous
370
    -3
390
F
  0
LAYER
  5
47
330
2
100
AcDbSymbolTableRecord
100
AcDbLayerTableRecord
  2
画層4
 70
     0
 62
    -4
  6
Continuous
370
    -3
390
F
  0
LAYER
  5
48
330
2
100
AcDbSymbolTableRecord
100
AcDbLayerTableRecord
  2
A4枠
 70
     4
 62
     6
  6
Continuous
290
     0
370
    -3
390
F
  0
ENDTAB
  0
TABLE
  2
STYLE
  5
3
330
0
100
AcDbSymbolTable
 70
     1
  0
STYLE
  5
11
330
3
100
AcDbSymbolTableRecord
100
AcDbTextStyleTableRecord
  2
Standard
 70
     0
 40
0.0
 41
1.0
 50
0.0
 71
     0
 42
2.5
  3
txt
  4

  0
ENDTAB
  0
TABLE
  2
VIEW
  5
6
330
0
100
AcDbSymbolTable
 70
     0
  0
ENDTAB
  0
TABLE
  2
UCS
  5
7
330
0
100
AcDbSymbolTable
 70
     0
  0
ENDTAB
  0
TABLE
  2
APPID
  5
9
330
0
100
AcDbSymbolTable
 70
     1
  0
APPID
  5
12
330
9
100
AcDbSymbolTableRecord
100
AcDbRegAppTableRecord
  2
ACAD
 70
     0
  0
ENDTAB
  0
TABLE
  2
DIMSTYLE
  5
A
330
0
100
AcDbSymbolTable
 70
     1
100
AcDbDimStyleTable
 71
     0
  0
DIMSTYLE
105
27
330
A
100
AcDbSymbolTableRecord
100
AcDbDimStyleTableRecord
  2
ISO-25
 70
     0
 41
2.5
 42
0.625
 43
3.75
 44
1.25
 73
     0
 74
     0
 77
     1
 78
     8
140
2.5
141
2.5
143
0.03937007874016
147
0.625
171
     3
172
     1
271
     2
272
     2
274
     3
278
    44
283
     0
284
     8
340
11
  0
ENDTAB
  0
TABLE
  2
BLOCK_RECORD
  5
1
330
0
100
AcDbSymbolTable
 70
     1
  0
BLOCK_RECORD
  5
1F
330
1
100
AcDbSymbolTableRecord
100
AcDbBlockTableRecord
  2
*Model_Space
340
22
  0
BLOCK_RECORD
  5
1B
330
1
100
AcDbSymbolTableRecord
100
AcDbBlockTableRecord
  2
*Paper_Space
340
1E
  0
BLOCK_RECORD
  5
23
330
1
100
AcDbSymbolTableRecord
100
AcDbBlockTableRecord
  2
*Paper_Space0
340
26
  0
ENDTAB
  0
ENDSEC
  0
SECTION
  2
BLOCKS
  0
BLOCK
  5
20
330
1F
100
AcDbEntity
  8
0
100
AcDbBlockBegin
  2
*Model_Space
 70
     0
 10
0.0
 20
0.0
 30
0.0
  3
*Model_Space
  1

  0
ENDBLK
  5
21
330
1F
100
AcDbEntity
  8
0
100
AcDbBlockEnd
  0
BLOCK
  5
1C
330
1B
100
AcDbEntity
 67
     1
  8
0
100
AcDbBlockBegin
  2
*Paper_Space
 70
     0
 10
0.0
 20
0.0
 30
0.0
  3
*Paper_Space
  1

  0
ENDBLK
  5
1D
330
1B
100
AcDbEntity
 67
     1
  8
0
100
AcDbBlockEnd
  0
BLOCK
  5
24
330
23
100
AcDbEntity
  8
0
100
AcDbBlockBegin
  2
*Paper_Space0
 70
     0
 10
0.0
 20
0.0
 30
0.0
  3
*Paper_Space0
  1

  0
ENDBLK
  5
25
330
23
100
AcDbEntity
  8
0
100
AcDbBlockEnd
  0
ENDSEC
  0
SECTION
  2
ENTITIES
  0
LWPOLYLINE
  5
4C
330
1F
100
AcDbEntity
  8
A4枠
100
AcDbPolyline
 90
        5
 70
     0
 43
0.0
 10
0.0
 20
0.0
 10
420.0
 20
0.0
 10
420.0
 20
297.0
 10
-0.0000000000000568
 20
297.0
 10
0.0
 20
0.0
  0
LINE
  5
61
330
1F
100
AcDbEntity
  8
SR107　6打点
100
AcDbLine
 10
232.5793484298976
 20
221.2523549962812
 30
0.0
 11
213.5793484298976
 21
221.2523549962812
 31
0.0
  0
LINE
  5
62
330
1F
100
AcDbEntity
  8
SR107　6打点
100
AcDbLine
 10
213.5793484298976
 20
221.2523549962812
 30
0.0
 11
213.5793484298976
 21
77.2523549962813
 31
0.0
  0
LINE
  5
66
330
1F
100
AcDbEntity
  8
SR107　6打点
100
AcDbLine
 10
213.5793484298976
 20
77.2523549962813
 30
0.0
 11
232.5793484298976
 21
77.2523549962813
 31
0.0
  0
LINE
  5
67
330
1F
100
AcDbEntity
  8
SR107　6打点
100
AcDbLine
 10
232.5793484298976
 20
77.2523549962813
 30
0.0
 11
232.5793484298976
 21
221.2523549962812
 31
0.0
  0
LINE
  5
68
330
1F
100
AcDbEntity
  8
画層4
100
AcDbLine
 10
4.541192837235699
 20
149.2523549962813
 30
0.0
 11
411.6117559496376
 21
149.2523549962812
 31
0.0
  0
LINE
  5
6D
330
1F
100
AcDbEntity
  8
SR107　6打点
100
AcDbLine
 10
56.57934842989766
 20
217.5023549962813
 30
0.0
 11
213.5793484298976
 21
217.5023549962812
 31
0.0
  0
LINE
  5
6F
330
1F
100
AcDbEntity
  8
SR107　6打点
100
AcDbLine
 10
50.57934842989762
 20
81.0023549962813
 30
0.0
 11
213.5793484298976
 21
81.0023549962813
 31
0.0
  0
LINE
  5
85
330
1F
100
AcDbEntity
  8
SR107　6打点
100
AcDbLine
 10
56.57934842989764
 20
81.0023549962813
 30
0.0
 11
50.57934842989763
 21
81.0023549962813
 31
0.0
  0
LINE
  5
86
330
1F
100
AcDbEntity
  8
SR107　6打点
100
AcDbLine
 10
50.57934842989763
 20
81.0023549962813
 30
0.0
 11
50.57934842989763
 21
118.0023549962813
 31
0.0
  0
LINE
  5
87
330
1F
100
AcDbEntity
  8
SR107　6打点
100
AcDbLine
 10
50.57934842989763
 20
118.0023549962813
 30
0.0
 11
56.57934842989764
 21
118.0023549962813
 31
0.0
  0
LINE
  5
88
330
1F
100
AcDbEntity
  8
SR107　6打点
100
AcDbLine
 10
56.57934842989764
 20
118.0023549962813
 30
0.0
 11
56.57934842989766
 21
217.5023549962813
 31
0.0
  0
LINE
  5
89
330
1F
100
AcDbEntity
  8
SR107　6打点
100
AcDbLine
 10
50.57934842989763
 20
118.0023549962813
 30
0.0
 11
18.07934842989764
 21
118.0023549962813
 31
0.0
  0
LINE
  5
8A
330
1F
100
AcDbEntity
  8
SR107　6打点
100
AcDbLine
 10
18.07934842989764
 20
118.0023549962813
 30
0.0
 11
18.07934842989764
 21
128.5023549962813
 31
0.0
  0
LINE
  5
8B
330
1F
100
AcDbEntity
  8
SR107　6打点
100
AcDbLine
 10
18.07934842989765
 20
196.5023549962813
 30
0.0
 11
16.57934842989765
 21
196.5023549962813
 31
0.0
  0
LINE
  5
8C
330
1F
100
AcDbEntity
  8
SR107　6打点
100
AcDbLine
 10
16.57934842989765
 20
196.5023549962813
 30
0.0
 11
16.57934842989764
 21
118.0023549962813
 31
0.0
  0
LINE
  5
8D
330
1F
100
AcDbEntity
  8
SR107　6打点
100
AcDbLine
 10
18.07934842989765
 20
196.5023549962813
 30
0.0
 11
46.57934842989766
 21
196.5023549962813
 31
0.0
  0
LINE
  5
8E
330
1F
100
AcDbEntity
  8
SR107　6打点
100
AcDbLine
 10
46.57934842989766
 20
196.5023549962813
 30
0.0
 11
46.57934842989766
 21
200.0023549962813
 31
0.0
  0
LINE
  5
8F
330
1F
100
AcDbEntity
  8
SR107　6打点
100
AcDbLine
 10
46.57934842989766
 20
200.0023549962813
 30
0.0
 11
56.57934842989766
 21
200.0023549962813
 31
0.0
  0
LINE
  5
90
330
1F
100
AcDbEntity
  8
SR107　6打点
100
AcDbLine
 10
50.57934842989763
 20
100.0023549962812
 30
0.0
 11
42.57934842989763
 21
100.0023549962812
 31
0.0
  0
LINE
  5
91
330
1F
100
AcDbEntity
  8
SR107　6打点
100
AcDbLine
 10
42.57934842989763
 20
100.0023549962812
 30
0.0
 11
42.57934842989763
 21
87.0023549962813
 31
0.0
  0
LINE
  5
92
330
1F
100
AcDbEntity
  8
SR107　6打点
100
AcDbLine
 10
42.57934842989763
 20
87.0023549962813
 30
0.0
 11
50.57934842989763
 21
87.0023549962813
 31
0.0
  0
LINE
  5
9D
330
1F
100
AcDbEntity
  8
SR107　6打点
100
AcDbLine
 10
232.5793484298976
 20
80.7523549962813
 30
0.0
 11
223.5793484298976
 21
80.7523549962813
 31
0.0
  0
LINE
  5
9E
330
1F
100
AcDbEntity
  8
SR107　6打点
100
AcDbLine
 10
223.5793484298976
 20
80.7523549962813
 30
0.0
 11
223.5793484298976
 21
217.7523549962812
 31
0.0
  0
LINE
  5
9F
330
1F
100
AcDbEntity
  8
SR107　6打点
100
AcDbLine
 10
223.5793484298976
 20
217.7523549962812
 30
0.0
 11
232.5793484298976
 21
217.7523549962812
 31
0.0
  0
LINE
  5
A0
330
1F
100
AcDbEntity
  8
SR107　6打点
100
AcDbLine
 10
267.6117559496376
 20
221.2523549962812
 30
0.0
 11
267.6117559496376
 21
77.2523549962813
 31
0.0
  0
LINE
  5
A1
330
1F
100
AcDbEntity
  8
SR107　6打点
100
AcDbLine
 10
267.6117559496376
 20
77.2523549962813
 30
0.0
 11
411.6117559496376
 21
77.25235499628121
 31
0.0
  0
LINE
  5
A2
330
1F
100
AcDbEntity
  8
SR107　6打点
100
AcDbLine
 10
411.6117559496376
 20
77.25235499628121
 30
0.0
 11
411.6117559496376
 21
221.2523549962812
 31
0.0
  0
LINE
  5
A3
330
1F
100
AcDbEntity
  8
SR107　6打点
100
AcDbLine
 10
411.6117559496376
 20
221.2523549962812
 30
0.0
 11
267.6117559496376
 21
221.2523549962813
 31
0.0
  0
LINE
  5
C5
330
1F
100
AcDbEntity
  8
画層4
100
AcDbLine
 10
267.6117559496376
 20
149.2523549962812
 30
0.0
 11
277.6117559496376
 21
149.2523549962812
 31
0.0
  0
LINE
  5
CB
330
1F
100
AcDbEntity
  8
画層4
100
AcDbLine
 10
411.6117559496376
 20
149.2523549962812
 30
0.0
 11
401.6117559496376
 21
149.2523549962812
 31
0.0
  0
LINE
  5
F5
330
1F
100
AcDbEntity
  8
SR107　6打点
100
AcDbLine
 10
401.6117559496376
 20
209.2523549962812
 30
0.0
 11
401.6117559496376
 21
112.2523549962812
 31
0.0
  0
LINE
  5
F6
330
1F
100
AcDbEntity
  8
SR107　6打点
100
AcDbLine
 10
401.6117559496376
 20
112.2523549962812
 30
0.0
 11
277.6117559496376
 21
112.2523549962812
 31
0.0
  0
LINE
  5
F7
330
1F
100
AcDbEntity
  8
SR107　6打点
100
AcDbLine
 10
277.6117559496376
 20
112.2523549962812
 30
0.0
 11
277.6117559496376
 21
209.2523549962812
 31
0.0
  0
LINE
  5
F8
330
1F
100
AcDbEntity
  8
SR107　6打点
100
AcDbLine
 10
277.6117559496376
 20
209.2523549962812
 30
0.0
 11
401.6117559496376
 21
209.2523549962812
 31
0.0
  0
LINE
  5
F9
330
1F
100
AcDbEntity
  8
SR107　6打点
100
AcDbLine
 10
396.6117559496376
 20
206.2523549962812
 30
0.0
 11
396.6117559496376
 21
116.2523549962812
 31
0.0
  0
LINE
  5
FA
330
1F
100
AcDbEntity
  8
SR107　6打点
100
AcDbLine
 10
396.6117559496376
 20
116.2523549962812
 30
0.0
 11
282.6117559496376
 21
116.2523549962813
 31
0.0
  0
LINE
  5
FB
330
1F
100
AcDbEntity
  8
SR107　6打点
100
AcDbLine
 10
282.6117559496376
 20
116.2523549962813
 30
0.0
 11
282.6117559496376
 21
206.2523549962812
 31
0.0
  0
LINE
  5
FC
330
1F
100
AcDbEntity
  8
SR107　6打点
100
AcDbLine
 10
282.6117559496376
 20
206.2523549962812
 30
0.0
 11
396.6117559496376
 21
206.2523549962812
 31
0.0
  0
LINE
  5
FD
330
1F
100
AcDbEntity
  8
SR107　6打点
100
AcDbLine
 10
396.6117559496376
 20
206.2523549962812
 30
0.0
 11
401.6117559496376
 21
209.2523549962812
 31
0.0
  0
LINE
  5
FE
330
1F
100
AcDbEntity
  8
SR107　6打点
100
AcDbLine
 10
282.6117559496376
 20
206.2523549962812
 30
0.0
 11
277.6117559496376
 21
209.2523549962812
 31
0.0
  0
LINE
  5
100
330
1F
100
AcDbEntity
  8
SR107　6打点
100
AcDbLine
 10
396.6117559496376
 20
116.2523549962812
 30
0.0
 11
401.6117559496376
 21
112.2523549962812
 31
0.0
  0
LINE
  5
101
330
1F
100
AcDbEntity
  8
SR107　6打点
100
AcDbLine
 10
282.6117559496376
 20
116.2523549962813
 30
0.0
 11
277.6117559496376
 21
112.2523549962812
 31
0.0
  0
LINE
  5
102
330
1F
100
AcDbEntity
  8
SR107　6打点
100
AcDbLine
 10
277.6117559496376
 20
85.25235499628127
 30
0.0
 11
277.6117559496376
 21
110.2523549962812
 31
0.0
  0
LINE
  5
103
330
1F
100
AcDbEntity
  8
SR107　6打点
100
AcDbLine
 10
277.6117559496376
 20
110.2523549962812
 30
0.0
 11
347.6117559496376
 21
110.2523549962812
 31
0.0
  0
LINE
  5
104
330
1F
100
AcDbEntity
  8
SR107　6打点
100
AcDbLine
 10
347.6117559496376
 20
110.2523549962812
 30
0.0
 11
347.6117559496376
 21
85.25235499628125
 31
0.0
  0
LINE
  5
105
330
1F
100
AcDbEntity
  8
SR107　6打点
100
AcDbLine
 10
347.6117559496376
 20
85.25235499628125
 30
0.0
 11
277.6117559496376
 21
85.25235499628127
 31
0.0
  0
LINE
  5
106
330
1F
100
AcDbEntity
  8
SR107　6打点
100
AcDbLine
 10
282.6117559496376
 20
106.7523549962812
 30
0.0
 11
342.6117559496376
 21
106.7523549962812
 31
0.0
  0
LINE
  5
107
330
1F
100
AcDbEntity
  8
SR107　6打点
100
AcDbLine
 10
342.6117559496376
 20
106.7523549962812
 30
0.0
 11
342.6117559496376
 21
88.75235499628127
 31
0.0
  0
LINE
  5
108
330
1F
100
AcDbEntity
  8
SR107　6打点
100
AcDbLine
 10
342.6117559496376
 20
88.75235499628127
 30
0.0
 11
282.6117559496376
 21
88.75235499628129
 31
0.0
  0
LINE
  5
109
330
1F
100
AcDbEntity
  8
SR107　6打点
100
AcDbLine
 10
282.6117559496376
 20
88.75235499628129
 30
0.0
 11
282.6117559496376
 21
106.7523549962812
 31
0.0
  0
LINE
  5
10A
330
1F
100
AcDbEntity
  8
SR107　6打点
100
AcDbLine
 10
342.6117559496376
 20
88.75235499628127
 30
0.0
 11
347.6117559496376
 21
85.25235499628125
 31
0.0
  0
LINE
  5
10B
330
1F
100
AcDbEntity
  8
SR107　6打点
100
AcDbLine
 10
342.6117559496376
 20
106.7523549962812
 30
0.0
 11
347.6117559496376
 21
110.2523549962812
 31
0.0
  0
LINE
  5
10C
330
1F
100
AcDbEntity
  8
SR107　6打点
100
AcDbLine
 10
282.6117559496376
 20
106.7523549962812
 30
0.0
 11
277.6117559496376
 21
110.2523549962812
 31
0.0
  0
LINE
  5
10D
330
1F
100
AcDbEntity
  8
SR107　6打点
100
AcDbLine
 10
282.6117559496376
 20
88.75235499628129
 30
0.0
 11
277.6117559496376
 21
85.25235499628127
 31
0.0
  0
LINE
  5
10F
330
1F
100
AcDbEntity
  8
SR107　6打点
100
AcDbLine
 10
377.6117559496376
 20
215.7523549962812
 30
0.0
 11
401.6117559496376
 21
215.7523549962812
 31
0.0
  0
LINE
  5
112
330
1F
100
AcDbEntity
  8
SR107　6打点
100
AcDbLine
 10
376.6117559496376
 20
214.7523549962812
 30
0.0
 11
402.6117559496376
 21
214.7523549962812
 31
0.0
  0
LINE
  5
15D
330
1F
100
AcDbEntity
  8
SR107　6打点
100
AcDbLine
 10
351.6117559496376
 20
110.2523549962812
 30
0.0
 11
351.6117559496376
 21
109.2523549962812
 31
0.0
  0
LINE
  5
160
330
1F
100
AcDbEntity
  8
SR107　6打点
100
AcDbLine
 10
351.6117559496376
 20
107.2523549962812
 30
0.0
 11
351.6117559496376
 21
106.2523549962812
 31
0.0
  0
LINE
  5
163
330
1F
100
AcDbEntity
  8
SR107　6打点
100
AcDbLine
 10
351.6117559496376
 20
104.2523549962812
 30
0.0
 11
351.6117559496376
 21
103.2523549962812
 31
0.0
  0
LINE
  5
166
330
1F
100
AcDbEntity
  8
SR107　6打点
100
AcDbLine
 10
351.6117559496376
 20
101.2523549962812
 30
0.0
 11
351.6117559496376
 21
100.2523549962812
 31
0.0
  0
LINE
  5
169
330
1F
100
AcDbEntity
  8
SR107　6打点
100
AcDbLine
 10
351.6117559496376
 20
98.25235499628128
 30
0.0
 11
351.6117559496376
 21
97.25235499628126
 31
0.0
  0
LINE
  5
16C
330
1F
100
AcDbEntity
  8
SR107　6打点
100
AcDbLine
 10
351.6117559496376
 20
95.25235499628127
 30
0.0
 11
351.6117559496376
 21
94.25235499628128
 31
0.0
  0
LINE
  5
16F
330
1F
100
AcDbEntity
  8
SR107　6打点
100
AcDbLine
 10
351.6117559496376
 20
92.25235499628126
 30
0.0
 11
351.6117559496376
 21
91.25235499628127
 31
0.0
  0
LINE
  5
174
330
1F
100
AcDbEntity
  8
SR107　6打点
100
AcDbLine
 10
351.6117559496376
 20
89.25235499628128
 30
0.0
 11
351.6117559496376
 21
88.25235499628126
 31
0.0
  0
LINE
  5
177
330
1F
100
AcDbEntity
  8
SR107　6打点
100
AcDbLine
 10
351.6117559496376
 20
86.25235499628127
 30
0.0
 11
351.6117559496376
 21
85.25235499628125
 31
0.0
  0
LINE
  5
179
330
1F
100
AcDbEntity
  8
SR107　6打点
100
AcDbLine
 10
351.6117559496376
 20
110.2523549962812
 30
0.0
 11
411.6117559496376
 21
110.2523549962812
 31
0.0
  0
LINE
  5
17A
330
1F
100
AcDbEntity
  8
SR107　6打点
100
AcDbLine
 10
351.6117559496376
 20
109.2523549962812
 30
0.0
 11
411.6117559496376
 21
109.2523549962812
 31
0.0
  0
LINE
  5
17B
330
1F
100
AcDbEntity
  8
SR107　6打点
100
AcDbLine
 10
351.6117559496376
 20
107.2523549962812
 30
0.0
 11
411.6117559496376
 21
107.2523549962812
 31
0.0
  0
LINE
  5
17C
330
1F
100
AcDbEntity
  8
SR107　6打点
100
AcDbLine
 10
351.6117559496376
 20
106.2523549962812
 30
0.0
 11
411.6117559496376
 21
106.2523549962812
 31
0.0
  0
LINE
  5
17D
330
1F
100
AcDbEntity
  8
SR107　6打点
100
AcDbLine
 10
351.6117559496376
 20
104.2523549962812
 30
0.0
 11
411.6117559496376
 21
104.2523549962812
 31
0.0
  0
LINE
  5
17E
330
1F
100
AcDbEntity
  8
SR107　6打点
100
AcDbLine
 10
351.6117559496376
 20
103.2523549962812
 30
0.0
 11
411.6117559496376
 21
103.2523549962812
 31
0.0
  0
LINE
  5
17F
330
1F
100
AcDbEntity
  8
SR107　6打点
100
AcDbLine
 10
351.6117559496376
 20
101.2523549962812
 30
0.0
 11
411.6117559496376
 21
101.2523549962812
 31
0.0
  0
LINE
  5
180
330
1F
100
AcDbEntity
  8
SR107　6打点
100
AcDbLine
 10
351.6117559496376
 20
100.2523549962812
 30
0.0
 11
411.6117559496376
 21
100.2523549962812
 31
0.0
  0
LINE
  5
181
330
1F
100
AcDbEntity
  8
SR107　6打点
100
AcDbLine
 10
351.6117559496376
 20
98.25235499628128
 30
0.0
 11
411.6117559496376
 21
98.25235499628128
 31
0.0
  0
LINE
  5
182
330
1F
100
AcDbEntity
  8
SR107　6打点
100
AcDbLine
 10
351.6117559496376
 20
97.25235499628126
 30
0.0
 11
411.6117559496376
 21
97.25235499628126
 31
0.0
  0
LINE
  5
183
330
1F
100
AcDbEntity
  8
SR107　6打点
100
AcDbLine
 10
351.6117559496376
 20
95.25235499628127
 30
0.0
 11
411.6117559496376
 21
95.25235499628127
 31
0.0
  0
LINE
  5
184
330
1F
100
AcDbEntity
  8
SR107　6打点
100
AcDbLine
 10
351.6117559496376
 20
94.25235499628128
 30
0.0
 11
411.6117559496376
 21
94.25235499628128
 31
0.0
  0
LINE
  5
186
330
1F
100
AcDbEntity
  8
SR107　6打点
100
AcDbLine
 10
351.6117559496376
 20
92.25235499628126
 30
0.0
 11
411.6117559496376
 21
92.25235499628126
 31
0.0
  0
LINE
  5
187
330
1F
100
AcDbEntity
  8
SR107　6打点
100
AcDbLine
 10
351.6117559496376
 20
91.25235499628127
 30
0.0
 11
411.6117559496376
 21
91.25235499628127
 31
0.0
  0
LINE
  5
188
330
1F
100
AcDbEntity
  8
SR107　6打点
100
AcDbLine
 10
351.6117559496376
 20
89.25235499628128
 30
0.0
 11
411.6117559496376
 21
89.25235499628128
 31
0.0
  0
LINE
  5
189
330
1F
100
AcDbEntity
  8
SR107　6打点
100
AcDbLine
 10
351.6117559496376
 20
88.25235499628126
 30
0.0
 11
411.6117559496376
 21
88.25235499628126
 31
0.0
  0
LINE
  5
18A
330
1F
100
AcDbEntity
  8
SR107　6打点
100
AcDbLine
 10
351.6117559496376
 20
86.25235499628127
 30
0.0
 11
411.6117559496376
 21
86.25235499628127
 31
0.0
  0
LINE
  5
18B
330
1F
100
AcDbEntity
  8
SR107　6打点
100
AcDbLine
 10
351.6117559496376
 20
85.25235499628125
 30
0.0
 11
411.6117559496376
 21
85.25235499628125
 31
0.0
  0
LINE
  5
19C
330
1F
100
AcDbEntity
  8
SR107　6打点
100
AcDbLine
 10
376.6117559496376
 20
214.7523549962812
 30
0.0
 11
376.6117559496376
 21
221.2523549962812
 31
0.0
  0
LINE
  5
19D
330
1F
100
AcDbEntity
  8
SR107　6打点
100
AcDbLine
 10
402.6117559496376
 20
214.7523549962812
 30
0.0
 11
402.6117559496376
 21
221.2523549962812
 31
0.0
  0
LINE
  5
19E
330
1F
100
AcDbEntity
  8
SR107　6打点
100
AcDbLine
 10
377.6117559496376
 20
215.7523549962812
 30
0.0
 11
377.6117559496376
 21
221.2523549962812
 31
0.0
  0
LINE
  5
19F
330
1F
100
AcDbEntity
  8
SR107　6打点
100
AcDbLine
 10
401.6117559496376
 20
215.7523549962812
 30
0.0
 11
401.6117559496376
 21
221.2523549962812
 31
0.0
  0
LINE
  5
1B3
330
1F
100
AcDbEntity
  8
SR107　6打点
100
AcDbLine
 10
377.6117559496376
 20
220.2523549962812
 30
0.0
 11
401.6117559496376
 21
220.2523549962812
 31
0.0
  0
LINE
  5
1B4
330
1F
100
AcDbEntity
  8
SR107　6打点
100
AcDbLine
 10
377.6117559496376
 20
219.7523549962812
 30
0.0
 11
401.6117559496376
 21
219.7523549962812
 31
0.0
  0
LINE
  5
1B5
330
1F
100
AcDbEntity
  8
SR107　6打点
100
AcDbLine
 10
377.6117559496376
 20
218.7523549962812
 30
0.0
 11
401.6117559496376
 21
218.7523549962812
 31
0.0
  0
LINE
  5
1B6
330
1F
100
AcDbEntity
  8
SR107　6打点
100
AcDbLine
 10
377.6117559496376
 20
218.2523549962812
 30
0.0
 11
401.6117559496376
 21
218.2523549962812
 31
0.0
  0
LINE
  5
1B7
330
1F
100
AcDbEntity
  8
SR107　6打点
100
AcDbLine
 10
377.6117559496376
 20
217.2523549962812
 30
0.0
 11
401.6117559496376
 21
217.2523549962812
 31
0.0
  0
LINE
  5
1B8
330
1F
100
AcDbEntity
  8
SR107　6打点
100
AcDbLine
 10
377.6117559496376
 20
216.7223549962812
 30
0.0
 11
401.6117559496376
 21
216.7223549962812
 31
0.0
  0
LINE
  5
1CB
330
1F
100
AcDbEntity
  8
SR107　6打点
100
AcDbLine
 10
18.07934842989765
 20
188.5023549962813
 30
0.0
 11
24.07934842989766
 21
188.5023549962813
 31
0.0
  0
LINE
  5
1CC
330
1F
100
AcDbEntity
  8
SR107　6打点
100
AcDbLine
 10
24.07934842989766
 20
188.5023549962813
 30
0.0
 11
24.07934842989766
 21
187.0023549962813
 31
0.0
  0
LINE
  5
1CD
330
1F
100
AcDbEntity
  8
SR107　6打点
100
AcDbLine
 10
24.07934842989766
 20
187.0023549962813
 30
0.0
 11
18.07934842989765
 21
187.0023549962813
 31
0.0
  0
LINE
  5
1CE
330
1F
100
AcDbEntity
  8
SR107　6打点
100
AcDbLine
 10
18.07934842989764
 20
130.0023549962812
 30
0.0
 11
24.07934842989764
 21
130.0023549962812
 31
0.0
  0
LINE
  5
1CF
330
1F
100
AcDbEntity
  8
SR107　6打点
100
AcDbLine
 10
24.07934842989764
 20
130.0023549962812
 30
0.0
 11
24.07934842989764
 21
128.5023549962813
 31
0.0
  0
LINE
  5
1D0
330
1F
100
AcDbEntity
  8
SR107　6打点
100
AcDbLine
 10
24.07934842989764
 20
128.5023549962813
 30
0.0
 11
18.07934842989764
 21
128.5023549962813
 31
0.0
  0
LINE
  5
1D1
330
1F
100
AcDbEntity
  8
SR107　6打点
100
AcDbLine
 10
18.07934842989765
 20
188.5023549962813
 30
0.0
 11
18.07934842989765
 21
196.5023549962813
 31
0.0
  0
LINE
  5
1D2
330
1F
100
AcDbEntity
  8
SR107　6打点
100
AcDbLine
 10
18.07934842989764
 20
130.0023549962812
 30
0.0
 11
18.07934842989765
 21
187.0023549962813
 31
0.0
  0
LINE
  5
1D3
330
1F
100
AcDbEntity
  8
SR107　6打点
100
AcDbLine
 10
16.57934842989764
 20
118.0023549962813
 30
0.0
 11
18.07934842989764
 21
118.0023549962813
 31
0.0
  0
LINE
  5
1D4
330
1F
100
AcDbEntity
  8
SR107　6打点
100
AcDbLine
 10
46.57934842989766
 20
200.0023549962813
 30
0.0
 11
46.57934842989766
 21
192.0023549962813
 31
0.0
  0
LINE
  5
1D5
330
1F
100
AcDbEntity
  8
SR107　6打点
100
AcDbLine
 10
46.57934842989766
 20
192.0023549962813
 30
0.0
 11
18.07934842989765
 21
192.0023549962813
 31
0.0
  0
LINE
  5
1D6
330
1F
100
AcDbEntity
  8
SR107　6打点
100
AcDbLine
 10
46.57934842989764
 20
118.0023549962813
 30
0.0
 11
46.57934842989764
 21
127.0023549962812
 31
0.0
  0
LINE
  5
1D7
330
1F
100
AcDbEntity
  8
SR107　6打点
100
AcDbLine
 10
46.57934842989764
 20
127.0023549962812
 30
0.0
 11
18.07934842989764
 21
127.0023549962812
 31
0.0
  0
LINE
  5
1D8
330
1F
100
AcDbEntity
  8
SR107　6打点
100
AcDbLine
 10
24.07934842989766
 20
188.5023549962813
 30
0.0
 11
30.07934842989765
 21
188.5023549962813
 31
0.0
  0
LINE
  5
1D9
330
1F
100
AcDbEntity
  8
SR107　6打点
100
AcDbLine
 10
30.07934842989765
 20
188.5023549962813
 30
0.0
 11
30.07934842989764
 21
128.5023549962813
 31
0.0
  0
LINE
  5
1DA
330
1F
100
AcDbEntity
  8
SR107　6打点
100
AcDbLine
 10
30.07934842989764
 20
128.5023549962813
 30
0.0
 11
24.07934842989764
 21
128.5023549962813
 31
0.0
  0
LINE
  5
1DF
330
1F
100
AcDbEntity
  8
画層4
100
AcDbLine
 10
339.6117559496376
 20
221.2523549962812
 30
0.0
 11
339.6117559496376
 21
77.25235499628126
 31
0.0
  0
LINE
  5
1E9
330
1F
100
AcDbEntity
  8
取り付け金具
100
AcDbLine
 10
178.5793484298976
 20
217.5023549962812
 30
0.0
 11
178.5793484298976
 21
229.5023549962813
 31
0.0
  0
LINE
  5
1EA
330
1F
100
AcDbEntity
  8
取り付け金具
100
AcDbLine
 10
178.5793484298976
 20
229.5023549962813
 30
0.0
 11
83.57934842989765
 21
229.5023549962813
 31
0.0
  0
LINE
  5
1EB
330
1F
100
AcDbEntity
  8
取り付け金具
100
AcDbLine
 10
83.57934842989765
 20
229.5023549962813
 30
0.0
 11
83.57934842989765
 21
217.5023549962812
 31
0.0
  0
LINE
  5
1EC
330
1F
100
AcDbEntity
  8
取り付け金具
100
AcDbLine
 10
83.57934842989765
 20
217.5023549962812
 30
0.0
 11
178.5793484298976
 21
217.5023549962812
 31
0.0
  0
LINE
  5
1F7
330
1F
100
AcDbEntity
  8
画層4
100
AcDbLine
 10
178.5793484298976
 20
217.5023549962812
 30
0.0
 11
178.5793484298976
 21
216.5023549962813
 31
0.0
  0
LINE
  5
1FC
330
1F
100
AcDbEntity
  8
取り付け金具
100
AcDbLine
 10
192.445344869679
 20
223.5023549962813
 30
0.0
 11
192.445344869679
 21
225.2523549962813
 31
0.0
  0
LINE
  5
1FD
330
1F
100
AcDbEntity
  8
取り付け金具
100
AcDbLine
 10
192.445344869679
 20
223.5023549962813
 30
0.0
 11
192.445344869679
 21
221.7523549962812
 31
0.0
  0
LINE
  5
200
330
1F
100
AcDbEntity
  8
取り付け金具
100
AcDbLine
 10
192.445344869679
 20
225.2523549962813
 30
0.0
 11
57.44534486967902
 21
225.2523549962813
 31
0.0
  0
LINE
  5
201
330
1F
100
AcDbEntity
  8
取り付け金具
100
AcDbLine
 10
192.445344869679
 20
221.7523549962812
 30
0.0
 11
57.44534486967904
 21
221.7523549962813
 31
0.0
  0
LINE
  5
202
330
1F
100
AcDbEntity
  8
取り付け金具
100
AcDbLine
 10
57.44534486967902
 20
225.2523549962813
 30
0.0
 11
57.44534486967904
 21
221.7523549962813
 31
0.0
  0
LINE
  5
204
330
1F
100
AcDbEntity
  8
画層4
100
AcDbLine
 10
178.5793484298976
 20
81.0023549962813
 30
0.0
 11
178.5793484298976
 21
82.0023549962813
 31
0.0
  0
LINE
  5
205
330
1F
100
AcDbEntity
  8
取り付け金具
100
AcDbLine
 10
192.445344869679
 20
73.2523549962813
 30
0.0
 11
57.44534486967902
 21
73.25235499628132
 31
0.0
  0
LINE
  5
206
330
1F
100
AcDbEntity
  8
取り付け金具
100
AcDbLine
 10
192.445344869679
 20
76.75235499628129
 30
0.0
 11
57.44534486967899
 21
76.75235499628133
 31
0.0
  0
LINE
  5
207
330
1F
100
AcDbEntity
  8
取り付け金具
100
AcDbLine
 10
57.44534486967899
 20
76.75235499628133
 30
0.0
 11
57.44534486967902
 21
73.25235499628132
 31
0.0
  0
LINE
  5
208
330
1F
100
AcDbEntity
  8
取り付け金具
100
AcDbLine
 10
178.5793484298976
 20
81.0023549962813
 30
0.0
 11
83.57934842989761
 21
81.0023549962813
 31
0.0
  0
LINE
  5
209
330
1F
100
AcDbEntity
  8
取り付け金具
100
AcDbLine
 10
83.57934842989761
 20
69.0023549962813
 30
0.0
 11
178.5793484298976
 21
69.0023549962813
 31
0.0
  0
LINE
  5
20A
330
1F
100
AcDbEntity
  8
取り付け金具
100
AcDbLine
 10
83.57934842989761
 20
81.0023549962813
 30
0.0
 11
83.57934842989761
 21
69.0023549962813
 31
0.0
  0
LINE
  5
20B
330
1F
100
AcDbEntity
  8
取り付け金具
100
AcDbLine
 10
178.5793484298976
 20
69.0023549962813
 30
0.0
 11
178.5793484298976
 21
81.0023549962813
 31
0.0
  0
LINE
  5
20C
330
1F
100
AcDbEntity
  8
取り付け金具
100
AcDbLine
 10
192.445344869679
 20
75.00235499628129
 30
0.0
 11
192.445344869679
 21
76.75235499628129
 31
0.0
  0
LINE
  5
20D
330
1F
100
AcDbEntity
  8
取り付け金具
100
AcDbLine
 10
192.445344869679
 20
75.00235499628129
 30
0.0
 11
192.445344869679
 21
73.2523549962813
 31
0.0
  0
LINE
  5
20E
330
1F
100
AcDbEntity
  8
取り付け金具
100
AcDbLine
 10
270.6117559496376
 20
229.5023549962813
 30
0.0
 11
300.6117559496376
 21
229.5023549962813
 31
0.0
  0
LINE
  5
20F
330
1F
100
AcDbEntity
  8
取り付け金具
100
AcDbLine
 10
300.6117559496376
 20
229.5023549962813
 30
0.0
 11
300.6117559496376
 21
217.5023549962812
 31
0.0
  0
LINE
  5
210
330
1F
100
AcDbEntity
  8
取り付け金具
100
AcDbLine
 10
270.6117559496376
 20
229.5023549962813
 30
0.0
 11
270.6117559496376
 21
217.5023549962812
 31
0.0
  0
LINE
  5
211
330
1F
100
AcDbEntity
  8
取り付け金具
100
AcDbLine
 10
270.6117559496376
 20
217.5023549962812
 30
0.0
 11
300.6117559496376
 21
217.5023549962812
 31
0.0
  0
CIRCLE
  5
214
330
1F
100
AcDbEntity
  8
取り付け金具
100
AcDbCircle
 10
285.6117559496376
 20
223.5023549962813
 30
0.0
 40
1.9
  0
LINE
  5
218
330
1F
100
AcDbEntity
  8
画層4
100
AcDbLine
 10
285.6117559496376
 20
217.5023549962812
 30
0.0
 11
285.6117559496376
 21
221.2523549962813
 31
0.0
  0
LINE
  5
21B
330
1F
100
AcDbEntity
  8
画層4
100
AcDbLine
 10
393.6117559496376
 20
81.0023549962813
 30
0.0
 11
393.6117559496376
 21
77.25235499628123
 31
0.0
  0
LINE
  5
21C
330
1F
100
AcDbEntity
  8
取り付け金具
100
AcDbLine
 10
378.6117559496376
 20
69.0023549962813
 30
0.0
 11
408.6117559496377
 21
69.0023549962813
 31
0.0
  0
LINE
  5
21D
330
1F
100
AcDbEntity
  8
取り付け金具
100
AcDbLine
 10
378.6117559496376
 20
81.0023549962813
 30
0.0
 11
408.6117559496377
 21
81.0023549962813
 31
0.0
  0
LINE
  5
21E
330
1F
100
AcDbEntity
  8
取り付け金具
100
AcDbLine
 10
378.6117559496376
 20
81.0023549962813
 30
0.0
 11
378.6117559496376
 21
69.0023549962813
 31
0.0
  0
CIRCLE
  5
21F
330
1F
100
AcDbEntity
  8
取り付け金具
100
AcDbCircle
 10
393.6117559496376
 20
75.00235499628129
 30
0.0
 40
1.9
  0
LINE
  5
220
330
1F
100
AcDbEntity
  8
取り付け金具
100
AcDbLine
 10
408.6117559496377
 20
81.0023549962813
 30
0.0
 11
408.6117559496377
 21
69.0023549962813
 31
0.0
  0
LEADER
  5
221
330
1F
100
AcDbEntity
  8
取り付け金具
100
AcDbLeader
  3
ISO-25
 73
     0
 40
3.295454545454545
 41
19.58806818181818
 76
     3
 10
131.0793484298976
 20
237.0234991860394
 30
0.0
 10
161.0509697180939
 20
266.9951204742357
 30
0.0
 10
174.5535651837465
 20
266.9951204742357
 30
0.0
340
222
213
0.0
223
-1.25
233
0.0
1001
ACAD
1000
DSTYLE
1002
{
1070
   147
1040
0.625
1070
    77
1070
     0
1002
}
  0
MTEXT
  5
222
102
{ACAD_REACTORS
330
221
102
}
330
1F
100
AcDbEntity
  8
取り付け金具
100
AcDbMText
 10
175.1785651837465
 20
268.2451204742357
 30
0.0
 40
2.5
 41
41.09589999999999
 71
     1
 72
     1
  1
{\fMS UI Gothic|b0|i0|c128|p17;取り付け金具}
 73
     1
 44
1.0
  0
LEADER
  5
224
330
1F
100
AcDbEntity
  8
取り付け金具
100
AcDbLeader
  3
ISO-25
 73
     0
 40
3.295454545454545
 41
19.58806818181818
 76
     3
 10
285.8844352631681
 20
237.0234991860394
 30
0.0
 10
315.8560565513644
 20
266.9951204742357
 30
0.0
 10
329.3586520170169
 20
266.9951204742357
 30
0.0
340
225
213
0.0
223
-1.25
233
0.0
1001
ACAD
1000
DSTYLE
1002
{
1070
   147
1040
0.625
1070
    77
1070
     0
1002
}
  0
MTEXT
  5
225
102
{ACAD_REACTORS
330
224
102
}
330
1F
100
AcDbEntity
  8
取り付け金具
100
AcDbMText
 10
329.983652017017
 20
268.2451204742357
 30
0.0
 40
2.5
 41
41.09589999999999
 71
     1
 72
     1
  1
{\fMS UI Gothic|b0|i0|c128|p17;取り付け金具}
 73
     1
 44
1.0
  0
ENDSEC
  0
SECTION
  2
OBJECTS
  0
DICTIONARY
  5
C
330
0
100
AcDbDictionary
281
     1
  3
ACAD_GROUP
350
D
  3
ACAD_LAYOUT
350
1A
  3
ACAD_MLINESTYLE
350
17
  3
ACAD_PLOTSETTINGS
350
19
  3
ACAD_PLOTSTYLENAME
350
E
  0
DICTIONARY
  5
D
102
{ACAD_REACTORS
330
C
102
}
330
C
100
AcDbDictionary
281
     1
  0
DICTIONARY
  5
1A
102
{ACAD_REACTORS
330
C
102
}
330
C
100
AcDbDictionary
281
     1
  3
Layout1
350
1E
  3
Layout2
350
26
  3
Model
350
22
  0
DICTIONARY
  5
17
102
{ACAD_REACTORS
330
C
102
}
330
C
100
AcDbDictionary
281
     1
  3
Standard
350
18
  0
DICTIONARY
  5
19
102
{ACAD_REACTORS
330
C
102
}
330
C
100
AcDbDictionary
281
     1
  0
ACDBDICTIONARYWDFLT
  5
E
102
{ACAD_REACTORS
330
C
102
}
330
C
100
AcDbDictionary
281
     1
  3
Normal
350
F
100
AcDbDictionaryWithDefault
340
F
  0
LAYOUT
  5
1E
102
{ACAD_REACTORS
330
1A
102
}
330
1A
100
AcDbPlotSettings
  1

  2

  4

  6

 40
0.0
 41
0.0
 42
0.0
 43
0.0
 44
0.0
 45
0.0
 46
0.0
 47
0.0
 48
0.0
 49
0.0
140
0.0
141
0.0
142
1.0
143
1.0
 70
   688
 72
     0
 73
     0
 74
     5
  7

 75
    16
147
1.0
148
0.0
149
0.0
100
AcDbLayout
  1
Layout1
 70
     1
 71
     1
 10
0.0
 20
0.0
 11
420.0
 21
297.0
 12
0.0
 22
0.0
 32
0.0
 14
1.000000000000000E+20
 24
1.000000000000000E+20
 34
1.000000000000000E+20
 15
-1.000000000000000E+20
 25
-1.000000000000000E+20
 35
-1.000000000000000E+20
146
0.0
 13
0.0
 23
0.0
 33
0.0
 16
1.0
 26
0.0
 36
0.0
 17
0.0
 27
1.0
 37
0.0
 76
     0
330
1B
  0
LAYOUT
  5
26
102
{ACAD_REACTORS
330
1A
102
}
330
1A
100
AcDbPlotSettings
  1

  2

  4

  6

 40
0.0
 41
0.0
 42
0.0
 43
0.0
 44
0.0
 45
0.0
 46
0.0
 47
0.0
 48
0.0
 49
0.0
140
0.0
141
0.0
142
1.0
143
1.0
 70
   688
 72
     0
 73
     0
 74
     5
  7

 75
    16
147
1.0
148
0.0
149
0.0
100
AcDbLayout
  1
Layout2
 70
     1
 71
     2
 10
0.0
 20
0.0
 11
12.0
 21
9.0
 12
0.0
 22
0.0
 32
0.0
 14
0.0
 24
0.0
 34
0.0
 15
0.0
 25
0.0
 35
0.0
146
0.0
 13
0.0
 23
0.0
 33
0.0
 16
1.0
 26
0.0
 36
0.0
 17
0.0
 27
1.0
 37
0.0
 76
     0
330
23
  0
LAYOUT
  5
22
102
{ACAD_REACTORS
330
1A
102
}
330
1A
100
AcDbPlotSettings
  1

  2

  4

  6

 40
0.0
 41
0.0
 42
0.0
 43
0.0
 44
0.0
 45
0.0
 46
0.0
 47
0.0
 48
0.0
 49
0.0
140
0.0
141
0.0
142
1.0
143
1.0
 70
  1712
 72
     0
 73
     0
 74
     0
  7

 75
     0
147
1.0
148
0.0
149
0.0
100
AcDbLayout
  1
Model
 70
     1
 71
     0
 10
0.0
 20
0.0
 11
12.0
 21
9.0
 12
0.0
 22
0.0
 32
0.0
 14
0.0
 24
0.0
 34
0.0
 15
0.0
 25
0.0
 35
0.0
146
0.0
 13
0.0
 23
0.0
 33
0.0
 16
1.0
 26
0.0
 36
0.0
 17
0.0
 27
1.0
 37
0.0
 76
     0
330
1F
  0
MLINESTYLE
  5
18
102
{ACAD_REACTORS
330
17
102
}
330
17
100
AcDbMlineStyle
  2
STANDARD
 70
     0
  3

 62
   256
 51
90.0
 52
90.0
 71
     2
 49
0.5
 62
   256
  6
BYLAYER
 49
-0.5
 62
   256
  6
BYLAYER
  0
ACDBPLACEHOLDER
  5
F
102
{ACAD_REACTORS
330
E
102
}
330
E
  0
ENDSEC
  0
EOF
