  0
SECTION
  2
HEADER
  9
$ACADVER
  1
AC1015
  9
$ACADMAINTVER
 70
           6
  9
$DWGCODEPAGE
  3
ANSI_932
  9
$INSBASE
 10
0.0
 20
0.0
 30
0.0
  9
$EXTMIN
 10
99.599002993107
 20
51.649002993107
 30
0.0
  9
$EXTMAX
 10
197.400997006893
 20
158.350997006893
 30
0.0
  9
$LIMMIN
 10
0.0
 20
0.0
  9
$LIMMAX
 10
297.0
 20
210.0
  9
$ORTHOMODE
 70
           0
  9
$REGENMODE
 70
           1
  9
$FILLMODE
 70
           1
  9
$QTEXTMODE
 70
           0
  9
$MIRRTEXT
 70
           1
  9
$LTSCALE
 40
1.0
  9
$ATTMODE
 70
           1
  9
$TEXTSIZE
 40
5.0
  9
$TRACEWID
 40
1.0
  9
$TEXTSTYLE
  7
STANDARD
  9
$CLAYER
  8
0
  9
$CELTYPE
  6
Continuous
  9
$CECOLOR
 62
           7
  9
$CELTSCALE
 40
1.0
  9
$DISPSILH
 70
           0
  9
$DIMSCALE
 40
1.0
  9
$DIMASZ
 40
3.0
  9
$DIMEXO
 40
1.0
  9
$DIMDLI
 40
7.5
  9
$DIMRND
 40
0.01
  9
$DIMDLE
 40
0.0
  9
$DIMEXE
 40
2.0
  9
$DIMTP
 40
0.0
  9
$DIMTM
 40
0.0
  9
$DIMTXT
 40
4.0625
  9
$DIMCEN
 40
0.09
  9
$DIMTSZ
 40
0.0
  9
$DIMTOL
 70
           0
  9
$DIMLIM
 70
           0
  9
$DIMTIH
 70
           0
  9
$DIMTOH
 70
           0
  9
$DIMSE1
 70
           0
  9
$DIMSE2
 70
           0
  9
$DIMTAD
 70
           1
  9
$DIMZIN
 70
           8
  9
$DIMBLK
  1

  9
$DIMASO
 70
           0
  9
$DIMSHO
 70
           1
  9
$DIMPOST
  1

  9
$DIMAPOST
  1

  9
$DIMALT
 70
           0
  9
$DIMALTD
 70
           2
  9
$DIMALTF
 40
1.0
  9
$DIMLFAC
 40
1.0
  9
$DIMTOFL
 70
           1
  9
$DIMTVP
 40
0.0
  9
$DIMTIX
 70
           0
  9
$DIMSOXD
 70
           0
  9
$DIMSAH
 70
           0
  9
$DIMBLK1
  1

  9
$DIMBLK2
  1

  9
$DIMSTYLE
  2
STANDARD
  9
$DIMCLRD
 70
           7
  9
$DIMCLRE
 70
           7
  9
$DIMCLRT
 70
           7
  9
$DIMTFAC
 40
1.0
  9
$DIMGAP
 40
2.0
  9
$DIMJUST
 70
           0
  9
$DIMSD1
 70
           0
  9
$DIMSD2
 70
           0
  9
$DIMTOLJ
 70
           1
  9
$DIMTZIN
 70
           0
  9
$DIMALTZ
 70
           0
  9
$DIMALTTZ
 70
           0
  9
$DIMUPT
 70
           0
  9
$DIMDEC
 70
           2
  9
$DIMTDEC
 70
           8
  9
$DIMALTU
 70
           2
  9
$DIMALTTD
 70
           2
  9
$DIMTXSTY
  7
STANDARD
  9
$DIMAUNIT
 70
           0
  9
$DIMADEC
 70
           2
  9
$DIMALTRND
 40
0.0
  9
$DIMAZIN
 70
           0
  9
$DIMDSEP
 70
           0
  9
$DIMATFIT
 70
           0
  9
$DIMFRAC
 70
           0
  9
$DIMLDRBLK
  1

  9
$DIMLUNIT
 70
           2
  9
$DIMLWD
 70
           0
  9
$DIMLWE
 70
           0
  9
$DIMTMOVE
 70
           0
  9
$LUNITS
 70
           2
  9
$LUPREC
 70
           2
  9
$SKETCHINC
 40
1.0
  9
$FILLETRAD
 40
1.0
  9
$AUNITS
 70
           0
  9
$AUPREC
 70
           2
  9
$MENU
  1
acad
  9
$ELEVATION
 40
0.0
  9
$PELEVATION
 40
0.0
  9
$THICKNESS
 40
0.0
  9
$LIMCHECK
 70
           0
  9
$CHAMFERA
 40
0.0
  9
$CHAMFERB
 40
0.0
  9
$CHAMFERC
 40
0.0
  9
$CHAMFERD
 40
0.0
  9
$SKPOLY
 70
           0
  9
$TDCREATE
 40
0.000000000
  9
$TDUCREATE
 40
0.000000000
  9
$TDUPDATE
 40
2449702.667959363
  9
$TDUUPDATE
 40
0.000000000
  9
$TDINDWG
 40
0.0000000000
  9
$TDUSRTIMER
 40
0.0000000000
  9
$USRTIMER
 70
           1
  9
$ANGBASE
 50
0.0
  9
$ANGDIR
 70
           0
  9
$PDMODE
 70
           0
  9
$PDSIZE
 40
0.0
  9
$PLINEWID
 40
0.0
  9
$SPLFRAME
 70
           0
  9
$SPLINETYPE
 70
           5
  9
$SPLINESEGS
 70
          20
  9
$HANDSEED
  5
22A
  9
$SURFTAB1
 70
           6
  9
$SURFTAB2
 70
           6
  9
$SURFTYPE
 70
           6
  9
$SURFU
 70
           6
  9
$SURFV
 70
           6
  9
$UCSBASE
  2

  9
$UCSNAME
  2

  9
$UCSORG
 10
0.0
 20
0.0
 30
0.0
  9
$UCSXDIR
 10
1.0
 20
0.0
 30
0.0
  9
$UCSYDIR
 10
0.0
 20
1.0
 30
0.0
  9
$UCSORTHOREF
  2

  9
$UCSORTHOVIEW
 70
           0
  9
$UCSORGTOP
 10
0.0
 20
0.0
 30
0.0
  9
$UCSORGBOTTOM
 10
0.0
 20
0.0
 30
0.0
  9
$UCSORGLEFT
 10
0.0
 20
0.0
 30
0.0
  9
$UCSORGRIGHT
 10
0.0
 20
0.0
 30
0.0
  9
$UCSORGFRONT
 10
0.0
 20
0.0
 30
0.0
  9
$UCSORGBACK
 10
0.0
 20
0.0
 30
0.0
  9
$PUCSBASE
  2

  9
$PUCSNAME
  2

  9
$PUCSORG
 10
0.0
 20
0.0
 30
0.0
  9
$PUCSXDIR
 10
1.0
 20
0.0
 30
0.0
  9
$PUCSYDIR
 10
0.0
 20
1.0
 30
0.0
  9
$PUCSORTHOREF
  2

  9
$PUCSORTHOVIEW
 70
           0
  9
$PUCSORGTOP
 10
0.0
 20
0.0
 30
0.0
  9
$PUCSORGBOTTOM
 10
0.0
 20
0.0
 30
0.0
  9
$PUCSORGLEFT
 10
0.0
 20
0.0
 30
0.0
  9
$PUCSORGRIGHT
 10
0.0
 20
0.0
 30
0.0
  9
$PUCSORGFRONT
 10
0.0
 20
0.0
 30
0.0
  9
$PUCSORGBACK
 10
0.0
 20
0.0
 30
0.0
  9
$USERI1
 70
           0
  9
$USERI2
 70
           0
  9
$USERI3
 70
           0
  9
$USERI4
 70
           0
  9
$USERI5
 70
           0
  9
$USERR1
 40
0.0
  9
$USERR2
 40
0.0
  9
$USERR3
 40
0.0
  9
$USERR4
 40
0.0
  9
$USERR5
 40
0.0
  9
$WORLDVIEW
 70
           1
  9
$SHADEDGE
 70
           3
  9
$SHADEDIF
 70
          70
  9
$TILEMODE
 70
           1
  9
$MAXACTVP
 70
          16
  9
$PINSBASE
 10
0.0
 20
0.0
 30
0.0
  9
$PLIMCHECK
 70
           0
  9
$PEXTMIN
 10
0.0
 20
0.0
 30
0.0
  9
$PEXTMAX
 10
0.0
 20
0.0
 30
0.0
  9
$PLIMMIN
 10
0.0
 20
0.0
  9
$PLIMMAX
 10
0.0
 20
0.0
  9
$UNITMODE
 70
           0
  9
$VISRETAIN
 70
           0
  9
$PLINEGEN
 70
           1
  9
$PSLTSCALE
 70
           1
  9
$TREEDEPTH
 70
        3020
  9
$CMLSTYLE
  2
STANDARD
  9
$CMLJUST
 70
           0
  9
$CMLSCALE
 40
1.0
  9
$PROXYGRAPHICS
 70
           0
  9
$MEASUREMENT
 70
           0
  9
$CELWEIGHT
370
           0
  9
$ENDCAPS
280
           0
  9
$JOINSTYLE
280
           0
  9
$LWDISPLAY
290
           0
  9
$INSUNITS
 70
           0
  9
$HYPERLINKBASE
  1

  9
$STYLESHEET
  1

  9
$XEDIT
290
           1
  9
$CEPSNTYPE
380
           0
  9
$PSTYLEMODE
290
           1
  9
$FINGERPRINTGUID
  2

  9
$VERSIONGUID
  2

  9
$EXTNAMES
290
           1
  9
$PSVPSCALE
 40
0.0
  0
ENDSEC
  0
SECTION
  2
CLASSES
  0
CLASS
  1
LWPOLYLINE
  2
AcDbPolyline
  3
AutoCAD 2000
 90
    32768
280
           0
281
           1
  0
CLASS
  1
IMAGE
  2
AcDbRasterImage
  3
ISM
 90
    32895
280
           0
281
           1
  0
CLASS
  1
OLE2FRAME
  2
AcDbOle2Frame
  3
AutoCAD 2000
 90
    32768
280
           0
281
           1
  0
CLASS
  1
HATCH
  2
AcDbHatch
  3
AutoCAD 2000
 90
    32768
280
           0
281
           1
  0
CLASS
  1
DICTIONARYVAR
  2
AcDbDictionaryVar
  3
AutoCAD 2000
 90
    32768
280
           0
281
           0
  0
CLASS
  1
RASTERVARIABLES
  2
AcDbRasterVariables
  3
ISM
 90
    32768
280
           0
281
           0
  0
CLASS
  1
IMAGEDEF
  2
AcDbRasterImageDef
  3
ISM
 90
    32768
280
           0
281
           0
  0
CLASS
  1
IMAGEDEF_REACTOR
  2
AcDbRasterImageDefReactor
  3
ISM
 90
    32769
280
           0
281
           0
  0
CLASS
  1
IDBUFFER
  2
AcDbIdBuffer
  3
AutoCAD 2000
 90
    32768
280
           0
281
           0
  0
CLASS
  1
SPATIAL_FILTER
  2
AcDbSpatialFilter
  3
AutoCAD 2000
 90
    32768
280
           0
281
           0
  0
CLASS
  1
XRECORD
  2
AcDbXrecord
  3
AutoCAD 2000
 90
    32768
280
           0
281
           0
  0
CLASS
  1
SORTENTSTABLE
  2
AcDbSortentsTable
  3
AutoCAD 2000
 90
    32768
280
           0
281
           0
  0
CLASS
  1
LAYER_INDEX
  2
AcDbLayerIndex
  3
AutoCAD 2000
 90
    32768
280
           0
281
           0
  0
CLASS
  1
SPATIAL_INDEX
  2
AcDbSpatialIndex
  3
AutoCAD 2000
 90
    32768
280
           0
281
           0
  0
CLASS
  1
OBJECT_PTR
  2
CAseDLPNTableRecord
  3
"ASE-LPNTableRecord"
 90
    32769
280
           0
281
           0
  0
CLASS
  1
LAYOUT
  2
AcDbLayout
  3
AutoCAD 2000
 90
        0
280
           0
281
           0
  0
CLASS
  1
PLOTSETTINGS
  2
AcDbPlotSettings
  3
AutoCAD 2000
 90
    32768
280
           0
281
           0
  0
CLASS
  1
ACDBDICTIONARYWDFLT
  2
AcDbDictionaryWithDefault
  3
AutoCAD 2000
 90
        0
280
           0
281
           0
  0
CLASS
  1
ACDBPLACEHOLDER
  2
AcDbPlaceHolder
  3
AutoCAD 2000
 90
        0
280
           0
281
           0
  0
ENDSEC
  0
SECTION
  2
TABLES
  0
TABLE
  2
VPORT
  5
7
100
AcDbSymbolTable
 70
           1
  0
VPORT
  5
15
100
AcDbSymbolTableRecord
100
AcDbViewportTableRecord
  2
*ACTIVE
 70
           0
 10
0.0
 20
0.0
 11
1.0
 21
1.0
 12
0.0
 22
0.0
 13
0.0
 23
0.0
 14
5.0
 24
5.0
 15
5.0
 25
5.0
 16
0.0
 26
0.0
 36
1.0
 17
148.5
 27
105.0
 37
0.0
 40
214.2
 41
1.892393320965
 42
50.0
 43
0.0
 44
0.0
 50
0.0
 51
0.0
 71
           0
 72
         100
 73
           1
 74
           1
 75
           0
 76
           0
 77
           0
 78
           0
281
           0
 65
           0
110
0.0
120
0.0
130
0.0
111
1.0
121
0.0
131
0.0
112
0.0
122
1.0
132
0.0
345
0
346
0
 79
           0
146
0.0
  0
ENDTAB
  0
TABLE
  2
LTYPE
  5
4
100
AcDbSymbolTable
 70
          14
  0
LTYPE
  5
11
100
AcDbSymbolTableRecord
100
AcDbLinetypeTableRecord
  2
ByBlock
 70
          64
  3

 72
          65
 73
           0
 40
0.0
  0
LTYPE
  5
12
100
AcDbSymbolTableRecord
100
AcDbLinetypeTableRecord
  2
ByLayer
 70
          64
  3

 72
          65
 73
           0
 40
0.0
  0
LTYPE
  5
13
100
AcDbSymbolTableRecord
100
AcDbLinetypeTableRecord
  2
Continuous
 70
          64
  3
Solid line
 72
          65
 73
           0
 40
0.0
  0
LTYPE
  5
24
100
AcDbSymbolTableRecord
100
AcDbLinetypeTableRecord
  2
BORDER
 70
           0
  3
BORDER
 72
          65
 73
           6
 40
1.75
 49
0.5
 74
           0
 49
-0.25
 74
           0
 49
0.5
 74
           0
 49
-0.25
 74
           0
 49
0.0
 74
           0
 49
-0.25
 74
           0
  0
LTYPE
  5
25
100
AcDbSymbolTableRecord
100
AcDbLinetypeTableRecord
  2
CENTER
 70
           0
  3
CENTER
 72
          65
 73
           4
 40
2.0
 49
1.25
 74
           0
 49
-0.25
 74
           0
 49
0.25
 74
           0
 49
-0.25
 74
           0
  0
LTYPE
  5
26
100
AcDbSymbolTableRecord
100
AcDbLinetypeTableRecord
  2
DASHDOT
 70
           0
  3
DASHDOT
 72
          65
 73
           4
 40
1.0
 49
0.5
 74
           0
 49
-0.25
 74
           0
 49
0.0
 74
           0
 49
-0.25
 74
           0
  0
LTYPE
  5
27
100
AcDbSymbolTableRecord
100
AcDbLinetypeTableRecord
  2
DASHED
 70
           0
  3
DASHED
 72
          65
 73
           2
 40
0.75
 49
0.5
 74
           0
 49
-0.25
 74
           0
  0
LTYPE
  5
28
100
AcDbSymbolTableRecord
100
AcDbLinetypeTableRecord
  2
DIVIDE
 70
           0
  3
DIVIDE
 72
          65
 73
           6
 40
1.25
 49
0.5
 74
           0
 49
-0.25
 74
           0
 49
0.0
 74
           0
 49
-0.25
 74
           0
 49
0.0
 74
           0
 49
-0.25
 74
           0
  0
LTYPE
  5
29
100
AcDbSymbolTableRecord
100
AcDbLinetypeTableRecord
  2
DOT
 70
           0
  3
DOT
 72
          65
 73
           2
 40
0.25
 49
0.0
 74
           0
 49
-0.25
 74
           0
  0
LTYPE
  5
2A
100
AcDbSymbolTableRecord
100
AcDbLinetypeTableRecord
  2
HIDDEN
 70
           0
  3
HIDDEN
 72
          65
 73
           2
 40
0.375
 49
0.25
 74
           0
 49
-0.125
 74
           0
  0
LTYPE
  5
2B
100
AcDbSymbolTableRecord
100
AcDbLinetypeTableRecord
  2
PHANTOM
 70
           0
  3
PHANTOM
 72
          65
 73
           6
 40
2.5
 49
1.25
 74
           0
 49
-0.25
 74
           0
 49
0.25
 74
           0
 49
-0.25
 74
           0
 49
0.25
 74
           0
 49
-0.25
 74
           0
  0
LTYPE
  5
2C
100
AcDbSymbolTableRecord
100
AcDbLinetypeTableRecord
  2
$INVISIBLE
 70
           0
  3
$INVISIBLE
 72
          65
 73
           2
 40
200.0
 49
-100.0
 74
           0
 49
-100.0
 74
           0
  0
LTYPE
  5
2D
100
AcDbSymbolTableRecord
100
AcDbLinetypeTableRecord
  2
$SNAPEXT
 70
           0
  3
$SNAPEXT
 72
          65
 73
           2
 40
0.04
 49
0.02
 74
           0
 49
-0.02
 74
           0
  0
LTYPE
  5
2E
100
AcDbSymbolTableRecord
100
AcDbLinetypeTableRecord
  2
$AUXILIARY
 70
           0
  3
$AUXILIARY
 72
          65
 73
           2
 40
0.1
 49
0.05
 74
           0
 49
-0.05
 74
           0
  0
ENDTAB
  0
TABLE
  2
LAYER
  5
2
100
AcDbSymbolTable
 70
           2
  0
LAYER
  5
14
100
AcDbSymbolTableRecord
100
AcDbLayerTableRecord
  2
0
 70
           0
 62
           7
  6
Continuous
290
           1
370
           0
390
0
1001
TCAD
1000
TCW_LAYER_ORDER
1002
{
1071
        0
1002
}
  0
LAYER
  5
2F
100
AcDbSymbolTableRecord
100
AcDbLayerTableRecord
  2
図
 70
           0
 62
           7
  6
Continuous
290
           1
370
           0
390
0
1001
TCAD
1000
TCW_LAYER_ORDER
1002
{
1071
        0
1002
}
  0
ENDTAB
  0
TABLE
  2
STYLE
  5
3
100
AcDbSymbolTable
 70
           1
  0
STYLE
  5
17
100
AcDbSymbolTableRecord
100
AcDbTextStyleTableRecord
  2
STANDARD
 70
           0
 40
0.0
 41
1.0
 50
0.0
 71
           0
 42
4.0625
  3

  4

1001
ACAD
1000
ＭＳ ゴシック
1071
    32802
  0
ENDTAB
  0
TABLE
  2
VIEW
  5
5
100
AcDbSymbolTable
 70
           1
  0
VIEW
  5
30
100
AcDbSymbolTableRecord
100
AcDbViewTableRecord
  2
表示_0
 70
           0
 40
210.0
 10
148.5
 20
105.0
 41
297.0
 11
0.0
 21
0.0
 31
1.0
 12
0.0
 22
0.0
 32
0.0
 42
45.247172312671
 43
0.0
 44
0.0
 50
0.0
 71
           0
281
           0
 72
           0
110
0.0
120
0.0
130
0.0
111
1.0
121
0.0
131
0.0
112
0.0
122
1.0
132
0.0
  0
ENDTAB
  0
TABLE
  2
UCS
  5
6
100
AcDbSymbolTable
 70
           0
  0
ENDTAB
  0
TABLE
  2
APPID
  5
8
100
AcDbSymbolTable
 70
           2
  0
APPID
  5
16
100
AcDbSymbolTableRecord
100
AcDbRegAppTableRecord
  2
ACAD
 70
           0
  0
APPID
  5
23
100
AcDbSymbolTableRecord
100
AcDbRegAppTableRecord
  2
TCAD
 70
           0
  0
ENDTAB
  0
TABLE
  2
DIMSTYLE
  5
9
100
AcDbSymbolTable
 70
           1
100
AcDbDimStyleTable
 71
           0
  0
DIMSTYLE
105
18
100
AcDbSymbolTableRecord
100
AcDbDimStyleTableRecord
  2
STANDARD
 70
           0
  3

  4

 40
1.0
 41
3.0
 42
1.0
 43
7.5
 44
2.0
 45
0.01
 46
0.0
 47
0.0
 48
0.0
 71
           0
 72
           0
 73
           0
 74
           0
 75
           0
 76
           0
 77
           1
 78
           8
 79
           0
140
4.0625
141
0.09
142
0.0
143
1.0
144
1.0
145
0.0
146
1.0
147
2.0
148
0.01
170
           0
171
           2
172
           1
173
           0
174
           0
175
           0
176
           7
177
           7
178
           7
179
           2
271
           2
272
           8
273
           2
274
           2
275
           0
276
           0
277
           2
278
          46
279
           0
280
           0
281
           0
282
           0
283
           1
284
           0
285
           0
286
           0
288
           0
340
17
341
0
342
0
343
0
344
0
371
          -2
372
          -2
  0
ENDTAB
  0
TABLE
  2
BLOCK_RECORD
  5
1
100
AcDbSymbolTable
 70
           0
  0
BLOCK_RECORD
  5
A
100
AcDbSymbolTableRecord
100
AcDbBlockTableRecord
  2
*MODEL_SPACE
340
228
  0
BLOCK_RECORD
  5
B
100
AcDbSymbolTableRecord
100
AcDbBlockTableRecord
  2
*PAPER_SPACE
340
229
  0
ENDTAB
  0
ENDSEC
  0
SECTION
  2
BLOCKS
  0
BLOCK
  5
D
100
AcDbEntity
  8
0
100
AcDbBlockBegin
  2
*MODEL_SPACE
 70
           0
 10
0.0
 20
0.0
 30
0.0
  3
*MODEL_SPACE
  1

  0
ENDBLK
  5
E
100
AcDbEntity
  8
0
100
AcDbBlockEnd
  0
BLOCK
  5
F
100
AcDbEntity
 67
           1
  8
0
100
AcDbBlockBegin
  2
*PAPER_SPACE
 70
           0
 10
0.0
 20
0.0
 30
0.0
  3
*PAPER_SPACE
  1

  0
ENDBLK
  5
10
100
AcDbEntity
 67
           1
  8
0
100
AcDbBlockEnd
  0
ENDSEC
  0
SECTION
  2
ENTITIES
  0
LINE
  5
31
100
AcDbEntity
  8
図
370
         100
  6
Continuous
 62
           7
100
AcDbLine
 10
108.85
 20
58.5
 30
0.0
 11
108.85
 21
58.3
 31
0.0
1001
ACAD
1000
TCW40_DEV_WIDTH
1002
{
1040
0.039370078593
1002
}
1001
TCAD
1000
TCW_CUSTOM_DATA
1002
{
1000
#$AUX@_TCDO_SOURCE_COLOR
1070
           3
1071
        0
1000
#$AUX@_TCDO_PARENT_ID
1070
           3
1071
      307
1000
#$AUX@_TCDO_GTYPE
1070
           3
1071
        1
1000
#$AUX@_TCDO_VISIBILITY
1070
           3
1071
        0
1002
}
  0
LINE
  5
32
100
AcDbEntity
  8
図
370
         100
  6
Continuous
 62
           7
100
AcDbLine
 10
108.15
 20
55.2
 30
0.0
 11
108.85
 21
55.2
 31
0.0
1001
ACAD
1000
TCW40_DEV_WIDTH
1002
{
1040
0.039370078593
1002
}
1001
TCAD
1000
TCW_CUSTOM_DATA
1002
{
1000
#$AUX@_TCDO_SOURCE_COLOR
1070
           3
1071
        0
1000
#$AUX@_TCDO_PARENT_ID
1070
           3
1071
      307
1000
#$AUX@_TCDO_GTYPE
1070
           3
1071
        1
1000
#$AUX@_TCDO_VISIBILITY
1070
           3
1071
        0
1002
}
  0
LINE
  5
33
100
AcDbEntity
  8
図
370
         100
  6
Continuous
 62
           7
100
AcDbLine
 10
107.65
 20
61.6
 30
0.0
 11
108.85
 21
61.6
 31
0.0
1001
ACAD
1000
TCW40_DEV_WIDTH
1002
{
1040
0.039370078593
1002
}
1001
TCAD
1000
TCW_CUSTOM_DATA
1002
{
1000
#$AUX@_TCDO_SOURCE_COLOR
1070
           3
1071
        0
1000
#$AUX@_TCDO_PARENT_ID
1070
           3
1071
      307
1000
#$AUX@_TCDO_GTYPE
1070
           3
1071
        0
1000
#$AUX@_TCDO_VISIBILITY
1070
           3
1071
        0
1002
}
  0
LINE
  5
34
100
AcDbEntity
  8
図
370
         100
  6
Continuous
 62
           7
100
AcDbLine
 10
108.85
 20
62.6
 30
0.0
 11
107.65
 21
62.6
 31
0.0
1001
ACAD
1000
TCW40_DEV_WIDTH
1002
{
1040
0.039370078593
1002
}
1001
TCAD
1000
TCW_CUSTOM_DATA
1002
{
1000
#$AUX@_TCDO_SOURCE_COLOR
1070
           3
1071
        0
1000
#$AUX@_TCDO_PARENT_ID
1070
           3
1071
      307
1000
#$AUX@_TCDO_GTYPE
1070
           3
1071
        1
1000
#$AUX@_TCDO_VISIBILITY
1070
           3
1071
        0
1002
}
  0
LINE
  5
35
100
AcDbEntity
  8
図
370
         100
  6
Continuous
 62
           7
100
AcDbLine
 10
107.65
 20
61.6
 30
0.0
 11
107.65
 21
62.6
 31
0.0
1001
ACAD
1000
TCW40_DEV_WIDTH
1002
{
1040
0.039370078593
1002
}
1001
TCAD
1000
TCW_CUSTOM_DATA
1002
{
1000
#$AUX@_TCDO_SOURCE_COLOR
1070
           3
1071
        0
1000
#$AUX@_TCDO_PARENT_ID
1070
           3
1071
      307
1000
#$AUX@_TCDO_GTYPE
1070
           3
1071
        1
1000
#$AUX@_TCDO_VISIBILITY
1070
           3
1071
        0
1002
}
  0
LINE
  5
36
100
AcDbEntity
  8
図
370
         100
  6
Continuous
 62
           7
100
AcDbLine
 10
107.65
 20
55.7
 30
0.0
 11
107.65
 21
61.6
 31
0.0
1001
ACAD
1000
TCW40_DEV_WIDTH
1002
{
1040
0.039370078593
1002
}
1001
TCAD
1000
TCW_CUSTOM_DATA
1002
{
1000
#$AUX@_TCDO_SOURCE_COLOR
1070
           3
1071
        0
1000
#$AUX@_TCDO_PARENT_ID
1070
           3
1071
      307
1000
#$AUX@_TCDO_GTYPE
1070
           3
1071
        1
1000
#$AUX@_TCDO_VISIBILITY
1070
           3
1071
        0
1002
}
  0
ARC
  5
37
100
AcDbEntity
  8
図
370
         100
  6
Continuous
 62
           7
100
AcDbCircle
 10
108.15
 20
55.7
 30
0.0
 40
0.5
100
AcDbArc
 50
180.0
 51
270.0
1001
ACAD
1000
TCW40_DEV_WIDTH
1002
{
1040
0.039370078593
1002
}
1001
TCAD
1000
TCW_CUSTOM_DATA
1002
{
1000
#$AUX@_TCDO_SOURCE_COLOR
1070
           3
1071
        0
1000
#$AUX@_TCDO_PARENT_ID
1070
           3
1071
      307
1000
#$AUX@_TCDO_GTYPE
1070
           3
1071
        1
1000
#$AUX@_TCDO_VISIBILITY
1070
           3
1071
        0
1002
}
  0
LINE
  5
38
100
AcDbEntity
  8
図
370
         100
  6
Continuous
 62
           7
100
AcDbLine
 10
135.15
 20
55.2
 30
0.0
 11
134.45
 21
55.2
 31
0.0
1001
ACAD
1000
TCW40_DEV_WIDTH
1002
{
1040
0.039370078593
1002
}
1001
TCAD
1000
TCW_CUSTOM_DATA
1002
{
1000
#$AUX@_TCDO_SOURCE_COLOR
1070
           3
1071
        0
1000
#$AUX@_TCDO_PARENT_ID
1070
           3
1071
      307
1000
#$AUX@_TCDO_GTYPE
1070
           3
1071
        1
1000
#$AUX@_TCDO_VISIBILITY
1070
           3
1071
        0
1002
}
  0
LINE
  5
39
100
AcDbEntity
  8
図
370
         100
  6
Continuous
 62
           7
100
AcDbLine
 10
134.45
 20
58.5
 30
0.0
 11
134.45
 21
58.3
 31
0.0
1001
ACAD
1000
TCW40_DEV_WIDTH
1002
{
1040
0.039370078593
1002
}
1001
TCAD
1000
TCW_CUSTOM_DATA
1002
{
1000
#$AUX@_TCDO_SOURCE_COLOR
1070
           3
1071
        0
1000
#$AUX@_TCDO_PARENT_ID
1070
           3
1071
      307
1000
#$AUX@_TCDO_GTYPE
1070
           3
1071
        1
1000
#$AUX@_TCDO_VISIBILITY
1070
           3
1071
        0
1002
}
  0
LINE
  5
3A
100
AcDbEntity
  8
図
370
         100
  6
Continuous
 62
           7
100
AcDbLine
 10
134.45
 20
62.6
 30
0.0
 11
135.65
 21
62.6
 31
0.0
1001
ACAD
1000
TCW40_DEV_WIDTH
1002
{
1040
0.039370078593
1002
}
1001
TCAD
1000
TCW_CUSTOM_DATA
1002
{
1000
#$AUX@_TCDO_SOURCE_COLOR
1070
           3
1071
        0
1000
#$AUX@_TCDO_PARENT_ID
1070
           3
1071
      307
1000
#$AUX@_TCDO_GTYPE
1070
           3
1071
        1
1000
#$AUX@_TCDO_VISIBILITY
1070
           3
1071
        0
1002
}
  0
LINE
  5
3B
100
AcDbEntity
  8
図
370
         100
  6
Continuous
 62
           7
100
AcDbLine
 10
135.65
 20
61.6
 30
0.0
 11
134.45
 21
61.6
 31
0.0
1001
ACAD
1000
TCW40_DEV_WIDTH
1002
{
1040
0.039370078593
1002
}
1001
TCAD
1000
TCW_CUSTOM_DATA
1002
{
1000
#$AUX@_TCDO_SOURCE_COLOR
1070
           3
1071
        0
1000
#$AUX@_TCDO_PARENT_ID
1070
           3
1071
      307
1000
#$AUX@_TCDO_GTYPE
1070
           3
1071
        0
1000
#$AUX@_TCDO_VISIBILITY
1070
           3
1071
        0
1002
}
  0
LINE
  5
3C
100
AcDbEntity
  8
図
370
         100
  6
Continuous
 62
           7
100
AcDbLine
 10
135.65
 20
55.7
 30
0.0
 11
135.65
 21
61.6
 31
0.0
1001
ACAD
1000
TCW40_DEV_WIDTH
1002
{
1040
0.039370078593
1002
}
1001
TCAD
1000
TCW_CUSTOM_DATA
1002
{
1000
#$AUX@_TCDO_SOURCE_COLOR
1070
           3
1071
        0
1000
#$AUX@_TCDO_PARENT_ID
1070
           3
1071
      307
1000
#$AUX@_TCDO_GTYPE
1070
           3
1071
        1
1000
#$AUX@_TCDO_VISIBILITY
1070
           3
1071
        0
1002
}
  0
LINE
  5
3D
100
AcDbEntity
  8
図
370
         100
  6
Continuous
 62
           7
100
AcDbLine
 10
135.65
 20
61.6
 30
0.0
 11
135.65
 21
62.6
 31
0.0
1001
ACAD
1000
TCW40_DEV_WIDTH
1002
{
1040
0.039370078593
1002
}
1001
TCAD
1000
TCW_CUSTOM_DATA
1002
{
1000
#$AUX@_TCDO_SOURCE_COLOR
1070
           3
1071
        0
1000
#$AUX@_TCDO_PARENT_ID
1070
           3
1071
      307
1000
#$AUX@_TCDO_GTYPE
1070
           3
1071
        1
1000
#$AUX@_TCDO_VISIBILITY
1070
           3
1071
        0
1002
}
  0
ARC
  5
3E
100
AcDbEntity
  8
図
370
         100
  6
Continuous
 62
           7
100
AcDbCircle
 10
135.15
 20
55.7
 30
0.0
 40
0.5
100
AcDbArc
 50
-90.0
 51
0.0
1001
ACAD
1000
TCW40_DEV_WIDTH
1002
{
1040
0.039370078593
1002
}
1001
TCAD
1000
TCW_CUSTOM_DATA
1002
{
1000
#$AUX@_TCDO_SOURCE_COLOR
1070
           3
1071
        0
1000
#$AUX@_TCDO_PARENT_ID
1070
           3
1071
      307
1000
#$AUX@_TCDO_GTYPE
1070
           3
1071
        1
1000
#$AUX@_TCDO_VISIBILITY
1070
           3
1071
        0
1002
}
  0
LINE
  5
3F
100
AcDbEntity
  8
図
370
         100
  6
Continuous
 62
           7
100
AcDbLine
 10
116.15
 20
56.8
 30
0.0
 11
113.55
 21
56.8
 31
0.0
1001
ACAD
1000
TCW40_DEV_WIDTH
1002
{
1040
0.039370078593
1002
}
1001
TCAD
1000
TCW_CUSTOM_DATA
1002
{
1000
#$AUX@_TCDO_SOURCE_COLOR
1070
           3
1071
        0
1000
#$AUX@_TCDO_PARENT_ID
1070
           3
1071
      307
1000
#$AUX@_TCDO_GTYPE
1070
           3
1071
        1
1000
#$AUX@_TCDO_VISIBILITY
1070
           3
1071
        0
1002
}
  0
ARC
  5
40
100
AcDbEntity
  8
図
370
         100
  6
Continuous
 62
           7
100
AcDbCircle
 10
113.55
 20
58.3
 30
0.0
 40
1.5
100
AcDbArc
 50
180.0
 51
270.0
1001
ACAD
1000
TCW40_DEV_WIDTH
1002
{
1040
0.039370078593
1002
}
1001
TCAD
1000
TCW_CUSTOM_DATA
1002
{
1000
#$AUX@_TCDO_SOURCE_COLOR
1070
           3
1071
        0
1000
#$AUX@_TCDO_PARENT_ID
1070
           3
1071
      307
1000
#$AUX@_TCDO_GTYPE
1070
           3
1071
        1
1000
#$AUX@_TCDO_VISIBILITY
1070
           3
1071
        0
1002
}
  0
ARC
  5
41
100
AcDbEntity
  8
図
370
         100
  6
Continuous
 62
           7
100
AcDbCircle
 10
116.15
 20
58.3
 30
0.0
 40
1.5
100
AcDbArc
 50
-90.0
 51
0.0
1001
ACAD
1000
TCW40_DEV_WIDTH
1002
{
1040
0.039370078593
1002
}
1001
TCAD
1000
TCW_CUSTOM_DATA
1002
{
1000
#$AUX@_TCDO_SOURCE_COLOR
1070
           3
1071
        0
1000
#$AUX@_TCDO_PARENT_ID
1070
           3
1071
      307
1000
#$AUX@_TCDO_GTYPE
1070
           3
1071
        1
1000
#$AUX@_TCDO_VISIBILITY
1070
           3
1071
        0
1002
}
  0
ARC
  5
42
100
AcDbEntity
  8
図
370
         100
  6
Continuous
 62
           7
100
AcDbCircle
 10
127.15
 20
58.3
 30
0.0
 40
1.5
100
AcDbArc
 50
180.0
 51
270.0
1001
ACAD
1000
TCW40_DEV_WIDTH
1002
{
1040
0.039370078593
1002
}
1001
TCAD
1000
TCW_CUSTOM_DATA
1002
{
1000
#$AUX@_TCDO_SOURCE_COLOR
1070
           3
1071
        0
1000
#$AUX@_TCDO_PARENT_ID
1070
           3
1071
      307
1000
#$AUX@_TCDO_GTYPE
1070
           3
1071
        1
1000
#$AUX@_TCDO_VISIBILITY
1070
           3
1071
        0
1002
}
  0
LINE
  5
43
100
AcDbEntity
  8
図
370
         100
  6
Continuous
 62
           7
100
AcDbLine
 10
129.75
 20
56.8
 30
0.0
 11
127.15
 21
56.8
 31
0.0
1001
ACAD
1000
TCW40_DEV_WIDTH
1002
{
1040
0.039370078593
1002
}
1001
TCAD
1000
TCW_CUSTOM_DATA
1002
{
1000
#$AUX@_TCDO_SOURCE_COLOR
1070
           3
1071
        0
1000
#$AUX@_TCDO_PARENT_ID
1070
           3
1071
      307
1000
#$AUX@_TCDO_GTYPE
1070
           3
1071
        1
1000
#$AUX@_TCDO_VISIBILITY
1070
           3
1071
        0
1002
}
  0
ARC
  5
44
100
AcDbEntity
  8
図
370
         100
  6
Continuous
 62
           7
100
AcDbCircle
 10
129.75
 20
58.3
 30
0.0
 40
1.5
100
AcDbArc
 50
-90.0
 51
0.0
1001
ACAD
1000
TCW40_DEV_WIDTH
1002
{
1040
0.039370078593
1002
}
1001
TCAD
1000
TCW_CUSTOM_DATA
1002
{
1000
#$AUX@_TCDO_SOURCE_COLOR
1070
           3
1071
        0
1000
#$AUX@_TCDO_PARENT_ID
1070
           3
1071
      307
1000
#$AUX@_TCDO_GTYPE
1070
           3
1071
        1
1000
#$AUX@_TCDO_VISIBILITY
1070
           3
1071
        0
1002
}
  0
LINE
  5
45
100
AcDbEntity
  8
図
370
         100
  6
Continuous
 62
           7
100
AcDbLine
 10
134.45
 20
53.9
 30
0.0
 11
134.45
 21
58.3
 31
0.0
1001
ACAD
1000
TCW40_DEV_WIDTH
1002
{
1040
0.039370078593
1002
}
1001
TCAD
1000
TCW_CUSTOM_DATA
1002
{
1000
#$AUX@_TCDO_SOURCE_COLOR
1070
           3
1071
        0
1000
#$AUX@_TCDO_PARENT_ID
1070
           3
1071
      307
1000
#$AUX@_TCDO_GTYPE
1070
           3
1071
        1
1000
#$AUX@_TCDO_VISIBILITY
1070
           3
1071
        0
1002
}
  0
LINE
  5
46
100
AcDbEntity
  8
図
370
         100
  6
Continuous
 62
           7
100
AcDbLine
 10
132.95
 20
58.3
 30
0.0
 11
132.95
 21
53.9
 31
0.0
1001
ACAD
1000
TCW40_DEV_WIDTH
1002
{
1040
0.039370078593
1002
}
1001
TCAD
1000
TCW_CUSTOM_DATA
1002
{
1000
#$AUX@_TCDO_SOURCE_COLOR
1070
           3
1071
        0
1000
#$AUX@_TCDO_PARENT_ID
1070
           3
1071
      307
1000
#$AUX@_TCDO_GTYPE
1070
           3
1071
        0
1000
#$AUX@_TCDO_VISIBILITY
1070
           3
1071
        0
1002
}
  0
LINE
  5
47
100
AcDbEntity
  8
図
370
         100
  6
Continuous
 62
           7
100
AcDbLine
 10
132.95
 20
53.9
 30
0.0
 11
110.35
 21
53.9
 31
0.0
1001
ACAD
1000
TCW40_DEV_WIDTH
1002
{
1040
0.039370078593
1002
}
1001
TCAD
1000
TCW_CUSTOM_DATA
1002
{
1000
#$AUX@_TCDO_SOURCE_COLOR
1070
           3
1071
        0
1000
#$AUX@_TCDO_PARENT_ID
1070
           3
1071
      307
1000
#$AUX@_TCDO_GTYPE
1070
           3
1071
        0
1000
#$AUX@_TCDO_VISIBILITY
1070
           3
1071
        0
1002
}
  0
LINE
  5
48
100
AcDbEntity
  8
図
370
         100
  6
Continuous
 62
           7
100
AcDbLine
 10
110.35
 20
52.4
 30
0.0
 11
132.95
 21
52.4
 31
0.0
1001
ACAD
1000
TCW40_DEV_WIDTH
1002
{
1040
0.039370078593
1002
}
1001
TCAD
1000
TCW_CUSTOM_DATA
1002
{
1000
#$AUX@_TCDO_SOURCE_COLOR
1070
           3
1071
        0
1000
#$AUX@_TCDO_PARENT_ID
1070
           3
1071
      307
1000
#$AUX@_TCDO_GTYPE
1070
           3
1071
        1
1000
#$AUX@_TCDO_VISIBILITY
1070
           3
1071
        0
1002
}
  0
ARC
  5
49
100
AcDbEntity
  8
図
370
         100
  6
Continuous
 62
           7
100
AcDbCircle
 10
132.95
 20
53.9
 30
0.0
 40
1.5
100
AcDbArc
 50
-90.0
 51
0.0
1001
ACAD
1000
TCW40_DEV_WIDTH
1002
{
1040
0.039370078593
1002
}
1001
TCAD
1000
TCW_CUSTOM_DATA
1002
{
1000
#$AUX@_TCDO_SOURCE_COLOR
1070
           3
1071
        0
1000
#$AUX@_TCDO_PARENT_ID
1070
           3
1071
      307
1000
#$AUX@_TCDO_GTYPE
1070
           3
1071
        1
1000
#$AUX@_TCDO_VISIBILITY
1070
           3
1071
        0
1002
}
  0
LINE
  5
4A
100
AcDbEntity
  8
図
370
         100
  6
Continuous
 62
           7
100
AcDbLine
 10
132.95
 20
52.4
 30
0.0
 11
132.95
 21
53.9
 31
0.0
1001
ACAD
1000
TCW40_DEV_WIDTH
1002
{
1040
0.039370078593
1002
}
1001
TCAD
1000
TCW_CUSTOM_DATA
1002
{
1000
#$AUX@_TCDO_SOURCE_COLOR
1070
           3
1071
        0
1000
#$AUX@_TCDO_PARENT_ID
1070
           3
1071
      307
1000
#$AUX@_TCDO_GTYPE
1070
           3
1071
        0
1000
#$AUX@_TCDO_VISIBILITY
1070
           3
1071
        0
1002
}
  0
LINE
  5
4B
100
AcDbEntity
  8
図
370
         100
  6
Continuous
 62
           7
100
AcDbLine
 10
132.95
 20
53.9
 30
0.0
 11
134.45
 21
53.9
 31
0.0
1001
ACAD
1000
TCW40_DEV_WIDTH
1002
{
1040
0.039370078593
1002
}
1001
TCAD
1000
TCW_CUSTOM_DATA
1002
{
1000
#$AUX@_TCDO_SOURCE_COLOR
1070
           3
1071
        0
1000
#$AUX@_TCDO_PARENT_ID
1070
           3
1071
      307
1000
#$AUX@_TCDO_GTYPE
1070
           3
1071
        0
1000
#$AUX@_TCDO_VISIBILITY
1070
           3
1071
        0
1002
}
  0
LINE
  5
4C
100
AcDbEntity
  8
図
370
         100
  6
Continuous
 62
           7
100
AcDbLine
 10
110.35
 20
53.9
 30
0.0
 11
110.35
 21
52.4
 31
0.0
1001
ACAD
1000
TCW40_DEV_WIDTH
1002
{
1040
0.039370078593
1002
}
1001
TCAD
1000
TCW_CUSTOM_DATA
1002
{
1000
#$AUX@_TCDO_SOURCE_COLOR
1070
           3
1071
        0
1000
#$AUX@_TCDO_PARENT_ID
1070
           3
1071
      307
1000
#$AUX@_TCDO_GTYPE
1070
           3
1071
        0
1000
#$AUX@_TCDO_VISIBILITY
1070
           3
1071
        0
1002
}
  0
ARC
  5
4D
100
AcDbEntity
  8
図
370
         100
  6
Continuous
 62
           7
100
AcDbCircle
 10
110.35
 20
53.9
 30
0.0
 40
1.5
100
AcDbArc
 50
180.0
 51
270.0
1001
ACAD
1000
TCW40_DEV_WIDTH
1002
{
1040
0.039370078593
1002
}
1001
TCAD
1000
TCW_CUSTOM_DATA
1002
{
1000
#$AUX@_TCDO_SOURCE_COLOR
1070
           3
1071
        0
1000
#$AUX@_TCDO_PARENT_ID
1070
           3
1071
      307
1000
#$AUX@_TCDO_GTYPE
1070
           3
1071
        1
1000
#$AUX@_TCDO_VISIBILITY
1070
           3
1071
        0
1002
}
  0
LINE
  5
4E
100
AcDbEntity
  8
図
370
         100
  6
Continuous
 62
           7
100
AcDbLine
 10
110.35
 20
53.9
 30
0.0
 11
110.35
 21
58.3
 31
0.0
1001
ACAD
1000
TCW40_DEV_WIDTH
1002
{
1040
0.039370078593
1002
}
1001
TCAD
1000
TCW_CUSTOM_DATA
1002
{
1000
#$AUX@_TCDO_SOURCE_COLOR
1070
           3
1071
        0
1000
#$AUX@_TCDO_PARENT_ID
1070
           3
1071
      307
1000
#$AUX@_TCDO_GTYPE
1070
           3
1071
        0
1000
#$AUX@_TCDO_VISIBILITY
1070
           3
1071
        0
1002
}
  0
LINE
  5
4F
100
AcDbEntity
  8
図
370
         100
  6
Continuous
 62
           7
100
AcDbLine
 10
108.85
 20
53.9
 30
0.0
 11
110.35
 21
53.9
 31
0.0
1001
ACAD
1000
TCW40_DEV_WIDTH
1002
{
1040
0.039370078593
1002
}
1001
TCAD
1000
TCW_CUSTOM_DATA
1002
{
1000
#$AUX@_TCDO_SOURCE_COLOR
1070
           3
1071
        0
1000
#$AUX@_TCDO_PARENT_ID
1070
           3
1071
      307
1000
#$AUX@_TCDO_GTYPE
1070
           3
1071
        0
1000
#$AUX@_TCDO_VISIBILITY
1070
           3
1071
        0
1002
}
  0
LINE
  5
50
100
AcDbEntity
  8
図
370
         100
  6
Continuous
 62
           7
100
AcDbLine
 10
108.85
 20
58.3
 30
0.0
 11
108.85
 21
53.9
 31
0.0
1001
ACAD
1000
TCW40_DEV_WIDTH
1002
{
1040
0.039370078593
1002
}
1001
TCAD
1000
TCW_CUSTOM_DATA
1002
{
1000
#$AUX@_TCDO_SOURCE_COLOR
1070
           3
1071
        0
1000
#$AUX@_TCDO_PARENT_ID
1070
           3
1071
      307
1000
#$AUX@_TCDO_GTYPE
1070
           3
1071
        1
1000
#$AUX@_TCDO_VISIBILITY
1070
           3
1071
        0
1002
}
  0
LINE
  5
51
100
AcDbEntity
  8
図
370
         100
  6
Continuous
 62
           7
100
AcDbLine
 10
134.45
 20
58.3
 30
0.0
 11
132.95
 21
58.3
 31
0.0
1001
ACAD
1000
TCW40_DEV_WIDTH
1002
{
1040
0.039370078593
1002
}
1001
TCAD
1000
TCW_CUSTOM_DATA
1002
{
1000
#$AUX@_TCDO_SOURCE_COLOR
1070
           3
1071
        0
1000
#$AUX@_TCDO_PARENT_ID
1070
           3
1071
      307
1000
#$AUX@_TCDO_GTYPE
1070
           3
1071
        1
1000
#$AUX@_TCDO_VISIBILITY
1070
           3
1071
        0
1002
}
  0
LINE
  5
52
100
AcDbEntity
  8
図
370
         100
  6
Continuous
 62
           7
100
AcDbLine
 10
131.25
 20
58.3
 30
0.0
 11
132.95
 21
58.3
 31
0.0
1001
ACAD
1000
TCW40_DEV_WIDTH
1002
{
1040
0.039370078593
1002
}
1001
TCAD
1000
TCW_CUSTOM_DATA
1002
{
1000
#$AUX@_TCDO_SOURCE_COLOR
1070
           3
1071
        0
1000
#$AUX@_TCDO_PARENT_ID
1070
           3
1071
      307
1000
#$AUX@_TCDO_GTYPE
1070
           3
1071
        1
1000
#$AUX@_TCDO_VISIBILITY
1070
           3
1071
        0
1002
}
  0
LINE
  5
53
100
AcDbEntity
  8
図
370
         100
  6
Continuous
 62
           7
100
AcDbLine
 10
110.35
 20
58.3
 30
0.0
 11
112.05
 21
58.3
 31
0.0
1001
ACAD
1000
TCW40_DEV_WIDTH
1002
{
1040
0.039370078593
1002
}
1001
TCAD
1000
TCW_CUSTOM_DATA
1002
{
1000
#$AUX@_TCDO_SOURCE_COLOR
1070
           3
1071
        0
1000
#$AUX@_TCDO_PARENT_ID
1070
           3
1071
      307
1000
#$AUX@_TCDO_GTYPE
1070
           3
1071
        1
1000
#$AUX@_TCDO_VISIBILITY
1070
           3
1071
        0
1002
}
  0
LINE
  5
54
100
AcDbEntity
  8
図
370
         100
  6
Continuous
 62
           7
100
AcDbLine
 10
110.35
 20
58.3
 30
0.0
 11
108.85
 21
58.3
 31
0.0
1001
ACAD
1000
TCW40_DEV_WIDTH
1002
{
1040
0.039370078593
1002
}
1001
TCAD
1000
TCW_CUSTOM_DATA
1002
{
1000
#$AUX@_TCDO_SOURCE_COLOR
1070
           3
1071
        0
1000
#$AUX@_TCDO_PARENT_ID
1070
           3
1071
      307
1000
#$AUX@_TCDO_GTYPE
1070
           3
1071
        1
1000
#$AUX@_TCDO_VISIBILITY
1070
           3
1071
        0
1002
}
  0
LINE
  5
55
100
AcDbEntity
  8
図
370
         100
  6
Continuous
 62
           7
100
AcDbLine
 10
117.65
 20
58.3
 30
0.0
 11
119.65
 21
58.3
 31
0.0
1001
ACAD
1000
TCW40_DEV_WIDTH
1002
{
1040
0.039370078593
1002
}
1001
TCAD
1000
TCW_CUSTOM_DATA
1002
{
1000
#$AUX@_TCDO_SOURCE_COLOR
1070
           3
1071
        0
1000
#$AUX@_TCDO_PARENT_ID
1070
           3
1071
      307
1000
#$AUX@_TCDO_GTYPE
1070
           3
1071
        1
1000
#$AUX@_TCDO_VISIBILITY
1070
           3
1071
        0
1002
}
  0
LINE
  5
56
100
AcDbEntity
  8
図
370
         100
  6
Continuous
 62
           7
100
AcDbLine
 10
124.05
 20
58.3
 30
0.0
 11
125.65
 21
58.3
 31
0.0
1001
ACAD
1000
TCW40_DEV_WIDTH
1002
{
1040
0.039370078593
1002
}
1001
TCAD
1000
TCW_CUSTOM_DATA
1002
{
1000
#$AUX@_TCDO_SOURCE_COLOR
1070
           3
1071
        0
1000
#$AUX@_TCDO_PARENT_ID
1070
           3
1071
      307
1000
#$AUX@_TCDO_GTYPE
1070
           3
1071
        1
1000
#$AUX@_TCDO_VISIBILITY
1070
           3
1071
        0
1002
}
  0
LINE
  5
57
100
AcDbEntity
  8
図
370
         100
  6
Continuous
 62
           7
100
AcDbLine
 10
119.65
 20
56.8
 30
0.0
 11
119.65
 21
58.3
 31
0.0
1001
ACAD
1000
TCW40_DEV_WIDTH
1002
{
1040
0.039370078593
1002
}
1001
TCAD
1000
TCW_CUSTOM_DATA
1002
{
1000
#$AUX@_TCDO_SOURCE_COLOR
1070
           3
1071
        0
1000
#$AUX@_TCDO_PARENT_ID
1070
           3
1071
      307
1000
#$AUX@_TCDO_GTYPE
1070
           3
1071
        1
1000
#$AUX@_TCDO_VISIBILITY
1070
           3
1071
        0
1002
}
  0
LINE
  5
58
100
AcDbEntity
  8
図
370
         100
  6
Continuous
 62
           7
100
AcDbLine
 10
124.05
 20
56.8
 30
0.0
 11
119.65
 21
56.8
 31
0.0
1001
ACAD
1000
TCW40_DEV_WIDTH
1002
{
1040
0.039370078593
1002
}
1001
TCAD
1000
TCW_CUSTOM_DATA
1002
{
1000
#$AUX@_TCDO_SOURCE_COLOR
1070
           3
1071
        0
1000
#$AUX@_TCDO_PARENT_ID
1070
           3
1071
      307
1000
#$AUX@_TCDO_GTYPE
1070
           3
1071
        1
1000
#$AUX@_TCDO_VISIBILITY
1070
           3
1071
        0
1002
}
  0
LINE
  5
59
100
AcDbEntity
  8
図
370
         100
  6
Continuous
 62
           7
100
AcDbLine
 10
124.05
 20
58.3
 30
0.0
 11
124.05
 21
56.8
 31
0.0
1001
ACAD
1000
TCW40_DEV_WIDTH
1002
{
1040
0.039370078593
1002
}
1001
TCAD
1000
TCW_CUSTOM_DATA
1002
{
1000
#$AUX@_TCDO_SOURCE_COLOR
1070
           3
1071
        0
1000
#$AUX@_TCDO_PARENT_ID
1070
           3
1071
      307
1000
#$AUX@_TCDO_GTYPE
1070
           3
1071
        1
1000
#$AUX@_TCDO_VISIBILITY
1070
           3
1071
        0
1002
}
  0
LINE
  5
5A
100
AcDbEntity
  8
図
370
         100
  6
Continuous
 62
           7
100
AcDbLine
 10
119.65
 20
58.3
 30
0.0
 11
119.85
 21
58.3
 31
0.0
1001
ACAD
1000
TCW40_DEV_WIDTH
1002
{
1040
0.039370078593
1002
}
1001
TCAD
1000
TCW_CUSTOM_DATA
1002
{
1000
#$AUX@_TCDO_SOURCE_COLOR
1070
           3
1071
        0
1000
#$AUX@_TCDO_PARENT_ID
1070
           3
1071
      307
1000
#$AUX@_TCDO_GTYPE
1070
           3
1071
        1
1000
#$AUX@_TCDO_VISIBILITY
1070
           3
1071
        0
1002
}
  0
LINE
  5
5B
100
AcDbEntity
  8
図
370
         100
  6
Continuous
 62
           7
100
AcDbLine
 10
123.85
 20
58.3
 30
0.0
 11
124.05
 21
58.3
 31
0.0
1001
ACAD
1000
TCW40_DEV_WIDTH
1002
{
1040
0.039370078593
1002
}
1001
TCAD
1000
TCW_CUSTOM_DATA
1002
{
1000
#$AUX@_TCDO_SOURCE_COLOR
1070
           3
1071
        0
1000
#$AUX@_TCDO_PARENT_ID
1070
           3
1071
      307
1000
#$AUX@_TCDO_GTYPE
1070
           3
1071
        1
1000
#$AUX@_TCDO_VISIBILITY
1070
           3
1071
        0
1002
}
  0
LINE
  5
5C
100
AcDbEntity
  8
図
370
         100
  6
Continuous
 62
           7
100
AcDbLine
 10
114.85
 20
84.5
 30
0.0
 11
114.85
 21
84.3
 31
0.0
1001
ACAD
1000
TCW40_DEV_WIDTH
1002
{
1040
0.039370078593
1002
}
1001
TCAD
1000
TCW_CUSTOM_DATA
1002
{
1000
#$AUX@_TCDO_SOURCE_COLOR
1070
           3
1071
        0
1000
#$AUX@_TCDO_PARENT_ID
1070
           3
1071
      211
1000
#$AUX@_TCDO_GTYPE
1070
           3
1071
        1
1000
#$AUX@_TCDO_VISIBILITY
1070
           3
1071
        0
1002
}
  0
LINE
  5
5D
100
AcDbEntity
  8
図
370
         100
  6
Continuous
 62
           7
100
AcDbLine
 10
110.85
 20
84.3
 30
0.0
 11
110.85
 21
84.5
 31
0.0
1001
ACAD
1000
TCW40_DEV_WIDTH
1002
{
1040
0.039370078593
1002
}
1001
TCAD
1000
TCW_CUSTOM_DATA
1002
{
1000
#$AUX@_TCDO_SOURCE_COLOR
1070
           3
1071
        0
1000
#$AUX@_TCDO_PARENT_ID
1070
           3
1071
      211
1000
#$AUX@_TCDO_GTYPE
1070
           3
1071
        1
1000
#$AUX@_TCDO_VISIBILITY
1070
           3
1071
        0
1002
}
  0
LINE
  5
5E
100
AcDbEntity
  8
図
370
         100
  6
Continuous
 62
           7
100
AcDbLine
 10
132.85
 20
84.5
 30
0.0
 11
132.85
 21
84.3
 31
0.0
1001
ACAD
1000
TCW40_DEV_WIDTH
1002
{
1040
0.039370078593
1002
}
1001
TCAD
1000
TCW_CUSTOM_DATA
1002
{
1000
#$AUX@_TCDO_SOURCE_COLOR
1070
           3
1071
        0
1000
#$AUX@_TCDO_PARENT_ID
1070
           3
1071
      211
1000
#$AUX@_TCDO_GTYPE
1070
           3
1071
        1
1000
#$AUX@_TCDO_VISIBILITY
1070
           3
1071
        0
1002
}
  0
LINE
  5
5F
100
AcDbEntity
  8
図
370
         100
  6
Continuous
 62
           7
100
AcDbLine
 10
128.85
 20
84.3
 30
0.0
 11
128.85
 21
84.5
 31
0.0
1001
ACAD
1000
TCW40_DEV_WIDTH
1002
{
1040
0.039370078593
1002
}
1001
TCAD
1000
TCW_CUSTOM_DATA
1002
{
1000
#$AUX@_TCDO_SOURCE_COLOR
1070
           3
1071
        0
1000
#$AUX@_TCDO_PARENT_ID
1070
           3
1071
      211
1000
#$AUX@_TCDO_GTYPE
1070
           3
1071
        1
1000
#$AUX@_TCDO_VISIBILITY
1070
           3
1071
        0
1002
}
  0
LINE
  5
60
100
AcDbEntity
  8
図
370
         100
  6
Continuous
 62
           7
100
AcDbLine
 10
100.35
 20
80.0
 30
0.0
 11
100.35
 21
79.0
 31
0.0
1001
ACAD
1000
TCW40_DEV_WIDTH
1002
{
1040
0.039370078593
1002
}
1001
TCAD
1000
TCW_CUSTOM_DATA
1002
{
1000
#$AUX@_TCDO_SOURCE_COLOR
1070
           3
1071
        0
1000
#$AUX@_TCDO_PARENT_ID
1070
           3
1071
      202
1000
#$AUX@_TCDO_GTYPE
1070
           3
1071
        0
1000
#$AUX@_TCDO_VISIBILITY
1070
           3
1071
        0
1002
}
  0
LINE
  5
61
100
AcDbEntity
  8
図
370
         100
  6
Continuous
 62
           7
100
AcDbLine
 10
142.95
 20
79.0
 30
0.0
 11
142.95
 21
80.0
 31
0.0
1001
ACAD
1000
TCW40_DEV_WIDTH
1002
{
1040
0.039370078593
1002
}
1001
TCAD
1000
TCW_CUSTOM_DATA
1002
{
1000
#$AUX@_TCDO_SOURCE_COLOR
1070
           3
1071
        0
1000
#$AUX@_TCDO_PARENT_ID
1070
           3
1071
      202
1000
#$AUX@_TCDO_GTYPE
1070
           3
1071
        0
1000
#$AUX@_TCDO_VISIBILITY
1070
           3
1071
        0
1002
}
  0
LINE
  5
62
100
AcDbEntity
  8
図
370
         100
  6
Continuous
 62
           7
100
AcDbLine
 10
119.85
 20
57.0
 30
0.0
 11
123.85
 21
57.0
 31
0.0
1001
ACAD
1000
TCW40_DEV_WIDTH
1002
{
1040
0.039370078593
1002
}
1001
TCAD
1000
TCW_CUSTOM_DATA
1002
{
1000
#$AUX@_TCDO_SOURCE_COLOR
1070
           3
1071
        0
1000
#$AUX@_TCDO_PARENT_ID
1070
           3
1071
      202
1000
#$AUX@_TCDO_GTYPE
1070
           3
1071
        1
1000
#$AUX@_TCDO_VISIBILITY
1070
           3
1071
        0
1002
}
  0
LINE
  5
63
100
AcDbEntity
  8
図
370
         100
  6
Continuous
 62
           7
100
AcDbLine
 10
119.85
 20
58.5
 30
0.0
 11
119.85
 21
57.0
 31
0.0
1001
ACAD
1000
TCW40_DEV_WIDTH
1002
{
1040
0.039370078593
1002
}
1001
TCAD
1000
TCW_CUSTOM_DATA
1002
{
1000
#$AUX@_TCDO_SOURCE_COLOR
1070
           3
1071
        0
1000
#$AUX@_TCDO_PARENT_ID
1070
           3
1071
      202
1000
#$AUX@_TCDO_GTYPE
1070
           3
1071
        1
1000
#$AUX@_TCDO_VISIBILITY
1070
           3
1071
        0
1002
}
  0
LINE
  5
64
100
AcDbEntity
  8
図
370
         100
  6
Continuous
 62
           7
100
AcDbLine
 10
123.85
 20
57.0
 30
0.0
 11
123.85
 21
58.5
 31
0.0
1001
ACAD
1000
TCW40_DEV_WIDTH
1002
{
1040
0.039370078593
1002
}
1001
TCAD
1000
TCW_CUSTOM_DATA
1002
{
1000
#$AUX@_TCDO_SOURCE_COLOR
1070
           3
1071
        0
1000
#$AUX@_TCDO_PARENT_ID
1070
           3
1071
      202
1000
#$AUX@_TCDO_GTYPE
1070
           3
1071
        1
1000
#$AUX@_TCDO_VISIBILITY
1070
           3
1071
        0
1002
}
  0
LINE
  5
65
100
AcDbEntity
  8
図
370
         100
  6
Continuous
 62
           7
100
AcDbLine
 10
123.95
 20
78.9
 30
0.0
 11
119.35
 21
78.9
 31
0.0
1001
ACAD
1000
TCW40_DEV_WIDTH
1002
{
1040
0.039370078593
1002
}
1001
TCAD
1000
TCW_CUSTOM_DATA
1002
{
1000
#$AUX@_TCDO_SOURCE_COLOR
1070
           3
1071
        0
1000
#$AUX@_TCDO_PARENT_ID
1070
           3
1071
      202
1000
#$AUX@_TCDO_GTYPE
1070
           3
1071
        1
1000
#$AUX@_TCDO_VISIBILITY
1070
           3
1071
        0
1002
}
  0
LINE
  5
66
100
AcDbEntity
  8
図
370
         100
  6
Continuous
 62
           7
100
AcDbLine
 10
119.35
 20
78.9
 30
0.0
 11
119.35
 21
82.8
 31
0.0
1001
ACAD
1000
TCW40_DEV_WIDTH
1002
{
1040
0.039370078593
1002
}
1001
TCAD
1000
TCW_CUSTOM_DATA
1002
{
1000
#$AUX@_TCDO_SOURCE_COLOR
1070
           3
1071
        0
1000
#$AUX@_TCDO_PARENT_ID
1070
           3
1071
      202
1000
#$AUX@_TCDO_GTYPE
1070
           3
1071
        1
1000
#$AUX@_TCDO_VISIBILITY
1070
           3
1071
        0
1002
}
  0
LINE
  5
67
100
AcDbEntity
  8
図
370
         100
  6
Continuous
 62
           7
100
AcDbLine
 10
123.95
 20
82.8
 30
0.0
 11
123.95
 21
78.9
 31
0.0
1001
ACAD
1000
TCW40_DEV_WIDTH
1002
{
1040
0.039370078593
1002
}
1001
TCAD
1000
TCW_CUSTOM_DATA
1002
{
1000
#$AUX@_TCDO_SOURCE_COLOR
1070
           3
1071
        0
1000
#$AUX@_TCDO_PARENT_ID
1070
           3
1071
      202
1000
#$AUX@_TCDO_GTYPE
1070
           3
1071
        1
1000
#$AUX@_TCDO_VISIBILITY
1070
           3
1071
        0
1002
}
  0
LINE
  5
68
100
AcDbEntity
  8
図
370
         100
  6
Continuous
 62
           7
100
AcDbLine
 10
123.95
 20
84.3
 30
0.0
 11
123.95
 21
82.8
 31
0.0
1001
ACAD
1000
TCW40_DEV_WIDTH
1002
{
1040
0.039370078593
1002
}
1001
TCAD
1000
TCW_CUSTOM_DATA
1002
{
1000
#$AUX@_TCDO_SOURCE_COLOR
1070
           3
1071
        0
1000
#$AUX@_TCDO_PARENT_ID
1070
           3
1071
      202
1000
#$AUX@_TCDO_GTYPE
1070
           3
1071
        1
1000
#$AUX@_TCDO_VISIBILITY
1070
           3
1071
        0
1002
}
  0
LINE
  5
69
100
AcDbEntity
  8
図
370
         100
  6
Continuous
 62
           7
100
AcDbLine
 10
119.35
 20
82.8
 30
0.0
 11
123.95
 21
82.8
 31
0.0
1001
ACAD
1000
TCW40_DEV_WIDTH
1002
{
1040
0.039370078593
1002
}
1001
TCAD
1000
TCW_CUSTOM_DATA
1002
{
1000
#$AUX@_TCDO_SOURCE_COLOR
1070
           3
1071
        0
1000
#$AUX@_TCDO_PARENT_ID
1070
           3
1071
      202
1000
#$AUX@_TCDO_GTYPE
1070
           3
1071
        0
1000
#$AUX@_TCDO_VISIBILITY
1070
           3
1071
        0
1002
}
  0
LINE
  5
6A
100
AcDbEntity
  8
図
370
         100
  6
Continuous
 62
           7
100
AcDbLine
 10
119.35
 20
82.8
 30
0.0
 11
119.35
 21
84.3
 31
0.0
1001
ACAD
1000
TCW40_DEV_WIDTH
1002
{
1040
0.039370078593
1002
}
1001
TCAD
1000
TCW_CUSTOM_DATA
1002
{
1000
#$AUX@_TCDO_SOURCE_COLOR
1070
           3
1071
        0
1000
#$AUX@_TCDO_PARENT_ID
1070
           3
1071
      202
1000
#$AUX@_TCDO_GTYPE
1070
           3
1071
        1
1000
#$AUX@_TCDO_VISIBILITY
1070
           3
1071
        0
1002
}
  0
LINE
  5
6B
100
AcDbEntity
  8
図
370
         100
  6
Continuous
 62
           7
100
AcDbLine
 10
117.65
 20
60.0
 30
0.0
 11
117.65
 21
58.5
 31
0.0
1001
ACAD
1000
TCW40_DEV_WIDTH
1002
{
1040
0.039370078593
1002
}
1001
TCAD
1000
TCW_CUSTOM_DATA
1002
{
1000
#$AUX@_TCDO_SOURCE_COLOR
1070
           3
1071
        0
1000
#$AUX@_TCDO_PARENT_ID
1070
           3
1071
      202
1000
#$AUX@_TCDO_GTYPE
1070
           3
1071
        1
1000
#$AUX@_TCDO_VISIBILITY
1070
           3
1071
        0
1002
}
  0
LINE
  5
6C
100
AcDbEntity
  8
図
370
         100
  6
Continuous
 62
           7
100
AcDbLine
 10
112.05
 20
60.0
 30
0.0
 11
117.65
 21
60.0
 31
0.0
1001
ACAD
1000
TCW40_DEV_WIDTH
1002
{
1040
0.039370078593
1002
}
1001
TCAD
1000
TCW_CUSTOM_DATA
1002
{
1000
#$AUX@_TCDO_SOURCE_COLOR
1070
           3
1071
        0
1000
#$AUX@_TCDO_PARENT_ID
1070
           3
1071
      202
1000
#$AUX@_TCDO_GTYPE
1070
           3
1071
        1
1000
#$AUX@_TCDO_VISIBILITY
1070
           3
1071
        0
1002
}
  0
LINE
  5
6D
100
AcDbEntity
  8
図
370
         100
  6
Continuous
 62
           7
100
AcDbLine
 10
125.65
 20
60.0
 30
0.0
 11
131.25
 21
60.0
 31
0.0
1001
ACAD
1000
TCW40_DEV_WIDTH
1002
{
1040
0.039370078593
1002
}
1001
TCAD
1000
TCW_CUSTOM_DATA
1002
{
1000
#$AUX@_TCDO_SOURCE_COLOR
1070
           3
1071
        0
1000
#$AUX@_TCDO_PARENT_ID
1070
           3
1071
      202
1000
#$AUX@_TCDO_GTYPE
1070
           3
1071
        1
1000
#$AUX@_TCDO_VISIBILITY
1070
           3
1071
        0
1002
}
  0
LINE
  5
6E
100
AcDbEntity
  8
図
370
         100
  6
Continuous
 62
           7
100
AcDbLine
 10
131.25
 20
60.0
 30
0.0
 11
131.25
 21
58.5
 31
0.0
1001
ACAD
1000
TCW40_DEV_WIDTH
1002
{
1040
0.039370078593
1002
}
1001
TCAD
1000
TCW_CUSTOM_DATA
1002
{
1000
#$AUX@_TCDO_SOURCE_COLOR
1070
           3
1071
        0
1000
#$AUX@_TCDO_PARENT_ID
1070
           3
1071
      202
1000
#$AUX@_TCDO_GTYPE
1070
           3
1071
        1
1000
#$AUX@_TCDO_VISIBILITY
1070
           3
1071
        0
1002
}
  0
LINE
  5
6F
100
AcDbEntity
  8
図
370
         100
  6
Continuous
 62
           7
100
AcDbLine
 10
125.65
 20
58.5
 30
0.0
 11
125.65
 21
60.0
 31
0.0
1001
ACAD
1000
TCW40_DEV_WIDTH
1002
{
1040
0.039370078593
1002
}
1001
TCAD
1000
TCW_CUSTOM_DATA
1002
{
1000
#$AUX@_TCDO_SOURCE_COLOR
1070
           3
1071
        0
1000
#$AUX@_TCDO_PARENT_ID
1070
           3
1071
      202
1000
#$AUX@_TCDO_GTYPE
1070
           3
1071
        1
1000
#$AUX@_TCDO_VISIBILITY
1070
           3
1071
        0
1002
}
  0
LINE
  5
70
100
AcDbEntity
  8
図
370
         100
  6
Continuous
 62
           7
100
AcDbLine
 10
112.05
 20
58.5
 30
0.0
 11
112.05
 21
60.0
 31
0.0
1001
ACAD
1000
TCW40_DEV_WIDTH
1002
{
1040
0.039370078593
1002
}
1001
TCAD
1000
TCW_CUSTOM_DATA
1002
{
1000
#$AUX@_TCDO_SOURCE_COLOR
1070
           3
1071
        0
1000
#$AUX@_TCDO_PARENT_ID
1070
           3
1071
      202
1000
#$AUX@_TCDO_GTYPE
1070
           3
1071
        1
1000
#$AUX@_TCDO_VISIBILITY
1070
           3
1071
        0
1002
}
  0
LINE
  5
71
100
AcDbEntity
  8
図
370
         100
  6
Continuous
 62
           7
100
AcDbLine
 10
112.05
 20
58.5
 30
0.0
 11
110.35
 21
58.5
 31
0.0
1001
ACAD
1000
TCW40_DEV_WIDTH
1002
{
1040
0.039370078593
1002
}
1001
TCAD
1000
TCW_CUSTOM_DATA
1002
{
1000
#$AUX@_TCDO_SOURCE_COLOR
1070
           3
1071
        0
1000
#$AUX@_TCDO_PARENT_ID
1070
           3
1071
      202
1000
#$AUX@_TCDO_GTYPE
1070
           3
1071
        1
1000
#$AUX@_TCDO_VISIBILITY
1070
           3
1071
        0
1002
}
  0
LINE
  5
72
100
AcDbEntity
  8
図
370
         100
  6
Continuous
 62
           7
100
AcDbLine
 10
132.95
 20
58.5
 30
0.0
 11
131.25
 21
58.5
 31
0.0
1001
ACAD
1000
TCW40_DEV_WIDTH
1002
{
1040
0.039370078593
1002
}
1001
TCAD
1000
TCW_CUSTOM_DATA
1002
{
1000
#$AUX@_TCDO_SOURCE_COLOR
1070
           3
1071
        0
1000
#$AUX@_TCDO_PARENT_ID
1070
           3
1071
      202
1000
#$AUX@_TCDO_GTYPE
1070
           3
1071
        1
1000
#$AUX@_TCDO_VISIBILITY
1070
           3
1071
        0
1002
}
  0
LINE
  5
73
100
AcDbEntity
  8
図
370
         100
  6
Continuous
 62
           7
100
AcDbLine
 10
125.65
 20
58.5
 30
0.0
 11
123.85
 21
58.5
 31
0.0
1001
ACAD
1000
TCW40_DEV_WIDTH
1002
{
1040
0.039370078593
1002
}
1001
TCAD
1000
TCW_CUSTOM_DATA
1002
{
1000
#$AUX@_TCDO_SOURCE_COLOR
1070
           3
1071
        0
1000
#$AUX@_TCDO_PARENT_ID
1070
           3
1071
      202
1000
#$AUX@_TCDO_GTYPE
1070
           3
1071
        1
1000
#$AUX@_TCDO_VISIBILITY
1070
           3
1071
        0
1002
}
  0
LINE
  5
74
100
AcDbEntity
  8
図
370
         100
  6
Continuous
 62
           7
100
AcDbLine
 10
119.85
 20
58.5
 30
0.0
 11
117.65
 21
58.5
 31
0.0
1001
ACAD
1000
TCW40_DEV_WIDTH
1002
{
1040
0.039370078593
1002
}
1001
TCAD
1000
TCW_CUSTOM_DATA
1002
{
1000
#$AUX@_TCDO_SOURCE_COLOR
1070
           3
1071
        0
1000
#$AUX@_TCDO_PARENT_ID
1070
           3
1071
      202
1000
#$AUX@_TCDO_GTYPE
1070
           3
1071
        1
1000
#$AUX@_TCDO_VISIBILITY
1070
           3
1071
        0
1002
}
  0
LINE
  5
75
100
AcDbEntity
  8
図
370
         100
  6
Continuous
 62
           7
100
AcDbLine
 10
105.85
 20
83.4
 30
0.0
 11
108.85
 21
83.4
 31
0.0
1001
ACAD
1000
TCW40_DEV_WIDTH
1002
{
1040
0.039370078593
1002
}
1001
TCAD
1000
TCW_CUSTOM_DATA
1002
{
1000
#$AUX@_TCDO_SOURCE_COLOR
1070
           3
1071
        0
1000
#$AUX@_TCDO_PARENT_ID
1070
           3
1071
      202
1000
#$AUX@_TCDO_GTYPE
1070
           3
1071
        1
1000
#$AUX@_TCDO_VISIBILITY
1070
           3
1071
        0
1002
}
  0
LINE
  5
76
100
AcDbEntity
  8
図
370
         100
  6
Continuous
 62
           7
100
AcDbLine
 10
101.85
 20
79.0
 30
0.0
 11
108.85
 21
79.0
 31
0.0
1001
ACAD
1000
TCW40_DEV_WIDTH
1002
{
1040
0.039370078593
1002
}
1001
TCAD
1000
TCW_CUSTOM_DATA
1002
{
1000
#$AUX@_TCDO_SOURCE_COLOR
1070
           3
1071
        0
1000
#$AUX@_TCDO_PARENT_ID
1070
           3
1071
      202
1000
#$AUX@_TCDO_GTYPE
1070
           3
1071
        1
1000
#$AUX@_TCDO_VISIBILITY
1070
           3
1071
        0
1002
}
  0
LINE
  5
77
100
AcDbEntity
  8
図
370
         100
  6
Continuous
 62
           7
100
AcDbLine
 10
105.85
 20
80.0
 30
0.0
 11
105.85
 21
83.4
 31
0.0
1001
ACAD
1000
TCW40_DEV_WIDTH
1002
{
1040
0.039370078593
1002
}
1001
TCAD
1000
TCW_CUSTOM_DATA
1002
{
1000
#$AUX@_TCDO_SOURCE_COLOR
1070
           3
1071
        0
1000
#$AUX@_TCDO_PARENT_ID
1070
           3
1071
      202
1000
#$AUX@_TCDO_GTYPE
1070
           3
1071
        1
1000
#$AUX@_TCDO_VISIBILITY
1070
           3
1071
        0
1002
}
  0
LINE
  5
78
100
AcDbEntity
  8
図
370
         100
  6
Continuous
 62
           7
100
AcDbLine
 10
101.85
 20
80.0
 30
0.0
 11
105.85
 21
80.0
 31
0.0
1001
ACAD
1000
TCW40_DEV_WIDTH
1002
{
1040
0.039370078593
1002
}
1001
TCAD
1000
TCW_CUSTOM_DATA
1002
{
1000
#$AUX@_TCDO_SOURCE_COLOR
1070
           3
1071
        0
1000
#$AUX@_TCDO_PARENT_ID
1070
           3
1071
      202
1000
#$AUX@_TCDO_GTYPE
1070
           3
1071
        1
1000
#$AUX@_TCDO_VISIBILITY
1070
           3
1071
        0
1002
}
  0
LINE
  5
79
100
AcDbEntity
  8
図
370
         100
  6
Continuous
 62
           7
100
AcDbLine
 10
100.35
 20
80.0
 30
0.0
 11
100.35
 21
83.4
 31
0.0
1001
ACAD
1000
TCW40_DEV_WIDTH
1002
{
1040
0.039370078593
1002
}
1001
TCAD
1000
TCW_CUSTOM_DATA
1002
{
1000
#$AUX@_TCDO_SOURCE_COLOR
1070
           3
1071
        0
1000
#$AUX@_TCDO_PARENT_ID
1070
           3
1071
      202
1000
#$AUX@_TCDO_GTYPE
1070
           3
1071
        1
1000
#$AUX@_TCDO_VISIBILITY
1070
           3
1071
        0
1002
}
  0
LINE
  5
7A
100
AcDbEntity
  8
図
370
         100
  6
Continuous
 62
           7
100
AcDbLine
 10
100.35
 20
83.4
 30
0.0
 11
105.85
 21
83.4
 31
0.0
1001
ACAD
1000
TCW40_DEV_WIDTH
1002
{
1040
0.039370078593
1002
}
1001
TCAD
1000
TCW_CUSTOM_DATA
1002
{
1000
#$AUX@_TCDO_SOURCE_COLOR
1070
           3
1071
        0
1000
#$AUX@_TCDO_PARENT_ID
1070
           3
1071
      202
1000
#$AUX@_TCDO_GTYPE
1070
           3
1071
        1
1000
#$AUX@_TCDO_VISIBILITY
1070
           3
1071
        0
1002
}
  0
LINE
  5
7B
100
AcDbEntity
  8
図
370
         100
  6
Continuous
 62
           7
100
AcDbLine
 10
101.35
 20
82.4
 30
0.0
 11
105.85
 21
82.4
 31
0.0
1001
ACAD
1000
TCW40_DEV_WIDTH
1002
{
1040
0.039370078593
1002
}
1001
TCAD
1000
TCW_CUSTOM_DATA
1002
{
1000
#$AUX@_TCDO_SOURCE_COLOR
1070
           3
1071
        0
1000
#$AUX@_TCDO_PARENT_ID
1070
           3
1071
      202
1000
#$AUX@_TCDO_GTYPE
1070
           3
1071
        1
1000
#$AUX@_TCDO_VISIBILITY
1070
           3
1071
        0
1002
}
  0
LINE
  5
7C
100
AcDbEntity
  8
図
370
         100
  6
Continuous
 62
           7
100
AcDbLine
 10
101.35
 20
82.4
 30
0.0
 11
101.35
 21
80.0
 31
0.0
1001
ACAD
1000
TCW40_DEV_WIDTH
1002
{
1040
0.039370078593
1002
}
1001
TCAD
1000
TCW_CUSTOM_DATA
1002
{
1000
#$AUX@_TCDO_SOURCE_COLOR
1070
           3
1071
        0
1000
#$AUX@_TCDO_PARENT_ID
1070
           3
1071
      202
1000
#$AUX@_TCDO_GTYPE
1070
           3
1071
        1
1000
#$AUX@_TCDO_VISIBILITY
1070
           3
1071
        0
1002
}
  0
LINE
  5
7D
100
AcDbEntity
  8
図
370
         100
  6
Continuous
 62
           7
100
AcDbLine
 10
101.85
 20
79.0
 30
0.0
 11
101.85
 21
80.0
 31
0.0
1001
ACAD
1000
TCW40_DEV_WIDTH
1002
{
1040
0.039370078593
1002
}
1001
TCAD
1000
TCW_CUSTOM_DATA
1002
{
1000
#$AUX@_TCDO_SOURCE_COLOR
1070
           3
1071
        0
1000
#$AUX@_TCDO_PARENT_ID
1070
           3
1071
      202
1000
#$AUX@_TCDO_GTYPE
1070
           3
1071
        0
1000
#$AUX@_TCDO_VISIBILITY
1070
           3
1071
        0
1002
}
  0
LINE
  5
7E
100
AcDbEntity
  8
図
370
         100
  6
Continuous
 62
           7
100
AcDbLine
 10
101.85
 20
79.0
 30
0.0
 11
100.35
 21
79.0
 31
0.0
1001
ACAD
1000
TCW40_DEV_WIDTH
1002
{
1040
0.039370078593
1002
}
1001
TCAD
1000
TCW_CUSTOM_DATA
1002
{
1000
#$AUX@_TCDO_SOURCE_COLOR
1070
           3
1071
        0
1000
#$AUX@_TCDO_PARENT_ID
1070
           3
1071
      202
1000
#$AUX@_TCDO_GTYPE
1070
           3
1071
        1
1000
#$AUX@_TCDO_VISIBILITY
1070
           3
1071
        0
1002
}
  0
LINE
  5
7F
100
AcDbEntity
  8
図
370
         100
  6
Continuous
 62
           7
100
AcDbLine
 10
100.35
 20
80.0
 30
0.0
 11
101.85
 21
80.0
 31
0.0
1001
ACAD
1000
TCW40_DEV_WIDTH
1002
{
1040
0.039370078593
1002
}
1001
TCAD
1000
TCW_CUSTOM_DATA
1002
{
1000
#$AUX@_TCDO_SOURCE_COLOR
1070
           3
1071
        0
1000
#$AUX@_TCDO_PARENT_ID
1070
           3
1071
      202
1000
#$AUX@_TCDO_GTYPE
1070
           3
1071
        1
1000
#$AUX@_TCDO_VISIBILITY
1070
           3
1071
        0
1002
}
  0
LINE
  5
80
100
AcDbEntity
  8
図
370
         100
  6
Continuous
 62
           7
100
AcDbLine
 10
137.45
 20
83.4
 30
0.0
 11
134.45
 21
83.4
 31
0.0
1001
ACAD
1000
TCW40_DEV_WIDTH
1002
{
1040
0.039370078593
1002
}
1001
TCAD
1000
TCW_CUSTOM_DATA
1002
{
1000
#$AUX@_TCDO_SOURCE_COLOR
1070
           3
1071
        0
1000
#$AUX@_TCDO_PARENT_ID
1070
           3
1071
      202
1000
#$AUX@_TCDO_GTYPE
1070
           3
1071
        1
1000
#$AUX@_TCDO_VISIBILITY
1070
           3
1071
        0
1002
}
  0
LINE
  5
81
100
AcDbEntity
  8
図
370
         100
  6
Continuous
 62
           7
100
AcDbLine
 10
141.45
 20
79.0
 30
0.0
 11
134.45
 21
79.0
 31
0.0
1001
ACAD
1000
TCW40_DEV_WIDTH
1002
{
1040
0.039370078593
1002
}
1001
TCAD
1000
TCW_CUSTOM_DATA
1002
{
1000
#$AUX@_TCDO_SOURCE_COLOR
1070
           3
1071
        0
1000
#$AUX@_TCDO_PARENT_ID
1070
           3
1071
      202
1000
#$AUX@_TCDO_GTYPE
1070
           3
1071
        1
1000
#$AUX@_TCDO_VISIBILITY
1070
           3
1071
        0
1002
}
  0
LINE
  5
82
100
AcDbEntity
  8
図
370
         100
  6
Continuous
 62
           7
100
AcDbLine
 10
137.45
 20
80.0
 30
0.0
 11
137.45
 21
83.4
 31
0.0
1001
ACAD
1000
TCW40_DEV_WIDTH
1002
{
1040
0.039370078593
1002
}
1001
TCAD
1000
TCW_CUSTOM_DATA
1002
{
1000
#$AUX@_TCDO_SOURCE_COLOR
1070
           3
1071
        0
1000
#$AUX@_TCDO_PARENT_ID
1070
           3
1071
      202
1000
#$AUX@_TCDO_GTYPE
1070
           3
1071
        1
1000
#$AUX@_TCDO_VISIBILITY
1070
           3
1071
        0
1002
}
  0
LINE
  5
83
100
AcDbEntity
  8
図
370
         100
  6
Continuous
 62
           7
100
AcDbLine
 10
141.45
 20
80.0
 30
0.0
 11
137.45
 21
80.0
 31
0.0
1001
ACAD
1000
TCW40_DEV_WIDTH
1002
{
1040
0.039370078593
1002
}
1001
TCAD
1000
TCW_CUSTOM_DATA
1002
{
1000
#$AUX@_TCDO_SOURCE_COLOR
1070
           3
1071
        0
1000
#$AUX@_TCDO_PARENT_ID
1070
           3
1071
      202
1000
#$AUX@_TCDO_GTYPE
1070
           3
1071
        1
1000
#$AUX@_TCDO_VISIBILITY
1070
           3
1071
        0
1002
}
  0
LINE
  5
84
100
AcDbEntity
  8
図
370
         100
  6
Continuous
 62
           7
100
AcDbLine
 10
141.95
 20
82.4
 30
0.0
 11
137.45
 21
82.4
 31
0.0
1001
ACAD
1000
TCW40_DEV_WIDTH
1002
{
1040
0.039370078593
1002
}
1001
TCAD
1000
TCW_CUSTOM_DATA
1002
{
1000
#$AUX@_TCDO_SOURCE_COLOR
1070
           3
1071
        0
1000
#$AUX@_TCDO_PARENT_ID
1070
           3
1071
      202
1000
#$AUX@_TCDO_GTYPE
1070
           3
1071
        1
1000
#$AUX@_TCDO_VISIBILITY
1070
           3
1071
        0
1002
}
  0
LINE
  5
85
100
AcDbEntity
  8
図
370
         100
  6
Continuous
 62
           7
100
AcDbLine
 10
142.95
 20
83.4
 30
0.0
 11
137.45
 21
83.4
 31
0.0
1001
ACAD
1000
TCW40_DEV_WIDTH
1002
{
1040
0.039370078593
1002
}
1001
TCAD
1000
TCW_CUSTOM_DATA
1002
{
1000
#$AUX@_TCDO_SOURCE_COLOR
1070
           3
1071
        0
1000
#$AUX@_TCDO_PARENT_ID
1070
           3
1071
      202
1000
#$AUX@_TCDO_GTYPE
1070
           3
1071
        1
1000
#$AUX@_TCDO_VISIBILITY
1070
           3
1071
        0
1002
}
  0
LINE
  5
86
100
AcDbEntity
  8
図
370
         100
  6
Continuous
 62
           7
100
AcDbLine
 10
142.95
 20
80.0
 30
0.0
 11
142.95
 21
83.4
 31
0.0
1001
ACAD
1000
TCW40_DEV_WIDTH
1002
{
1040
0.039370078593
1002
}
1001
TCAD
1000
TCW_CUSTOM_DATA
1002
{
1000
#$AUX@_TCDO_SOURCE_COLOR
1070
           3
1071
        0
1000
#$AUX@_TCDO_PARENT_ID
1070
           3
1071
      202
1000
#$AUX@_TCDO_GTYPE
1070
           3
1071
        1
1000
#$AUX@_TCDO_VISIBILITY
1070
           3
1071
        0
1002
}
  0
LINE
  5
87
100
AcDbEntity
  8
図
370
         100
  6
Continuous
 62
           7
100
AcDbLine
 10
141.95
 20
82.4
 30
0.0
 11
141.95
 21
80.0
 31
0.0
1001
ACAD
1000
TCW40_DEV_WIDTH
1002
{
1040
0.039370078593
1002
}
1001
TCAD
1000
TCW_CUSTOM_DATA
1002
{
1000
#$AUX@_TCDO_SOURCE_COLOR
1070
           3
1071
        0
1000
#$AUX@_TCDO_PARENT_ID
1070
           3
1071
      202
1000
#$AUX@_TCDO_GTYPE
1070
           3
1071
        1
1000
#$AUX@_TCDO_VISIBILITY
1070
           3
1071
        0
1002
}
  0
LINE
  5
88
100
AcDbEntity
  8
図
370
         100
  6
Continuous
 62
           7
100
AcDbLine
 10
141.45
 20
79.0
 30
0.0
 11
142.95
 21
79.0
 31
0.0
1001
ACAD
1000
TCW40_DEV_WIDTH
1002
{
1040
0.039370078593
1002
}
1001
TCAD
1000
TCW_CUSTOM_DATA
1002
{
1000
#$AUX@_TCDO_SOURCE_COLOR
1070
           3
1071
        0
1000
#$AUX@_TCDO_PARENT_ID
1070
           3
1071
      202
1000
#$AUX@_TCDO_GTYPE
1070
           3
1071
        1
1000
#$AUX@_TCDO_VISIBILITY
1070
           3
1071
        0
1002
}
  0
LINE
  5
89
100
AcDbEntity
  8
図
370
         100
  6
Continuous
 62
           7
100
AcDbLine
 10
141.45
 20
79.0
 30
0.0
 11
141.45
 21
80.0
 31
0.0
1001
ACAD
1000
TCW40_DEV_WIDTH
1002
{
1040
0.039370078593
1002
}
1001
TCAD
1000
TCW_CUSTOM_DATA
1002
{
1000
#$AUX@_TCDO_SOURCE_COLOR
1070
           3
1071
        0
1000
#$AUX@_TCDO_PARENT_ID
1070
           3
1071
      202
1000
#$AUX@_TCDO_GTYPE
1070
           3
1071
        0
1000
#$AUX@_TCDO_VISIBILITY
1070
           3
1071
        0
1002
}
  0
LINE
  5
8A
100
AcDbEntity
  8
図
370
         100
  6
Continuous
 62
           7
100
AcDbLine
 10
142.95
 20
80.0
 30
0.0
 11
141.45
 21
80.0
 31
0.0
1001
ACAD
1000
TCW40_DEV_WIDTH
1002
{
1040
0.039370078593
1002
}
1001
TCAD
1000
TCW_CUSTOM_DATA
1002
{
1000
#$AUX@_TCDO_SOURCE_COLOR
1070
           3
1071
        0
1000
#$AUX@_TCDO_PARENT_ID
1070
           3
1071
      202
1000
#$AUX@_TCDO_GTYPE
1070
           3
1071
        1
1000
#$AUX@_TCDO_VISIBILITY
1070
           3
1071
        0
1002
}
  0
LINE
  5
8B
100
AcDbEntity
  8
図
370
         100
  6
Continuous
 62
           7
100
AcDbLine
 10
110.35
 20
58.5
 30
0.0
 11
110.35
 21
84.3
 31
0.0
1001
ACAD
1000
TCW40_DEV_WIDTH
1002
{
1040
0.039370078593
1002
}
1001
TCAD
1000
TCW_CUSTOM_DATA
1002
{
1000
#$AUX@_TCDO_SOURCE_COLOR
1070
           3
1071
        0
1000
#$AUX@_TCDO_PARENT_ID
1070
           3
1071
      202
1000
#$AUX@_TCDO_GTYPE
1070
           3
1071
        0
1000
#$AUX@_TCDO_VISIBILITY
1070
           3
1071
        0
1002
}
  0
LINE
  5
8C
100
AcDbEntity
  8
図
370
         100
  6
Continuous
 62
           7
100
AcDbLine
 10
108.85
 20
58.5
 30
0.0
 11
110.35
 21
58.5
 31
0.0
1001
ACAD
1000
TCW40_DEV_WIDTH
1002
{
1040
0.039370078593
1002
}
1001
TCAD
1000
TCW_CUSTOM_DATA
1002
{
1000
#$AUX@_TCDO_SOURCE_COLOR
1070
           3
1071
        0
1000
#$AUX@_TCDO_PARENT_ID
1070
           3
1071
      202
1000
#$AUX@_TCDO_GTYPE
1070
           3
1071
        1
1000
#$AUX@_TCDO_VISIBILITY
1070
           3
1071
        0
1002
}
  0
LINE
  5
8D
100
AcDbEntity
  8
図
370
         100
  6
Continuous
 62
           7
100
AcDbLine
 10
108.85
 20
84.3
 30
0.0
 11
108.85
 21
58.5
 31
0.0
1001
ACAD
1000
TCW40_DEV_WIDTH
1002
{
1040
0.039370078593
1002
}
1001
TCAD
1000
TCW_CUSTOM_DATA
1002
{
1000
#$AUX@_TCDO_SOURCE_COLOR
1070
           3
1071
        0
1000
#$AUX@_TCDO_PARENT_ID
1070
           3
1071
      202
1000
#$AUX@_TCDO_GTYPE
1070
           3
1071
        1
1000
#$AUX@_TCDO_VISIBILITY
1070
           3
1071
        0
1002
}
  0
LINE
  5
8E
100
AcDbEntity
  8
図
370
         100
  6
Continuous
 62
           7
100
AcDbLine
 10
134.45
 20
58.5
 30
0.0
 11
134.45
 21
84.3
 31
0.0
1001
ACAD
1000
TCW40_DEV_WIDTH
1002
{
1040
0.039370078593
1002
}
1001
TCAD
1000
TCW_CUSTOM_DATA
1002
{
1000
#$AUX@_TCDO_SOURCE_COLOR
1070
           3
1071
        0
1000
#$AUX@_TCDO_PARENT_ID
1070
           3
1071
      202
1000
#$AUX@_TCDO_GTYPE
1070
           3
1071
        1
1000
#$AUX@_TCDO_VISIBILITY
1070
           3
1071
        0
1002
}
  0
LINE
  5
8F
100
AcDbEntity
  8
図
370
         100
  6
Continuous
 62
           7
100
AcDbLine
 10
132.95
 20
58.5
 30
0.0
 11
134.45
 21
58.5
 31
0.0
1001
ACAD
1000
TCW40_DEV_WIDTH
1002
{
1040
0.039370078593
1002
}
1001
TCAD
1000
TCW_CUSTOM_DATA
1002
{
1000
#$AUX@_TCDO_SOURCE_COLOR
1070
           3
1071
        0
1000
#$AUX@_TCDO_PARENT_ID
1070
           3
1071
      202
1000
#$AUX@_TCDO_GTYPE
1070
           3
1071
        1
1000
#$AUX@_TCDO_VISIBILITY
1070
           3
1071
        0
1002
}
  0
LINE
  5
90
100
AcDbEntity
  8
図
370
         100
  6
Continuous
 62
           7
100
AcDbLine
 10
132.95
 20
84.3
 30
0.0
 11
132.95
 21
58.5
 31
0.0
1001
ACAD
1000
TCW40_DEV_WIDTH
1002
{
1040
0.039370078593
1002
}
1001
TCAD
1000
TCW_CUSTOM_DATA
1002
{
1000
#$AUX@_TCDO_SOURCE_COLOR
1070
           3
1071
        0
1000
#$AUX@_TCDO_PARENT_ID
1070
           3
1071
      202
1000
#$AUX@_TCDO_GTYPE
1070
           3
1071
        0
1000
#$AUX@_TCDO_VISIBILITY
1070
           3
1071
        0
1002
}
  0
LINE
  5
91
100
AcDbEntity
  8
図
370
         100
  6
Continuous
 62
           7
100
AcDbLine
 10
134.45
 20
84.3
 30
0.0
 11
132.95
 21
84.3
 31
0.0
1001
ACAD
1000
TCW40_DEV_WIDTH
1002
{
1040
0.039370078593
1002
}
1001
TCAD
1000
TCW_CUSTOM_DATA
1002
{
1000
#$AUX@_TCDO_SOURCE_COLOR
1070
           3
1071
        0
1000
#$AUX@_TCDO_PARENT_ID
1070
           3
1071
      202
1000
#$AUX@_TCDO_GTYPE
1070
           3
1071
        1
1000
#$AUX@_TCDO_VISIBILITY
1070
           3
1071
        0
1002
}
  0
LINE
  5
92
100
AcDbEntity
  8
図
370
         100
  6
Continuous
 62
           7
100
AcDbLine
 10
123.95
 20
84.3
 30
0.0
 11
124.15
 21
84.3
 31
0.0
1001
ACAD
1000
TCW40_DEV_WIDTH
1002
{
1040
0.039370078593
1002
}
1001
TCAD
1000
TCW_CUSTOM_DATA
1002
{
1000
#$AUX@_TCDO_SOURCE_COLOR
1070
           3
1071
        0
1000
#$AUX@_TCDO_PARENT_ID
1070
           3
1071
      202
1000
#$AUX@_TCDO_GTYPE
1070
           3
1071
        1
1000
#$AUX@_TCDO_VISIBILITY
1070
           3
1071
        0
1002
}
  0
LINE
  5
93
100
AcDbEntity
  8
図
370
         100
  6
Continuous
 62
           7
100
AcDbLine
 10
126.575581395349
 20
84.3
 30
0.0
 11
132.95
 21
84.3
 31
0.0
1001
ACAD
1000
TCW40_DEV_WIDTH
1002
{
1040
0.039370078593
1002
}
1001
TCAD
1000
TCW_CUSTOM_DATA
1002
{
1000
#$AUX@_TCDO_SOURCE_COLOR
1070
           3
1071
        0
1000
#$AUX@_TCDO_PARENT_ID
1070
           3
1071
      202
1000
#$AUX@_TCDO_GTYPE
1070
           3
1071
        1
1000
#$AUX@_TCDO_VISIBILITY
1070
           3
1071
        0
1002
}
  0
LINE
  5
94
100
AcDbEntity
  8
図
370
         100
  6
Continuous
 62
           7
100
AcDbLine
 10
119.35
 20
84.3
 30
0.0
 11
123.95
 21
84.3
 31
0.0
1001
ACAD
1000
TCW40_DEV_WIDTH
1002
{
1040
0.039370078593
1002
}
1001
TCAD
1000
TCW_CUSTOM_DATA
1002
{
1000
#$AUX@_TCDO_SOURCE_COLOR
1070
           3
1071
        0
1000
#$AUX@_TCDO_PARENT_ID
1070
           3
1071
      202
1000
#$AUX@_TCDO_GTYPE
1070
           3
1071
        1
1000
#$AUX@_TCDO_VISIBILITY
1070
           3
1071
        0
1002
}
  0
LINE
  5
95
100
AcDbEntity
  8
図
370
         100
  6
Continuous
 62
           7
100
AcDbLine
 10
110.35
 20
84.3
 30
0.0
 11
116.725384615385
 21
84.3
 31
0.0
1001
ACAD
1000
TCW40_DEV_WIDTH
1002
{
1040
0.039370078593
1002
}
1001
TCAD
1000
TCW_CUSTOM_DATA
1002
{
1000
#$AUX@_TCDO_SOURCE_COLOR
1070
           3
1071
        0
1000
#$AUX@_TCDO_PARENT_ID
1070
           3
1071
      202
1000
#$AUX@_TCDO_GTYPE
1070
           3
1071
        1
1000
#$AUX@_TCDO_VISIBILITY
1070
           3
1071
        0
1002
}
  0
LINE
  5
96
100
AcDbEntity
  8
図
370
         100
  6
Continuous
 62
           7
100
AcDbLine
 10
119.15
 20
84.3
 30
0.0
 11
119.35
 21
84.3
 31
0.0
1001
ACAD
1000
TCW40_DEV_WIDTH
1002
{
1040
0.039370078593
1002
}
1001
TCAD
1000
TCW_CUSTOM_DATA
1002
{
1000
#$AUX@_TCDO_SOURCE_COLOR
1070
           3
1071
        0
1000
#$AUX@_TCDO_PARENT_ID
1070
           3
1071
      202
1000
#$AUX@_TCDO_GTYPE
1070
           3
1071
        1
1000
#$AUX@_TCDO_VISIBILITY
1070
           3
1071
        0
1002
}
  0
LINE
  5
97
100
AcDbEntity
  8
図
370
         100
  6
Continuous
 62
           7
100
AcDbLine
 10
110.35
 20
84.3
 30
0.0
 11
108.85
 21
84.3
 31
0.0
1001
ACAD
1000
TCW40_DEV_WIDTH
1002
{
1040
0.039370078593
1002
}
1001
TCAD
1000
TCW_CUSTOM_DATA
1002
{
1000
#$AUX@_TCDO_SOURCE_COLOR
1070
           3
1071
        0
1000
#$AUX@_TCDO_PARENT_ID
1070
           3
1071
      202
1000
#$AUX@_TCDO_GTYPE
1070
           3
1071
        1
1000
#$AUX@_TCDO_VISIBILITY
1070
           3
1071
        0
1002
}
  0
ARC
  5
98
100
AcDbEntity
  8
図
370
         100
  6
Continuous
 62
           7
100
AcDbCircle
 10
133.95
 20
96.5
 30
0.0
 40
0.5
100
AcDbArc
 50
0.0
 51
90.0
1001
ACAD
1000
TCW40_DEV_WIDTH
1002
{
1040
0.039370078593
1002
}
1001
TCAD
1000
TCW_CUSTOM_DATA
1002
{
1000
#$AUX@_TCDO_SOURCE_COLOR
1070
           3
1071
        0
1000
#$AUX@_TCDO_PARENT_ID
1070
           3
1071
       99
1000
#$AUX@_TCDO_GTYPE
1070
           3
1071
        0
1000
#$AUX@_TCDO_VISIBILITY
1070
           3
1071
        0
1002
}
  0
ARC
  5
99
100
AcDbEntity
  8
図
370
         100
  6
Continuous
 62
           7
100
AcDbCircle
 10
115.55
 20
99.7
 30
0.0
 40
0.5
100
AcDbArc
 50
90.0
 51
180.0
1001
ACAD
1000
TCW40_DEV_WIDTH
1002
{
1040
0.039370078593
1002
}
1001
TCAD
1000
TCW_CUSTOM_DATA
1002
{
1000
#$AUX@_TCDO_SOURCE_COLOR
1070
           3
1071
        0
1000
#$AUX@_TCDO_PARENT_ID
1070
           3
1071
       99
1000
#$AUX@_TCDO_GTYPE
1070
           3
1071
        0
1000
#$AUX@_TCDO_VISIBILITY
1070
           3
1071
        0
1002
}
  0
LINE
  5
9A
100
AcDbEntity
  8
図
370
         100
  6
Continuous
 62
           7
100
AcDbLine
 10
124.15
 20
78.7
 30
0.0
 11
119.15
 21
78.7
 31
0.0
1001
ACAD
1000
TCW40_DEV_WIDTH
1002
{
1040
0.039370078593
1002
}
1001
TCAD
1000
TCW_CUSTOM_DATA
1002
{
1000
#$AUX@_TCDO_SOURCE_COLOR
1070
           3
1071
        0
1000
#$AUX@_TCDO_PARENT_ID
1070
           3
1071
       99
1000
#$AUX@_TCDO_GTYPE
1070
           3
1071
        1
1000
#$AUX@_TCDO_VISIBILITY
1070
           3
1071
        0
1002
}
  0
LINE
  5
9B
100
AcDbEntity
  8
図
370
         100
  6
Continuous
 62
           7
100
AcDbLine
 10
126.45
 20
76.2
 30
0.0
 11
126.488759689922
 21
78.7
 31
0.0
1001
ACAD
1000
TCW40_DEV_WIDTH
1002
{
1040
0.039370078593
1002
}
1001
TCAD
1000
TCW_CUSTOM_DATA
1002
{
1000
#$AUX@_TCDO_SOURCE_COLOR
1070
           3
1071
        0
1000
#$AUX@_TCDO_PARENT_ID
1070
           3
1071
       99
1000
#$AUX@_TCDO_GTYPE
1070
           3
1071
        1
1000
#$AUX@_TCDO_VISIBILITY
1070
           3
1071
        0
1002
}
  0
LINE
  5
9C
100
AcDbEntity
  8
図
370
         100
  6
Continuous
 62
           7
100
AcDbLine
 10
116.811538461539
 20
78.7
 30
0.0
 11
116.85
 21
76.2
 31
0.0
1001
ACAD
1000
TCW40_DEV_WIDTH
1002
{
1040
0.039370078593
1002
}
1001
TCAD
1000
TCW_CUSTOM_DATA
1002
{
1000
#$AUX@_TCDO_SOURCE_COLOR
1070
           3
1071
        0
1000
#$AUX@_TCDO_PARENT_ID
1070
           3
1071
       99
1000
#$AUX@_TCDO_GTYPE
1070
           3
1071
        1
1000
#$AUX@_TCDO_VISIBILITY
1070
           3
1071
        0
1002
}
  0
LINE
  5
9D
100
AcDbEntity
  8
図
370
         100
  6
Continuous
 62
           7
100
AcDbLine
 10
116.85
 20
76.2
 30
0.0
 11
126.45
 21
76.2
 31
0.0
1001
ACAD
1000
TCW40_DEV_WIDTH
1002
{
1040
0.039370078593
1002
}
1001
TCAD
1000
TCW_CUSTOM_DATA
1002
{
1000
#$AUX@_TCDO_SOURCE_COLOR
1070
           3
1071
        0
1000
#$AUX@_TCDO_PARENT_ID
1070
           3
1071
       99
1000
#$AUX@_TCDO_GTYPE
1070
           3
1071
        1
1000
#$AUX@_TCDO_VISIBILITY
1070
           3
1071
        0
1002
}
  0
LINE
  5
9E
100
AcDbEntity
  8
図
370
         100
  6
Continuous
 62
           7
100
AcDbLine
 10
126.628294573643
 20
87.7
 30
0.0
 11
126.488759689922
 21
78.7
 31
0.0
1001
ACAD
1000
TCW40_DEV_WIDTH
1002
{
1040
0.039370078593
1002
}
1001
TCAD
1000
TCW_CUSTOM_DATA
1002
{
1000
#$AUX@_TCDO_SOURCE_COLOR
1070
           3
1071
        0
1000
#$AUX@_TCDO_PARENT_ID
1070
           3
1071
       99
1000
#$AUX@_TCDO_GTYPE
1070
           3
1071
        1
1000
#$AUX@_TCDO_VISIBILITY
1070
           3
1071
        0
1002
}
  0
LINE
  5
9F
100
AcDbEntity
  8
図
370
         100
  6
Continuous
 62
           7
100
AcDbLine
 10
126.488759689922
 20
78.7
 30
0.0
 11
124.15
 21
78.7
 31
0.0
1001
ACAD
1000
TCW40_DEV_WIDTH
1002
{
1040
0.039370078593
1002
}
1001
TCAD
1000
TCW_CUSTOM_DATA
1002
{
1000
#$AUX@_TCDO_SOURCE_COLOR
1070
           3
1071
        0
1000
#$AUX@_TCDO_PARENT_ID
1070
           3
1071
       99
1000
#$AUX@_TCDO_GTYPE
1070
           3
1071
        0
1000
#$AUX@_TCDO_VISIBILITY
1070
           3
1071
        0
1002
}
  0
LINE
  5
A0
100
AcDbEntity
  8
図
370
         100
  6
Continuous
 62
           7
100
AcDbLine
 10
126.65
 20
89.100000000003
 30
0.0
 11
126.628294573643
 21
87.7
 31
0.0
1001
ACAD
1000
TCW40_DEV_WIDTH
1002
{
1040
0.039370078593
1002
}
1001
TCAD
1000
TCW_CUSTOM_DATA
1002
{
1000
#$AUX@_TCDO_SOURCE_COLOR
1070
           3
1071
        0
1000
#$AUX@_TCDO_PARENT_ID
1070
           3
1071
       99
1000
#$AUX@_TCDO_GTYPE
1070
           3
1071
        1
1000
#$AUX@_TCDO_VISIBILITY
1070
           3
1071
        0
1002
}
  0
LINE
  5
A1
100
AcDbEntity
  8
図
370
         100
  6
Continuous
 62
           7
100
AcDbLine
 10
124.15
 20
87.7
 30
0.0
 11
126.628294573643
 21
87.7
 31
0.0
1001
ACAD
1000
TCW40_DEV_WIDTH
1002
{
1040
0.039370078593
1002
}
1001
TCAD
1000
TCW_CUSTOM_DATA
1002
{
1000
#$AUX@_TCDO_SOURCE_COLOR
1070
           3
1071
        0
1000
#$AUX@_TCDO_PARENT_ID
1070
           3
1071
       99
1000
#$AUX@_TCDO_GTYPE
1070
           3
1071
        0
1000
#$AUX@_TCDO_VISIBILITY
1070
           3
1071
        0
1002
}
  0
LINE
  5
A2
100
AcDbEntity
  8
図
370
         100
  6
Continuous
 62
           7
100
AcDbLine
 10
126.65
 20
89.2
 30
0.0
 11
126.65
 21
89.100000000003
 31
0.0
1001
ACAD
1000
TCW40_DEV_WIDTH
1002
{
1040
0.039370078593
1002
}
1001
TCAD
1000
TCW_CUSTOM_DATA
1002
{
1000
#$AUX@_TCDO_SOURCE_COLOR
1070
           3
1071
        0
1000
#$AUX@_TCDO_PARENT_ID
1070
           3
1071
       99
1000
#$AUX@_TCDO_GTYPE
1070
           3
1071
        1
1000
#$AUX@_TCDO_VISIBILITY
1070
           3
1071
        0
1002
}
  0
LINE
  5
A3
100
AcDbEntity
  8
図
370
         100
  6
Continuous
 62
           7
100
AcDbLine
 10
124.15
 20
78.7
 30
0.0
 11
124.15
 21
87.7
 31
0.0
1001
ACAD
1000
TCW40_DEV_WIDTH
1002
{
1040
0.039370078593
1002
}
1001
TCAD
1000
TCW_CUSTOM_DATA
1002
{
1000
#$AUX@_TCDO_SOURCE_COLOR
1070
           3
1071
        0
1000
#$AUX@_TCDO_PARENT_ID
1070
           3
1071
       99
1000
#$AUX@_TCDO_GTYPE
1070
           3
1071
        1
1000
#$AUX@_TCDO_VISIBILITY
1070
           3
1071
        0
1002
}
  0
LINE
  5
A4
100
AcDbEntity
  8
図
370
         100
  6
Continuous
 62
           7
100
AcDbLine
 10
124.15
 20
87.7
 30
0.0
 11
124.15
 21
89.2
 31
0.0
1001
ACAD
1000
TCW40_DEV_WIDTH
1002
{
1040
0.039370078593
1002
}
1001
TCAD
1000
TCW_CUSTOM_DATA
1002
{
1000
#$AUX@_TCDO_SOURCE_COLOR
1070
           3
1071
        0
1000
#$AUX@_TCDO_PARENT_ID
1070
           3
1071
       99
1000
#$AUX@_TCDO_GTYPE
1070
           3
1071
        1
1000
#$AUX@_TCDO_VISIBILITY
1070
           3
1071
        0
1002
}
  0
LINE
  5
A5
100
AcDbEntity
  8
図
370
         100
  6
Continuous
 62
           7
100
AcDbLine
 10
119.15
 20
89.2
 30
0.0
 11
119.15
 21
87.7
 31
0.0
1001
ACAD
1000
TCW40_DEV_WIDTH
1002
{
1040
0.039370078593
1002
}
1001
TCAD
1000
TCW_CUSTOM_DATA
1002
{
1000
#$AUX@_TCDO_SOURCE_COLOR
1070
           3
1071
        0
1000
#$AUX@_TCDO_PARENT_ID
1070
           3
1071
       99
1000
#$AUX@_TCDO_GTYPE
1070
           3
1071
        1
1000
#$AUX@_TCDO_VISIBILITY
1070
           3
1071
        0
1002
}
  0
LINE
  5
A6
100
AcDbEntity
  8
図
370
         100
  6
Continuous
 62
           7
100
AcDbLine
 10
116.673076923077
 20
87.7
 30
0.0
 11
116.65
 21
89.2
 31
0.0
1001
ACAD
1000
TCW40_DEV_WIDTH
1002
{
1040
0.039370078593
1002
}
1001
TCAD
1000
TCW_CUSTOM_DATA
1002
{
1000
#$AUX@_TCDO_SOURCE_COLOR
1070
           3
1071
        0
1000
#$AUX@_TCDO_PARENT_ID
1070
           3
1071
       99
1000
#$AUX@_TCDO_GTYPE
1070
           3
1071
        1
1000
#$AUX@_TCDO_VISIBILITY
1070
           3
1071
        0
1002
}
  0
LINE
  5
A7
100
AcDbEntity
  8
図
370
         100
  6
Continuous
 62
           7
100
AcDbLine
 10
116.811538461539
 20
78.7
 30
0.0
 11
116.673076923077
 21
87.7
 31
0.0
1001
ACAD
1000
TCW40_DEV_WIDTH
1002
{
1040
0.039370078593
1002
}
1001
TCAD
1000
TCW_CUSTOM_DATA
1002
{
1000
#$AUX@_TCDO_SOURCE_COLOR
1070
           3
1071
        0
1000
#$AUX@_TCDO_PARENT_ID
1070
           3
1071
       99
1000
#$AUX@_TCDO_GTYPE
1070
           3
1071
        1
1000
#$AUX@_TCDO_VISIBILITY
1070
           3
1071
        0
1002
}
  0
LINE
  5
A8
100
AcDbEntity
  8
図
370
         100
  6
Continuous
 62
           7
100
AcDbLine
 10
116.673076923077
 20
87.7
 30
0.0
 11
119.15
 21
87.7
 31
0.0
1001
ACAD
1000
TCW40_DEV_WIDTH
1002
{
1040
0.039370078593
1002
}
1001
TCAD
1000
TCW_CUSTOM_DATA
1002
{
1000
#$AUX@_TCDO_SOURCE_COLOR
1070
           3
1071
        0
1000
#$AUX@_TCDO_PARENT_ID
1070
           3
1071
       99
1000
#$AUX@_TCDO_GTYPE
1070
           3
1071
        0
1000
#$AUX@_TCDO_VISIBILITY
1070
           3
1071
        0
1002
}
  0
LINE
  5
A9
100
AcDbEntity
  8
図
370
         100
  6
Continuous
 62
           7
100
AcDbLine
 10
119.15
 20
87.7
 30
0.0
 11
119.15
 21
78.7
 31
0.0
1001
ACAD
1000
TCW40_DEV_WIDTH
1002
{
1040
0.039370078593
1002
}
1001
TCAD
1000
TCW_CUSTOM_DATA
1002
{
1000
#$AUX@_TCDO_SOURCE_COLOR
1070
           3
1071
        0
1000
#$AUX@_TCDO_PARENT_ID
1070
           3
1071
       99
1000
#$AUX@_TCDO_GTYPE
1070
           3
1071
        1
1000
#$AUX@_TCDO_VISIBILITY
1070
           3
1071
        0
1002
}
  0
LINE
  5
AA
100
AcDbEntity
  8
図
370
         100
  6
Continuous
 62
           7
100
AcDbLine
 10
119.15
 20
78.7
 30
0.0
 11
116.811538461539
 21
78.7
 31
0.0
1001
ACAD
1000
TCW40_DEV_WIDTH
1002
{
1040
0.039370078593
1002
}
1001
TCAD
1000
TCW_CUSTOM_DATA
1002
{
1000
#$AUX@_TCDO_SOURCE_COLOR
1070
           3
1071
        0
1000
#$AUX@_TCDO_PARENT_ID
1070
           3
1071
       99
1000
#$AUX@_TCDO_GTYPE
1070
           3
1071
        0
1000
#$AUX@_TCDO_VISIBILITY
1070
           3
1071
        0
1002
}
  0
LINE
  5
AB
100
AcDbEntity
  8
図
370
         100
  6
Continuous
 62
           7
100
AcDbLine
 10
115.05
 20
97.0
 30
0.0
 11
110.35
 21
97.0
 31
0.0
1001
ACAD
1000
TCW40_DEV_WIDTH
1002
{
1040
0.039370078593
1002
}
1001
TCAD
1000
TCW_CUSTOM_DATA
1002
{
1000
#$AUX@_TCDO_SOURCE_COLOR
1070
           3
1071
        0
1000
#$AUX@_TCDO_PARENT_ID
1070
           3
1071
       99
1000
#$AUX@_TCDO_GTYPE
1070
           3
1071
        1
1000
#$AUX@_TCDO_VISIBILITY
1070
           3
1071
        0
1002
}
  0
LINE
  5
AC
100
AcDbEntity
  8
図
370
         100
  6
Continuous
 62
           7
100
AcDbLine
 10
109.35
 20
97.0
 30
0.0
 11
110.35
 21
97.0
 31
0.0
1001
ACAD
1000
TCW40_DEV_WIDTH
1002
{
1040
0.039370078593
1002
}
1001
TCAD
1000
TCW_CUSTOM_DATA
1002
{
1000
#$AUX@_TCDO_SOURCE_COLOR
1070
           3
1071
        0
1000
#$AUX@_TCDO_PARENT_ID
1070
           3
1071
       99
1000
#$AUX@_TCDO_GTYPE
1070
           3
1071
        1
1000
#$AUX@_TCDO_VISIBILITY
1070
           3
1071
        0
1002
}
  0
LINE
  5
AD
100
AcDbEntity
  8
図
370
         100
  6
Continuous
 62
           7
100
AcDbLine
 10
110.35
 20
97.0
 30
0.0
 11
110.35
 21
96.5
 31
0.0
1001
ACAD
1000
TCW40_DEV_WIDTH
1002
{
1040
0.039370078593
1002
}
1001
TCAD
1000
TCW_CUSTOM_DATA
1002
{
1000
#$AUX@_TCDO_SOURCE_COLOR
1070
           3
1071
        0
1000
#$AUX@_TCDO_PARENT_ID
1070
           3
1071
       99
1000
#$AUX@_TCDO_GTYPE
1070
           3
1071
        0
1000
#$AUX@_TCDO_VISIBILITY
1070
           3
1071
        0
1002
}
  0
ARC
  5
AE
100
AcDbEntity
  8
図
370
         100
  6
Continuous
 62
           7
100
AcDbCircle
 10
109.35
 20
96.5
 30
0.0
 40
0.5
100
AcDbArc
 50
90.0
 51
180.0
1001
ACAD
1000
TCW40_DEV_WIDTH
1002
{
1040
0.039370078593
1002
}
1001
TCAD
1000
TCW_CUSTOM_DATA
1002
{
1000
#$AUX@_TCDO_SOURCE_COLOR
1070
           3
1071
        0
1000
#$AUX@_TCDO_PARENT_ID
1070
           3
1071
       99
1000
#$AUX@_TCDO_GTYPE
1070
           3
1071
        1
1000
#$AUX@_TCDO_VISIBILITY
1070
           3
1071
        0
1002
}
  0
LINE
  5
AF
100
AcDbEntity
  8
図
370
         100
  6
Continuous
 62
           7
100
AcDbLine
 10
132.95
 20
97.0
 30
0.0
 11
128.25
 21
97.0
 31
0.0
1001
ACAD
1000
TCW40_DEV_WIDTH
1002
{
1040
0.039370078593
1002
}
1001
TCAD
1000
TCW_CUSTOM_DATA
1002
{
1000
#$AUX@_TCDO_SOURCE_COLOR
1070
           3
1071
        0
1000
#$AUX@_TCDO_PARENT_ID
1070
           3
1071
       99
1000
#$AUX@_TCDO_GTYPE
1070
           3
1071
        1
1000
#$AUX@_TCDO_VISIBILITY
1070
           3
1071
        0
1002
}
  0
LINE
  5
B0
100
AcDbEntity
  8
図
370
         100
  6
Continuous
 62
           7
100
AcDbLine
 10
132.95
 20
96.5
 30
0.0
 11
132.95
 21
97.0
 31
0.0
1001
ACAD
1000
TCW40_DEV_WIDTH
1002
{
1040
0.039370078593
1002
}
1001
TCAD
1000
TCW_CUSTOM_DATA
1002
{
1000
#$AUX@_TCDO_SOURCE_COLOR
1070
           3
1071
        0
1000
#$AUX@_TCDO_PARENT_ID
1070
           3
1071
       99
1000
#$AUX@_TCDO_GTYPE
1070
           3
1071
        0
1000
#$AUX@_TCDO_VISIBILITY
1070
           3
1071
        0
1002
}
  0
LINE
  5
B1
100
AcDbEntity
  8
図
370
         100
  6
Continuous
 62
           7
100
AcDbLine
 10
132.95
 20
97.0
 30
0.0
 11
133.95
 21
97.0
 31
0.0
1001
ACAD
1000
TCW40_DEV_WIDTH
1002
{
1040
0.039370078593
1002
}
1001
TCAD
1000
TCW_CUSTOM_DATA
1002
{
1000
#$AUX@_TCDO_SOURCE_COLOR
1070
           3
1071
        0
1000
#$AUX@_TCDO_PARENT_ID
1070
           3
1071
       99
1000
#$AUX@_TCDO_GTYPE
1070
           3
1071
        1
1000
#$AUX@_TCDO_VISIBILITY
1070
           3
1071
        0
1002
}
  0
ARC
  5
B2
100
AcDbEntity
  8
図
370
         100
  6
Continuous
 62
           7
100
AcDbCircle
 10
133.95
 20
96.5
 30
0.0
 40
0.5
100
AcDbArc
 50
0.0
 51
90.0
1001
ACAD
1000
TCW40_DEV_WIDTH
1002
{
1040
0.039370078593
1002
}
1001
TCAD
1000
TCW_CUSTOM_DATA
1002
{
1000
#$AUX@_TCDO_SOURCE_COLOR
1070
           3
1071
        0
1000
#$AUX@_TCDO_PARENT_ID
1070
           3
1071
       99
1000
#$AUX@_TCDO_GTYPE
1070
           3
1071
        1
1000
#$AUX@_TCDO_VISIBILITY
1070
           3
1071
        0
1002
}
  0
LINE
  5
B3
100
AcDbEntity
  8
図
370
         100
  6
Continuous
 62
           7
100
AcDbLine
 10
128.25
 20
97.2
 30
0.0
 11
128.25
 21
91.2
 31
0.0
1001
ACAD
1000
TCW40_DEV_WIDTH
1002
{
1040
0.039370078593
1002
}
1001
TCAD
1000
TCW_CUSTOM_DATA
1002
{
1000
#$AUX@_TCDO_SOURCE_COLOR
1070
           3
1071
        0
1000
#$AUX@_TCDO_PARENT_ID
1070
           3
1071
       99
1000
#$AUX@_TCDO_GTYPE
1070
           3
1071
        1
1000
#$AUX@_TCDO_VISIBILITY
1070
           3
1071
        0
1002
}
  0
LINE
  5
B4
100
AcDbEntity
  8
図
370
         100
  6
Continuous
 62
           7
100
AcDbLine
 10
116.55
 20
91.2
 30
0.0
 11
116.55
 21
96.506599664569
 31
0.0
1001
ACAD
1000
TCW40_DEV_WIDTH
1002
{
1040
0.039370078593
1002
}
1001
TCAD
1000
TCW_CUSTOM_DATA
1002
{
1000
#$AUX@_TCDO_SOURCE_COLOR
1070
           3
1071
        0
1000
#$AUX@_TCDO_PARENT_ID
1070
           3
1071
       99
1000
#$AUX@_TCDO_GTYPE
1070
           3
1071
        1
1000
#$AUX@_TCDO_VISIBILITY
1070
           3
1071
        0
1002
}
  0
LINE
  5
B5
100
AcDbEntity
  8
図
370
         100
  6
Continuous
 62
           7
100
AcDbLine
 10
126.75
 20
96.506599664569
 30
0.0
 11
126.75
 21
91.2
 31
0.0
1001
ACAD
1000
TCW40_DEV_WIDTH
1002
{
1040
0.039370078593
1002
}
1001
TCAD
1000
TCW_CUSTOM_DATA
1002
{
1000
#$AUX@_TCDO_SOURCE_COLOR
1070
           3
1071
        0
1000
#$AUX@_TCDO_PARENT_ID
1070
           3
1071
       99
1000
#$AUX@_TCDO_GTYPE
1070
           3
1071
        1
1000
#$AUX@_TCDO_VISIBILITY
1070
           3
1071
        0
1002
}
  0
LINE
  5
B6
100
AcDbEntity
  8
図
370
         100
  6
Continuous
 62
           7
100
AcDbLine
 10
116.55
 20
96.506599664569
 30
0.0
 11
126.75
 21
96.506599664569
 31
0.0
1001
ACAD
1000
TCW40_DEV_WIDTH
1002
{
1040
0.039370078593
1002
}
1001
TCAD
1000
TCW_CUSTOM_DATA
1002
{
1000
#$AUX@_TCDO_SOURCE_COLOR
1070
           3
1071
        0
1000
#$AUX@_TCDO_PARENT_ID
1070
           3
1071
       99
1000
#$AUX@_TCDO_GTYPE
1070
           3
1071
        1
1000
#$AUX@_TCDO_VISIBILITY
1070
           3
1071
        0
1002
}
  0
LINE
  5
B7
100
AcDbEntity
  8
図
370
         100
  6
Continuous
 62
           7
100
AcDbLine
 10
128.25
 20
97.2
 30
0.0
 11
128.25
 21
98.7
 31
0.0
1001
ACAD
1000
TCW40_DEV_WIDTH
1002
{
1040
0.039370078593
1002
}
1001
TCAD
1000
TCW_CUSTOM_DATA
1002
{
1000
#$AUX@_TCDO_SOURCE_COLOR
1070
           3
1071
        0
1000
#$AUX@_TCDO_PARENT_ID
1070
           3
1071
       99
1000
#$AUX@_TCDO_GTYPE
1070
           3
1071
        1
1000
#$AUX@_TCDO_VISIBILITY
1070
           3
1071
        0
1002
}
  0
LINE
  5
B8
100
AcDbEntity
  8
図
370
         100
  6
Continuous
 62
           7
100
AcDbLine
 10
115.05
 20
97.2
 30
0.0
 11
128.25
 21
97.2
 31
0.0
1001
ACAD
1000
TCW40_DEV_WIDTH
1002
{
1040
0.039370078593
1002
}
1001
TCAD
1000
TCW_CUSTOM_DATA
1002
{
1000
#$AUX@_TCDO_SOURCE_COLOR
1070
           3
1071
        0
1000
#$AUX@_TCDO_PARENT_ID
1070
           3
1071
       99
1000
#$AUX@_TCDO_GTYPE
1070
           3
1071
        0
1000
#$AUX@_TCDO_VISIBILITY
1070
           3
1071
        0
1002
}
  0
LINE
  5
B9
100
AcDbEntity
  8
図
370
         100
  6
Continuous
 62
           7
100
AcDbLine
 10
115.05
 20
98.7
 30
0.0
 11
128.25
 21
98.7
 31
0.0
1001
ACAD
1000
TCW40_DEV_WIDTH
1002
{
1040
0.039370078593
1002
}
1001
TCAD
1000
TCW_CUSTOM_DATA
1002
{
1000
#$AUX@_TCDO_SOURCE_COLOR
1070
           3
1071
        0
1000
#$AUX@_TCDO_PARENT_ID
1070
           3
1071
       99
1000
#$AUX@_TCDO_GTYPE
1070
           3
1071
        0
1000
#$AUX@_TCDO_VISIBILITY
1070
           3
1071
        0
1002
}
  0
LINE
  5
BA
100
AcDbEntity
  8
図
370
         100
  6
Continuous
 62
           7
100
AcDbLine
 10
128.25
 20
99.2
 30
0.0
 11
115.05
 21
99.2
 31
0.0
1001
ACAD
1000
TCW40_DEV_WIDTH
1002
{
1040
0.039370078593
1002
}
1001
TCAD
1000
TCW_CUSTOM_DATA
1002
{
1000
#$AUX@_TCDO_SOURCE_COLOR
1070
           3
1071
        0
1000
#$AUX@_TCDO_PARENT_ID
1070
           3
1071
       99
1000
#$AUX@_TCDO_GTYPE
1070
           3
1071
        1
1000
#$AUX@_TCDO_VISIBILITY
1070
           3
1071
        0
1002
}
  0
LINE
  5
BB
100
AcDbEntity
  8
図
370
         100
  6
Continuous
 62
           7
100
AcDbLine
 10
128.25
 20
99.2
 30
0.0
 11
128.25
 21
98.7
 31
0.0
1001
ACAD
1000
TCW40_DEV_WIDTH
1002
{
1040
0.039370078593
1002
}
1001
TCAD
1000
TCW_CUSTOM_DATA
1002
{
1000
#$AUX@_TCDO_SOURCE_COLOR
1070
           3
1071
        0
1000
#$AUX@_TCDO_PARENT_ID
1070
           3
1071
       99
1000
#$AUX@_TCDO_GTYPE
1070
           3
1071
        1
1000
#$AUX@_TCDO_VISIBILITY
1070
           3
1071
        0
1002
}
  0
LINE
  5
BC
100
AcDbEntity
  8
図
370
         100
  6
Continuous
 62
           7
100
AcDbLine
 10
115.05
 20
98.7
 30
0.0
 11
115.05
 21
99.2
 31
0.0
1001
ACAD
1000
TCW40_DEV_WIDTH
1002
{
1040
0.039370078593
1002
}
1001
TCAD
1000
TCW_CUSTOM_DATA
1002
{
1000
#$AUX@_TCDO_SOURCE_COLOR
1070
           3
1071
        0
1000
#$AUX@_TCDO_PARENT_ID
1070
           3
1071
       99
1000
#$AUX@_TCDO_GTYPE
1070
           3
1071
        1
1000
#$AUX@_TCDO_VISIBILITY
1070
           3
1071
        0
1002
}
  0
LINE
  5
BD
100
AcDbEntity
  8
図
370
         100
  6
Continuous
 62
           7
100
AcDbLine
 10
115.05
 20
97.2
 30
0.0
 11
115.05
 21
98.7
 31
0.0
1001
ACAD
1000
TCW40_DEV_WIDTH
1002
{
1040
0.039370078593
1002
}
1001
TCAD
1000
TCW_CUSTOM_DATA
1002
{
1000
#$AUX@_TCDO_SOURCE_COLOR
1070
           3
1071
        0
1000
#$AUX@_TCDO_PARENT_ID
1070
           3
1071
       99
1000
#$AUX@_TCDO_GTYPE
1070
           3
1071
        1
1000
#$AUX@_TCDO_VISIBILITY
1070
           3
1071
        0
1002
}
  0
LINE
  5
BE
100
AcDbEntity
  8
図
370
         100
  6
Continuous
 62
           7
100
AcDbLine
 10
115.05
 20
91.2
 30
0.0
 11
115.05
 21
97.2
 31
0.0
1001
ACAD
1000
TCW40_DEV_WIDTH
1002
{
1040
0.039370078593
1002
}
1001
TCAD
1000
TCW_CUSTOM_DATA
1002
{
1000
#$AUX@_TCDO_SOURCE_COLOR
1070
           3
1071
        0
1000
#$AUX@_TCDO_PARENT_ID
1070
           3
1071
       99
1000
#$AUX@_TCDO_GTYPE
1070
           3
1071
        1
1000
#$AUX@_TCDO_VISIBILITY
1070
           3
1071
        0
1002
}
  0
LINE
  5
BF
100
AcDbEntity
  8
図
370
         100
  6
Continuous
 62
           7
100
AcDbLine
 10
115.05
 20
99.2
 30
0.0
 11
115.05
 21
99.7
 31
0.0
1001
ACAD
1000
TCW40_DEV_WIDTH
1002
{
1040
0.039370078593
1002
}
1001
TCAD
1000
TCW_CUSTOM_DATA
1002
{
1000
#$AUX@_TCDO_SOURCE_COLOR
1070
           3
1071
        0
1000
#$AUX@_TCDO_PARENT_ID
1070
           3
1071
       99
1000
#$AUX@_TCDO_GTYPE
1070
           3
1071
        0
1000
#$AUX@_TCDO_VISIBILITY
1070
           3
1071
        0
1002
}
  0
LINE
  5
C0
100
AcDbEntity
  8
図
370
         100
  6
Continuous
 62
           7
100
AcDbLine
 10
115.55
 20
100.2
 30
0.0
 11
115.55
 21
99.2
 31
0.0
1001
ACAD
1000
TCW40_DEV_WIDTH
1002
{
1040
0.039370078593
1002
}
1001
TCAD
1000
TCW_CUSTOM_DATA
1002
{
1000
#$AUX@_TCDO_SOURCE_COLOR
1070
           3
1071
        0
1000
#$AUX@_TCDO_PARENT_ID
1070
           3
1071
       99
1000
#$AUX@_TCDO_GTYPE
1070
           3
1071
        1
1000
#$AUX@_TCDO_VISIBILITY
1070
           3
1071
        0
1002
}
  0
ARC
  5
C1
100
AcDbEntity
  8
図
370
         100
  6
Continuous
 62
           7
100
AcDbCircle
 10
115.55
 20
99.7
 30
0.0
 40
0.5
100
AcDbArc
 50
90.0
 51
180.0
1001
ACAD
1000
TCW40_DEV_WIDTH
1002
{
1040
0.039370078593
1002
}
1001
TCAD
1000
TCW_CUSTOM_DATA
1002
{
1000
#$AUX@_TCDO_SOURCE_COLOR
1070
           3
1071
        0
1000
#$AUX@_TCDO_PARENT_ID
1070
           3
1071
       99
1000
#$AUX@_TCDO_GTYPE
1070
           3
1071
        0
1000
#$AUX@_TCDO_VISIBILITY
1070
           3
1071
        0
1002
}
  0
LINE
  5
C2
100
AcDbEntity
  8
図
370
         100
  6
Continuous
 62
           7
100
AcDbLine
 10
127.75
 20
99.2
 30
0.0
 11
127.75
 21
100.2
 31
0.0
1001
ACAD
1000
TCW40_DEV_WIDTH
1002
{
1040
0.039370078593
1002
}
1001
TCAD
1000
TCW_CUSTOM_DATA
1002
{
1000
#$AUX@_TCDO_SOURCE_COLOR
1070
           3
1071
        0
1000
#$AUX@_TCDO_PARENT_ID
1070
           3
1071
       99
1000
#$AUX@_TCDO_GTYPE
1070
           3
1071
        0
1000
#$AUX@_TCDO_VISIBILITY
1070
           3
1071
        0
1002
}
  0
LINE
  5
C3
100
AcDbEntity
  8
図
370
         100
  6
Continuous
 62
           7
100
AcDbLine
 10
128.25
 20
99.7
 30
0.0
 11
128.25
 21
99.2
 31
0.0
1001
ACAD
1000
TCW40_DEV_WIDTH
1002
{
1040
0.039370078593
1002
}
1001
TCAD
1000
TCW_CUSTOM_DATA
1002
{
1000
#$AUX@_TCDO_SOURCE_COLOR
1070
           3
1071
        0
1000
#$AUX@_TCDO_PARENT_ID
1070
           3
1071
       99
1000
#$AUX@_TCDO_GTYPE
1070
           3
1071
        1
1000
#$AUX@_TCDO_VISIBILITY
1070
           3
1071
        0
1002
}
  0
ARC
  5
C4
100
AcDbEntity
  8
図
370
         100
  6
Continuous
 62
           7
100
AcDbCircle
 10
127.75
 20
99.7
 30
0.0
 40
0.5
100
AcDbArc
 50
0.0
 51
90.0
1001
ACAD
1000
TCW40_DEV_WIDTH
1002
{
1040
0.039370078593
1002
}
1001
TCAD
1000
TCW_CUSTOM_DATA
1002
{
1000
#$AUX@_TCDO_SOURCE_COLOR
1070
           3
1071
        0
1000
#$AUX@_TCDO_PARENT_ID
1070
           3
1071
       99
1000
#$AUX@_TCDO_GTYPE
1070
           3
1071
        1
1000
#$AUX@_TCDO_VISIBILITY
1070
           3
1071
        0
1002
}
  0
LINE
  5
C5
100
AcDbEntity
  8
図
370
         100
  6
Continuous
 62
           7
100
AcDbLine
 10
126.250000000003
 20
100.2
 30
0.0
 11
117.05
 21
100.2
 31
0.0
1001
ACAD
1000
TCW40_DEV_WIDTH
1002
{
1040
0.039370078593
1002
}
1001
TCAD
1000
TCW_CUSTOM_DATA
1002
{
1000
#$AUX@_TCDO_SOURCE_COLOR
1070
           3
1071
        0
1000
#$AUX@_TCDO_PARENT_ID
1070
           3
1071
       99
1000
#$AUX@_TCDO_GTYPE
1070
           3
1071
        1
1000
#$AUX@_TCDO_VISIBILITY
1070
           3
1071
        0
1002
}
  0
LINE
  5
C6
100
AcDbEntity
  8
図
370
         100
  6
Continuous
 62
           7
100
AcDbLine
 10
127.75
 20
100.2
 30
0.0
 11
127.250000000004
 21
100.2
 31
0.0
1001
ACAD
1000
TCW40_DEV_WIDTH
1002
{
1040
0.039370078593
1002
}
1001
TCAD
1000
TCW_CUSTOM_DATA
1002
{
1000
#$AUX@_TCDO_SOURCE_COLOR
1070
           3
1071
        0
1000
#$AUX@_TCDO_PARENT_ID
1070
           3
1071
       99
1000
#$AUX@_TCDO_GTYPE
1070
           3
1071
        1
1000
#$AUX@_TCDO_VISIBILITY
1070
           3
1071
        0
1002
}
  0
LINE
  5
C7
100
AcDbEntity
  8
図
370
         100
  6
Continuous
 62
           7
100
AcDbLine
 10
116.05
 20
100.2
 30
0.0
 11
115.55
 21
100.2
 31
0.0
1001
ACAD
1000
TCW40_DEV_WIDTH
1002
{
1040
0.039370078593
1002
}
1001
TCAD
1000
TCW_CUSTOM_DATA
1002
{
1000
#$AUX@_TCDO_SOURCE_COLOR
1070
           3
1071
        0
1000
#$AUX@_TCDO_PARENT_ID
1070
           3
1071
       99
1000
#$AUX@_TCDO_GTYPE
1070
           3
1071
        1
1000
#$AUX@_TCDO_VISIBILITY
1070
           3
1071
        0
1002
}
  0
LINE
  5
C8
100
AcDbEntity
  8
図
370
         100
  6
Continuous
 62
           7
100
AcDbLine
 10
127.250000000004
 20
100.2
 30
0.0
 11
126.250000000003
 21
100.2
 31
0.0
1001
ACAD
1000
TCW40_DEV_WIDTH
1002
{
1040
0.039370078593
1002
}
1001
TCAD
1000
TCW_CUSTOM_DATA
1002
{
1000
#$AUX@_TCDO_SOURCE_COLOR
1070
           3
1071
        0
1000
#$AUX@_TCDO_PARENT_ID
1070
           3
1071
       99
1000
#$AUX@_TCDO_GTYPE
1070
           3
1071
        1
1000
#$AUX@_TCDO_VISIBILITY
1070
           3
1071
        0
1002
}
  0
LINE
  5
C9
100
AcDbEntity
  8
図
370
         100
  6
Continuous
 62
           7
100
AcDbLine
 10
117.05
 20
100.2
 30
0.0
 11
116.05
 21
100.2
 31
0.0
1001
ACAD
1000
TCW40_DEV_WIDTH
1002
{
1040
0.039370078593
1002
}
1001
TCAD
1000
TCW_CUSTOM_DATA
1002
{
1000
#$AUX@_TCDO_SOURCE_COLOR
1070
           3
1071
        0
1000
#$AUX@_TCDO_PARENT_ID
1070
           3
1071
       99
1000
#$AUX@_TCDO_GTYPE
1070
           3
1071
        1
1000
#$AUX@_TCDO_VISIBILITY
1070
           3
1071
        0
1002
}
  0
LINE
  5
CA
100
AcDbEntity
  8
図
370
         100
  6
Continuous
 62
           7
100
AcDbLine
 10
134.45
 20
96.5
 30
0.0
 11
132.95
 21
96.5
 31
0.0
1001
ACAD
1000
TCW40_DEV_WIDTH
1002
{
1040
0.039370078593
1002
}
1001
TCAD
1000
TCW_CUSTOM_DATA
1002
{
1000
#$AUX@_TCDO_SOURCE_COLOR
1070
           3
1071
        0
1000
#$AUX@_TCDO_PARENT_ID
1070
           3
1071
       99
1000
#$AUX@_TCDO_GTYPE
1070
           3
1071
        0
1000
#$AUX@_TCDO_VISIBILITY
1070
           3
1071
        0
1002
}
  0
LINE
  5
CB
100
AcDbEntity
  8
図
370
         100
  6
Continuous
 62
           7
100
AcDbLine
 10
134.45
 20
84.5
 30
0.0
 11
134.45
 21
96.5
 31
0.0
1001
ACAD
1000
TCW40_DEV_WIDTH
1002
{
1040
0.039370078593
1002
}
1001
TCAD
1000
TCW_CUSTOM_DATA
1002
{
1000
#$AUX@_TCDO_SOURCE_COLOR
1070
           3
1071
        0
1000
#$AUX@_TCDO_PARENT_ID
1070
           3
1071
       99
1000
#$AUX@_TCDO_GTYPE
1070
           3
1071
        1
1000
#$AUX@_TCDO_VISIBILITY
1070
           3
1071
        0
1002
}
  0
LINE
  5
CC
100
AcDbEntity
  8
図
370
         100
  6
Continuous
 62
           7
100
AcDbLine
 10
116.65
 20
89.2
 30
0.0
 11
119.15
 21
89.2
 31
0.0
1001
ACAD
1000
TCW40_DEV_WIDTH
1002
{
1040
0.039370078593
1002
}
1001
TCAD
1000
TCW_CUSTOM_DATA
1002
{
1000
#$AUX@_TCDO_SOURCE_COLOR
1070
           3
1071
        0
1000
#$AUX@_TCDO_PARENT_ID
1070
           3
1071
       99
1000
#$AUX@_TCDO_GTYPE
1070
           3
1071
        0
1000
#$AUX@_TCDO_VISIBILITY
1070
           3
1071
        0
1002
}
  0
LINE
  5
CD
100
AcDbEntity
  8
図
370
         100
  6
Continuous
 62
           7
100
AcDbLine
 10
110.35
 20
96.5
 30
0.0
 11
115.05
 21
96.5
 31
0.0
1001
ACAD
1000
TCW40_DEV_WIDTH
1002
{
1040
0.039370078593
1002
}
1001
TCAD
1000
TCW_CUSTOM_DATA
1002
{
1000
#$AUX@_TCDO_SOURCE_COLOR
1070
           3
1071
        0
1000
#$AUX@_TCDO_PARENT_ID
1070
           3
1071
       99
1000
#$AUX@_TCDO_GTYPE
1070
           3
1071
        0
1000
#$AUX@_TCDO_VISIBILITY
1070
           3
1071
        0
1002
}
  0
LINE
  5
CE
100
AcDbEntity
  8
図
370
         100
  6
Continuous
 62
           7
100
AcDbLine
 10
116.55
 20
91.2
 30
0.0
 11
115.05
 21
91.2
 31
0.0
1001
ACAD
1000
TCW40_DEV_WIDTH
1002
{
1040
0.039370078593
1002
}
1001
TCAD
1000
TCW_CUSTOM_DATA
1002
{
1000
#$AUX@_TCDO_SOURCE_COLOR
1070
           3
1071
        0
1000
#$AUX@_TCDO_PARENT_ID
1070
           3
1071
       99
1000
#$AUX@_TCDO_GTYPE
1070
           3
1071
        0
1000
#$AUX@_TCDO_VISIBILITY
1070
           3
1071
        0
1002
}
  0
LINE
  5
CF
100
AcDbEntity
  8
図
370
         100
  6
Continuous
 62
           7
100
AcDbLine
 10
128.25
 20
91.2
 30
0.0
 11
126.75
 21
91.2
 31
0.0
1001
ACAD
1000
TCW40_DEV_WIDTH
1002
{
1040
0.039370078593
1002
}
1001
TCAD
1000
TCW_CUSTOM_DATA
1002
{
1000
#$AUX@_TCDO_SOURCE_COLOR
1070
           3
1071
        0
1000
#$AUX@_TCDO_PARENT_ID
1070
           3
1071
       99
1000
#$AUX@_TCDO_GTYPE
1070
           3
1071
        0
1000
#$AUX@_TCDO_VISIBILITY
1070
           3
1071
        0
1002
}
  0
LINE
  5
D0
100
AcDbEntity
  8
図
370
         100
  6
Continuous
 62
           7
100
AcDbLine
 10
128.25
 20
96.5
 30
0.0
 11
132.95
 21
96.5
 31
0.0
1001
ACAD
1000
TCW40_DEV_WIDTH
1002
{
1040
0.039370078593
1002
}
1001
TCAD
1000
TCW_CUSTOM_DATA
1002
{
1000
#$AUX@_TCDO_SOURCE_COLOR
1070
           3
1071
        0
1000
#$AUX@_TCDO_PARENT_ID
1070
           3
1071
       99
1000
#$AUX@_TCDO_GTYPE
1070
           3
1071
        0
1000
#$AUX@_TCDO_VISIBILITY
1070
           3
1071
        0
1002
}
  0
LINE
  5
D1
100
AcDbEntity
  8
図
370
         100
  6
Continuous
 62
           7
100
AcDbLine
 10
132.95
 20
96.5
 30
0.0
 11
132.95
 21
84.5
 31
0.0
1001
ACAD
1000
TCW40_DEV_WIDTH
1002
{
1040
0.039370078593
1002
}
1001
TCAD
1000
TCW_CUSTOM_DATA
1002
{
1000
#$AUX@_TCDO_SOURCE_COLOR
1070
           3
1071
        0
1000
#$AUX@_TCDO_PARENT_ID
1070
           3
1071
       99
1000
#$AUX@_TCDO_GTYPE
1070
           3
1071
        0
1000
#$AUX@_TCDO_VISIBILITY
1070
           3
1071
        0
1002
}
  0
LINE
  5
D2
100
AcDbEntity
  8
図
370
         100
  6
Continuous
 62
           7
100
AcDbLine
 10
124.15
 20
89.2
 30
0.0
 11
126.65
 21
89.2
 31
0.0
1001
ACAD
1000
TCW40_DEV_WIDTH
1002
{
1040
0.039370078593
1002
}
1001
TCAD
1000
TCW_CUSTOM_DATA
1002
{
1000
#$AUX@_TCDO_SOURCE_COLOR
1070
           3
1071
        0
1000
#$AUX@_TCDO_PARENT_ID
1070
           3
1071
       99
1000
#$AUX@_TCDO_GTYPE
1070
           3
1071
        0
1000
#$AUX@_TCDO_VISIBILITY
1070
           3
1071
        0
1002
}
  0
LINE
  5
D3
100
AcDbEntity
  8
図
370
         100
  6
Continuous
 62
           7
100
AcDbLine
 10
108.85
 20
96.5
 30
0.0
 11
108.85
 21
84.5
 31
0.0
1001
ACAD
1000
TCW40_DEV_WIDTH
1002
{
1040
0.039370078593
1002
}
1001
TCAD
1000
TCW_CUSTOM_DATA
1002
{
1000
#$AUX@_TCDO_SOURCE_COLOR
1070
           3
1071
        0
1000
#$AUX@_TCDO_PARENT_ID
1070
           3
1071
       99
1000
#$AUX@_TCDO_GTYPE
1070
           3
1071
        1
1000
#$AUX@_TCDO_VISIBILITY
1070
           3
1071
        0
1002
}
  0
LINE
  5
D4
100
AcDbEntity
  8
図
370
         100
  6
Continuous
 62
           7
100
AcDbLine
 10
110.35
 20
96.5
 30
0.0
 11
108.85
 21
96.5
 31
0.0
1001
ACAD
1000
TCW40_DEV_WIDTH
1002
{
1040
0.039370078593
1002
}
1001
TCAD
1000
TCW_CUSTOM_DATA
1002
{
1000
#$AUX@_TCDO_SOURCE_COLOR
1070
           3
1071
        0
1000
#$AUX@_TCDO_PARENT_ID
1070
           3
1071
       99
1000
#$AUX@_TCDO_GTYPE
1070
           3
1071
        0
1000
#$AUX@_TCDO_VISIBILITY
1070
           3
1071
        0
1002
}
  0
LINE
  5
D5
100
AcDbEntity
  8
図
370
         100
  6
Continuous
 62
           7
100
AcDbLine
 10
110.35
 20
84.5
 30
0.0
 11
110.35
 21
96.5
 31
0.0
1001
ACAD
1000
TCW40_DEV_WIDTH
1002
{
1040
0.039370078593
1002
}
1001
TCAD
1000
TCW_CUSTOM_DATA
1002
{
1000
#$AUX@_TCDO_SOURCE_COLOR
1070
           3
1071
        0
1000
#$AUX@_TCDO_PARENT_ID
1070
           3
1071
       99
1000
#$AUX@_TCDO_GTYPE
1070
           3
1071
        0
1000
#$AUX@_TCDO_VISIBILITY
1070
           3
1071
        0
1002
}
  0
LINE
  5
D6
100
AcDbEntity
  8
図
370
         100
  6
Continuous
 62
           7
100
AcDbLine
 10
108.85
 20
84.5
 30
0.0
 11
110.35
 21
84.5
 31
0.0
1001
ACAD
1000
TCW40_DEV_WIDTH
1002
{
1040
0.039370078593
1002
}
1001
TCAD
1000
TCW_CUSTOM_DATA
1002
{
1000
#$AUX@_TCDO_SOURCE_COLOR
1070
           3
1071
        0
1000
#$AUX@_TCDO_PARENT_ID
1070
           3
1071
       99
1000
#$AUX@_TCDO_GTYPE
1070
           3
1071
        1
1000
#$AUX@_TCDO_VISIBILITY
1070
           3
1071
        0
1002
}
  0
LINE
  5
D7
100
AcDbEntity
  8
図
370
         100
  6
Continuous
 62
           7
100
AcDbLine
 10
116.722307692308
 20
84.5
 30
0.0
 11
110.35
 21
84.5
 31
0.0
1001
ACAD
1000
TCW40_DEV_WIDTH
1002
{
1040
0.039370078593
1002
}
1001
TCAD
1000
TCW_CUSTOM_DATA
1002
{
1000
#$AUX@_TCDO_SOURCE_COLOR
1070
           3
1071
        0
1000
#$AUX@_TCDO_PARENT_ID
1070
           3
1071
       99
1000
#$AUX@_TCDO_GTYPE
1070
           3
1071
        1
1000
#$AUX@_TCDO_VISIBILITY
1070
           3
1071
        0
1002
}
  0
LINE
  5
D8
100
AcDbEntity
  8
図
370
         100
  6
Continuous
 62
           7
100
AcDbLine
 10
124.15
 20
84.5
 30
0.0
 11
119.15
 21
84.5
 31
0.0
1001
ACAD
1000
TCW40_DEV_WIDTH
1002
{
1040
0.039370078593
1002
}
1001
TCAD
1000
TCW_CUSTOM_DATA
1002
{
1000
#$AUX@_TCDO_SOURCE_COLOR
1070
           3
1071
        0
1000
#$AUX@_TCDO_PARENT_ID
1070
           3
1071
       99
1000
#$AUX@_TCDO_GTYPE
1070
           3
1071
        1
1000
#$AUX@_TCDO_VISIBILITY
1070
           3
1071
        0
1002
}
  0
LINE
  5
D9
100
AcDbEntity
  8
図
370
         100
  6
Continuous
 62
           7
100
AcDbLine
 10
132.95
 20
84.5
 30
0.0
 11
126.578682170543
 21
84.5
 31
0.0
1001
ACAD
1000
TCW40_DEV_WIDTH
1002
{
1040
0.039370078593
1002
}
1001
TCAD
1000
TCW_CUSTOM_DATA
1002
{
1000
#$AUX@_TCDO_SOURCE_COLOR
1070
           3
1071
        0
1000
#$AUX@_TCDO_PARENT_ID
1070
           3
1071
       99
1000
#$AUX@_TCDO_GTYPE
1070
           3
1071
        1
1000
#$AUX@_TCDO_VISIBILITY
1070
           3
1071
        0
1002
}
  0
LINE
  5
DA
100
AcDbEntity
  8
図
370
         100
  6
Continuous
 62
           7
100
AcDbLine
 10
132.95
 20
84.5
 30
0.0
 11
134.45
 21
84.5
 31
0.0
1001
ACAD
1000
TCW40_DEV_WIDTH
1002
{
1040
0.039370078593
1002
}
1001
TCAD
1000
TCW_CUSTOM_DATA
1002
{
1000
#$AUX@_TCDO_SOURCE_COLOR
1070
           3
1071
        0
1000
#$AUX@_TCDO_PARENT_ID
1070
           3
1071
       99
1000
#$AUX@_TCDO_GTYPE
1070
           3
1071
        1
1000
#$AUX@_TCDO_VISIBILITY
1070
           3
1071
        0
1002
}
  0
LINE
  5
DB
100
AcDbEntity
  8
図
370
         100
  6
Continuous
 62
           7
100
AcDbLine
 10
179.15
 20
55.7
 30
0.0
 11
179.15
 21
61.6
 31
0.0
1001
ACAD
1000
TCW40_DEV_WIDTH
1002
{
1040
0.039370078593
1002
}
1001
TCAD
1000
TCW_CUSTOM_DATA
1002
{
1000
#$AUX@_TCDO_SOURCE_COLOR
1070
           3
1071
        0
1000
#$AUX@_TCDO_PARENT_ID
1070
           3
1071
      307
1000
#$AUX@_TCDO_GTYPE
1070
           3
1071
        1
1000
#$AUX@_TCDO_VISIBILITY
1070
           3
1071
        0
1002
}
  0
ARC
  5
DC
100
AcDbEntity
  8
図
370
         100
  6
Continuous
 62
           7
100
AcDbCircle
 10
180.15
 20
61.6
 30
0.0
 40
1.0
100
AcDbArc
 50
90.0
 51
180.0
1001
ACAD
1000
TCW40_DEV_WIDTH
1002
{
1040
0.039370078593
1002
}
1001
TCAD
1000
TCW_CUSTOM_DATA
1002
{
1000
#$AUX@_TCDO_SOURCE_COLOR
1070
           3
1071
        0
1000
#$AUX@_TCDO_PARENT_ID
1070
           3
1071
      307
1000
#$AUX@_TCDO_GTYPE
1070
           3
1071
        1
1000
#$AUX@_TCDO_VISIBILITY
1070
           3
1071
        0
1002
}
  0
LINE
  5
DD
100
AcDbEntity
  8
図
370
         100
  6
Continuous
 62
           7
100
AcDbLine
 10
180.15
 20
62.6
 30
0.0
 11
188.15
 21
62.6
 31
0.0
1001
ACAD
1000
TCW40_DEV_WIDTH
1002
{
1040
0.039370078593
1002
}
1001
TCAD
1000
TCW_CUSTOM_DATA
1002
{
1000
#$AUX@_TCDO_SOURCE_COLOR
1070
           3
1071
        0
1000
#$AUX@_TCDO_PARENT_ID
1070
           3
1071
      307
1000
#$AUX@_TCDO_GTYPE
1070
           3
1071
        1
1000
#$AUX@_TCDO_VISIBILITY
1070
           3
1071
        0
1002
}
  0
ARC
  5
DE
100
AcDbEntity
  8
図
370
         100
  6
Continuous
 62
           7
100
AcDbCircle
 10
188.15
 20
61.6
 30
0.0
 40
1.0
100
AcDbArc
 50
0.0
 51
90.0
1001
ACAD
1000
TCW40_DEV_WIDTH
1002
{
1040
0.039370078593
1002
}
1001
TCAD
1000
TCW_CUSTOM_DATA
1002
{
1000
#$AUX@_TCDO_SOURCE_COLOR
1070
           3
1071
        0
1000
#$AUX@_TCDO_PARENT_ID
1070
           3
1071
      307
1000
#$AUX@_TCDO_GTYPE
1070
           3
1071
        1
1000
#$AUX@_TCDO_VISIBILITY
1070
           3
1071
        0
1002
}
  0
LINE
  5
DF
100
AcDbEntity
  8
図
370
         100
  6
Continuous
 62
           7
100
AcDbLine
 10
187.15
 20
60.6
 30
0.0
 11
187.15
 21
55.7
 31
0.0
1001
ACAD
1000
TCW40_DEV_WIDTH
1002
{
1040
0.039370078593
1002
}
1001
TCAD
1000
TCW_CUSTOM_DATA
1002
{
1000
#$AUX@_TCDO_SOURCE_COLOR
1070
           3
1071
        0
1000
#$AUX@_TCDO_PARENT_ID
1070
           3
1071
      307
1000
#$AUX@_TCDO_GTYPE
1070
           3
1071
        1
1000
#$AUX@_TCDO_VISIBILITY
1070
           3
1071
        0
1002
}
  0
LINE
  5
E0
100
AcDbEntity
  8
図
370
         100
  6
Continuous
 62
           7
100
AcDbLine
 10
181.15
 20
60.6
 30
0.0
 11
187.15
 21
60.6
 31
0.0
1001
ACAD
1000
TCW40_DEV_WIDTH
1002
{
1040
0.039370078593
1002
}
1001
TCAD
1000
TCW_CUSTOM_DATA
1002
{
1000
#$AUX@_TCDO_SOURCE_COLOR
1070
           3
1071
        0
1000
#$AUX@_TCDO_PARENT_ID
1070
           3
1071
      307
1000
#$AUX@_TCDO_GTYPE
1070
           3
1071
        1
1000
#$AUX@_TCDO_VISIBILITY
1070
           3
1071
        0
1002
}
  0
LINE
  5
E1
100
AcDbEntity
  8
図
370
         100
  6
Continuous
 62
           7
100
AcDbLine
 10
189.15
 20
61.6
 30
0.0
 11
189.15
 21
55.7
 31
0.0
1001
ACAD
1000
TCW40_DEV_WIDTH
1002
{
1040
0.039370078593
1002
}
1001
TCAD
1000
TCW_CUSTOM_DATA
1002
{
1000
#$AUX@_TCDO_SOURCE_COLOR
1070
           3
1071
        0
1000
#$AUX@_TCDO_PARENT_ID
1070
           3
1071
      307
1000
#$AUX@_TCDO_GTYPE
1070
           3
1071
        1
1000
#$AUX@_TCDO_VISIBILITY
1070
           3
1071
        0
1002
}
  0
LINE
  5
E2
100
AcDbEntity
  8
図
370
         100
  6
Continuous
 62
           7
100
AcDbLine
 10
181.15
 20
55.7
 30
0.0
 11
181.15
 21
60.6
 31
0.0
1001
ACAD
1000
TCW40_DEV_WIDTH
1002
{
1040
0.039370078593
1002
}
1001
TCAD
1000
TCW_CUSTOM_DATA
1002
{
1000
#$AUX@_TCDO_SOURCE_COLOR
1070
           3
1071
        0
1000
#$AUX@_TCDO_PARENT_ID
1070
           3
1071
      307
1000
#$AUX@_TCDO_GTYPE
1070
           3
1071
        1
1000
#$AUX@_TCDO_VISIBILITY
1070
           3
1071
        0
1002
}
  0
LINE
  5
E3
100
AcDbEntity
  8
図
370
         100
  6
Continuous
 62
           7
100
AcDbLine
 10
189.15
 20
55.2
 30
0.0
 11
187.15
 21
55.2
 31
0.0
1001
ACAD
1000
TCW40_DEV_WIDTH
1002
{
1040
0.039370078593
1002
}
1001
TCAD
1000
TCW_CUSTOM_DATA
1002
{
1000
#$AUX@_TCDO_SOURCE_COLOR
1070
           3
1071
        0
1000
#$AUX@_TCDO_PARENT_ID
1070
           3
1071
      307
1000
#$AUX@_TCDO_GTYPE
1070
           3
1071
        1
1000
#$AUX@_TCDO_VISIBILITY
1070
           3
1071
        0
1002
}
  0
LINE
  5
E4
100
AcDbEntity
  8
図
370
         100
  6
Continuous
 62
           7
100
AcDbLine
 10
187.15
 20
55.7
 30
0.0
 11
187.15
 21
55.2
 31
0.0
1001
ACAD
1000
TCW40_DEV_WIDTH
1002
{
1040
0.039370078593
1002
}
1001
TCAD
1000
TCW_CUSTOM_DATA
1002
{
1000
#$AUX@_TCDO_SOURCE_COLOR
1070
           3
1071
        0
1000
#$AUX@_TCDO_PARENT_ID
1070
           3
1071
      307
1000
#$AUX@_TCDO_GTYPE
1070
           3
1071
        1
1000
#$AUX@_TCDO_VISIBILITY
1070
           3
1071
        0
1002
}
  0
LINE
  5
E5
100
AcDbEntity
  8
図
370
         100
  6
Continuous
 62
           7
100
AcDbLine
 10
187.15
 20
55.7
 30
0.0
 11
189.15
 21
55.7
 31
0.0
1001
ACAD
1000
TCW40_DEV_WIDTH
1002
{
1040
0.039370078593
1002
}
1001
TCAD
1000
TCW_CUSTOM_DATA
1002
{
1000
#$AUX@_TCDO_SOURCE_COLOR
1070
           3
1071
        0
1000
#$AUX@_TCDO_PARENT_ID
1070
           3
1071
      307
1000
#$AUX@_TCDO_GTYPE
1070
           3
1071
        0
1000
#$AUX@_TCDO_VISIBILITY
1070
           3
1071
        0
1002
}
  0
LINE
  5
E6
100
AcDbEntity
  8
図
370
         100
  6
Continuous
 62
           7
100
AcDbLine
 10
189.15
 20
55.2
 30
0.0
 11
189.15
 21
55.7
 31
0.0
1001
ACAD
1000
TCW40_DEV_WIDTH
1002
{
1040
0.039370078593
1002
}
1001
TCAD
1000
TCW_CUSTOM_DATA
1002
{
1000
#$AUX@_TCDO_SOURCE_COLOR
1070
           3
1071
        0
1000
#$AUX@_TCDO_PARENT_ID
1070
           3
1071
      307
1000
#$AUX@_TCDO_GTYPE
1070
           3
1071
        1
1000
#$AUX@_TCDO_VISIBILITY
1070
           3
1071
        0
1002
}
  0
LINE
  5
E7
100
AcDbEntity
  8
図
370
         100
  6
Continuous
 62
           7
100
AcDbLine
 10
179.15
 20
55.7
 30
0.0
 11
181.15
 21
55.7
 31
0.0
1001
ACAD
1000
TCW40_DEV_WIDTH
1002
{
1040
0.039370078593
1002
}
1001
TCAD
1000
TCW_CUSTOM_DATA
1002
{
1000
#$AUX@_TCDO_SOURCE_COLOR
1070
           3
1071
        0
1000
#$AUX@_TCDO_PARENT_ID
1070
           3
1071
      307
1000
#$AUX@_TCDO_GTYPE
1070
           3
1071
        0
1000
#$AUX@_TCDO_VISIBILITY
1070
           3
1071
        0
1002
}
  0
LINE
  5
E8
100
AcDbEntity
  8
図
370
         100
  6
Continuous
 62
           7
100
AcDbLine
 10
181.15
 20
55.2
 30
0.0
 11
181.15
 21
55.7
 31
0.0
1001
ACAD
1000
TCW40_DEV_WIDTH
1002
{
1040
0.039370078593
1002
}
1001
TCAD
1000
TCW_CUSTOM_DATA
1002
{
1000
#$AUX@_TCDO_SOURCE_COLOR
1070
           3
1071
        0
1000
#$AUX@_TCDO_PARENT_ID
1070
           3
1071
      307
1000
#$AUX@_TCDO_GTYPE
1070
           3
1071
        1
1000
#$AUX@_TCDO_VISIBILITY
1070
           3
1071
        0
1002
}
  0
LINE
  5
E9
100
AcDbEntity
  8
図
370
         100
  6
Continuous
 62
           7
100
AcDbLine
 10
181.15
 20
55.2
 30
0.0
 11
179.15
 21
55.2
 31
0.0
1001
ACAD
1000
TCW40_DEV_WIDTH
1002
{
1040
0.039370078593
1002
}
1001
TCAD
1000
TCW_CUSTOM_DATA
1002
{
1000
#$AUX@_TCDO_SOURCE_COLOR
1070
           3
1071
        0
1000
#$AUX@_TCDO_PARENT_ID
1070
           3
1071
      307
1000
#$AUX@_TCDO_GTYPE
1070
           3
1071
        1
1000
#$AUX@_TCDO_VISIBILITY
1070
           3
1071
        0
1002
}
  0
LINE
  5
EA
100
AcDbEntity
  8
図
370
         100
  6
Continuous
 62
           7
100
AcDbLine
 10
179.15
 20
55.7
 30
0.0
 11
179.15
 21
55.2
 31
0.0
1001
ACAD
1000
TCW40_DEV_WIDTH
1002
{
1040
0.039370078593
1002
}
1001
TCAD
1000
TCW_CUSTOM_DATA
1002
{
1000
#$AUX@_TCDO_SOURCE_COLOR
1070
           3
1071
        0
1000
#$AUX@_TCDO_PARENT_ID
1070
           3
1071
      307
1000
#$AUX@_TCDO_GTYPE
1070
           3
1071
        1
1000
#$AUX@_TCDO_VISIBILITY
1070
           3
1071
        0
1002
}
  0
LINE
  5
EB
100
AcDbEntity
  8
図
370
         100
  6
Continuous
 62
           7
100
AcDbLine
 10
194.15
 20
53.9
 30
0.0
 11
174.15
 21
53.9
 31
0.0
1001
ACAD
1000
TCW40_DEV_WIDTH
1002
{
1040
0.039370078593
1002
}
1001
TCAD
1000
TCW_CUSTOM_DATA
1002
{
1000
#$AUX@_TCDO_SOURCE_COLOR
1070
           3
1071
        0
1000
#$AUX@_TCDO_PARENT_ID
1070
           3
1071
      307
1000
#$AUX@_TCDO_GTYPE
1070
           3
1071
        0
1000
#$AUX@_TCDO_VISIBILITY
1070
           3
1071
        0
1002
}
  0
LINE
  5
EC
100
AcDbEntity
  8
図
370
         100
  6
Continuous
 62
           7
100
AcDbLine
 10
174.15
 20
52.4
 30
0.0
 11
194.15
 21
52.4
 31
0.0
1001
ACAD
1000
TCW40_DEV_WIDTH
1002
{
1040
0.039370078593
1002
}
1001
TCAD
1000
TCW_CUSTOM_DATA
1002
{
1000
#$AUX@_TCDO_SOURCE_COLOR
1070
           3
1071
        0
1000
#$AUX@_TCDO_PARENT_ID
1070
           3
1071
      307
1000
#$AUX@_TCDO_GTYPE
1070
           3
1071
        1
1000
#$AUX@_TCDO_VISIBILITY
1070
           3
1071
        0
1002
}
  0
LINE
  5
ED
100
AcDbEntity
  8
図
370
         100
  6
Continuous
 62
           7
100
AcDbLine
 10
174.15
 20
53.9
 30
0.0
 11
174.15
 21
58.3
 31
0.0
1001
ACAD
1000
TCW40_DEV_WIDTH
1002
{
1040
0.039370078593
1002
}
1001
TCAD
1000
TCW_CUSTOM_DATA
1002
{
1000
#$AUX@_TCDO_SOURCE_COLOR
1070
           3
1071
        0
1000
#$AUX@_TCDO_PARENT_ID
1070
           3
1071
      307
1000
#$AUX@_TCDO_GTYPE
1070
           3
1071
        0
1000
#$AUX@_TCDO_VISIBILITY
1070
           3
1071
        0
1002
}
  0
LINE
  5
EE
100
AcDbEntity
  8
図
370
         100
  6
Continuous
 62
           7
100
AcDbLine
 10
172.65
 20
58.3
 30
0.0
 11
172.65
 21
53.9
 31
0.0
1001
ACAD
1000
TCW40_DEV_WIDTH
1002
{
1040
0.039370078593
1002
}
1001
TCAD
1000
TCW_CUSTOM_DATA
1002
{
1000
#$AUX@_TCDO_SOURCE_COLOR
1070
           3
1071
        0
1000
#$AUX@_TCDO_PARENT_ID
1070
           3
1071
      307
1000
#$AUX@_TCDO_GTYPE
1070
           3
1071
        1
1000
#$AUX@_TCDO_VISIBILITY
1070
           3
1071
        0
1002
}
  0
LINE
  5
EF
100
AcDbEntity
  8
図
370
         100
  6
Continuous
 62
           7
100
AcDbLine
 10
174.15
 20
53.9
 30
0.0
 11
174.15
 21
52.4
 31
0.0
1001
ACAD
1000
TCW40_DEV_WIDTH
1002
{
1040
0.039370078593
1002
}
1001
TCAD
1000
TCW_CUSTOM_DATA
1002
{
1000
#$AUX@_TCDO_SOURCE_COLOR
1070
           3
1071
        0
1000
#$AUX@_TCDO_PARENT_ID
1070
           3
1071
      307
1000
#$AUX@_TCDO_GTYPE
1070
           3
1071
        0
1000
#$AUX@_TCDO_VISIBILITY
1070
           3
1071
        0
1002
}
  0
ARC
  5
F0
100
AcDbEntity
  8
図
370
         100
  6
Continuous
 62
           7
100
AcDbCircle
 10
174.15
 20
53.9
 30
0.0
 40
1.5
100
AcDbArc
 50
180.0
 51
270.0
1001
ACAD
1000
TCW40_DEV_WIDTH
1002
{
1040
0.039370078593
1002
}
1001
TCAD
1000
TCW_CUSTOM_DATA
1002
{
1000
#$AUX@_TCDO_SOURCE_COLOR
1070
           3
1071
        0
1000
#$AUX@_TCDO_PARENT_ID
1070
           3
1071
      307
1000
#$AUX@_TCDO_GTYPE
1070
           3
1071
        1
1000
#$AUX@_TCDO_VISIBILITY
1070
           3
1071
        0
1002
}
  0
LINE
  5
F1
100
AcDbEntity
  8
図
370
         100
  6
Continuous
 62
           7
100
AcDbLine
 10
172.65
 20
53.9
 30
0.0
 11
174.15
 21
53.9
 31
0.0
1001
ACAD
1000
TCW40_DEV_WIDTH
1002
{
1040
0.039370078593
1002
}
1001
TCAD
1000
TCW_CUSTOM_DATA
1002
{
1000
#$AUX@_TCDO_SOURCE_COLOR
1070
           3
1071
        0
1000
#$AUX@_TCDO_PARENT_ID
1070
           3
1071
      307
1000
#$AUX@_TCDO_GTYPE
1070
           3
1071
        0
1000
#$AUX@_TCDO_VISIBILITY
1070
           3
1071
        0
1002
}
  0
ARC
  5
F2
100
AcDbEntity
  8
図
370
         100
  6
Continuous
 62
           7
100
AcDbCircle
 10
194.15
 20
53.9
 30
0.0
 40
1.5
100
AcDbArc
 50
-90.0
 51
0.0
1001
ACAD
1000
TCW40_DEV_WIDTH
1002
{
1040
0.039370078593
1002
}
1001
TCAD
1000
TCW_CUSTOM_DATA
1002
{
1000
#$AUX@_TCDO_SOURCE_COLOR
1070
           3
1071
        0
1000
#$AUX@_TCDO_PARENT_ID
1070
           3
1071
      307
1000
#$AUX@_TCDO_GTYPE
1070
           3
1071
        1
1000
#$AUX@_TCDO_VISIBILITY
1070
           3
1071
        0
1002
}
  0
LINE
  5
F3
100
AcDbEntity
  8
図
370
         100
  6
Continuous
 62
           7
100
AcDbLine
 10
194.15
 20
52.4
 30
0.0
 11
194.15
 21
53.9
 31
0.0
1001
ACAD
1000
TCW40_DEV_WIDTH
1002
{
1040
0.039370078593
1002
}
1001
TCAD
1000
TCW_CUSTOM_DATA
1002
{
1000
#$AUX@_TCDO_SOURCE_COLOR
1070
           3
1071
        0
1000
#$AUX@_TCDO_PARENT_ID
1070
           3
1071
      307
1000
#$AUX@_TCDO_GTYPE
1070
           3
1071
        0
1000
#$AUX@_TCDO_VISIBILITY
1070
           3
1071
        0
1002
}
  0
LINE
  5
F4
100
AcDbEntity
  8
図
370
         100
  6
Continuous
 62
           7
100
AcDbLine
 10
195.65
 20
53.9
 30
0.0
 11
195.65
 21
58.3
 31
0.0
1001
ACAD
1000
TCW40_DEV_WIDTH
1002
{
1040
0.039370078593
1002
}
1001
TCAD
1000
TCW_CUSTOM_DATA
1002
{
1000
#$AUX@_TCDO_SOURCE_COLOR
1070
           3
1071
        0
1000
#$AUX@_TCDO_PARENT_ID
1070
           3
1071
      307
1000
#$AUX@_TCDO_GTYPE
1070
           3
1071
        1
1000
#$AUX@_TCDO_VISIBILITY
1070
           3
1071
        0
1002
}
  0
LINE
  5
F5
100
AcDbEntity
  8
図
370
         100
  6
Continuous
 62
           7
100
AcDbLine
 10
194.15
 20
53.9
 30
0.0
 11
195.65
 21
53.9
 31
0.0
1001
ACAD
1000
TCW40_DEV_WIDTH
1002
{
1040
0.039370078593
1002
}
1001
TCAD
1000
TCW_CUSTOM_DATA
1002
{
1000
#$AUX@_TCDO_SOURCE_COLOR
1070
           3
1071
        0
1000
#$AUX@_TCDO_PARENT_ID
1070
           3
1071
      307
1000
#$AUX@_TCDO_GTYPE
1070
           3
1071
        0
1000
#$AUX@_TCDO_VISIBILITY
1070
           3
1071
        0
1002
}
  0
LINE
  5
F6
100
AcDbEntity
  8
図
370
         100
  6
Continuous
 62
           7
100
AcDbLine
 10
194.15
 20
58.3
 30
0.0
 11
194.15
 21
53.9
 31
0.0
1001
ACAD
1000
TCW40_DEV_WIDTH
1002
{
1040
0.039370078593
1002
}
1001
TCAD
1000
TCW_CUSTOM_DATA
1002
{
1000
#$AUX@_TCDO_SOURCE_COLOR
1070
           3
1071
        0
1000
#$AUX@_TCDO_PARENT_ID
1070
           3
1071
      307
1000
#$AUX@_TCDO_GTYPE
1070
           3
1071
        0
1000
#$AUX@_TCDO_VISIBILITY
1070
           3
1071
        0
1002
}
  0
LINE
  5
F7
100
AcDbEntity
  8
図
370
         100
  6
Continuous
 62
           7
100
AcDbLine
 10
189.15
 20
58.3
 30
0.0
 11
194.15
 21
58.3
 31
0.0
1001
ACAD
1000
TCW40_DEV_WIDTH
1002
{
1040
0.039370078593
1002
}
1001
TCAD
1000
TCW_CUSTOM_DATA
1002
{
1000
#$AUX@_TCDO_SOURCE_COLOR
1070
           3
1071
        0
1000
#$AUX@_TCDO_PARENT_ID
1070
           3
1071
      307
1000
#$AUX@_TCDO_GTYPE
1070
           3
1071
        1
1000
#$AUX@_TCDO_VISIBILITY
1070
           3
1071
        0
1002
}
  0
LINE
  5
F8
100
AcDbEntity
  8
図
370
         100
  6
Continuous
 62
           7
100
AcDbLine
 10
181.15
 20
58.3
 30
0.0
 11
187.15
 21
58.3
 31
0.0
1001
ACAD
1000
TCW40_DEV_WIDTH
1002
{
1040
0.039370078593
1002
}
1001
TCAD
1000
TCW_CUSTOM_DATA
1002
{
1000
#$AUX@_TCDO_SOURCE_COLOR
1070
           3
1071
        0
1000
#$AUX@_TCDO_PARENT_ID
1070
           3
1071
      307
1000
#$AUX@_TCDO_GTYPE
1070
           3
1071
        1
1000
#$AUX@_TCDO_VISIBILITY
1070
           3
1071
        0
1002
}
  0
LINE
  5
F9
100
AcDbEntity
  8
図
370
         100
  6
Continuous
 62
           7
100
AcDbLine
 10
174.15
 20
58.3
 30
0.0
 11
179.15
 21
58.3
 31
0.0
1001
ACAD
1000
TCW40_DEV_WIDTH
1002
{
1040
0.039370078593
1002
}
1001
TCAD
1000
TCW_CUSTOM_DATA
1002
{
1000
#$AUX@_TCDO_SOURCE_COLOR
1070
           3
1071
        0
1000
#$AUX@_TCDO_PARENT_ID
1070
           3
1071
      307
1000
#$AUX@_TCDO_GTYPE
1070
           3
1071
        1
1000
#$AUX@_TCDO_VISIBILITY
1070
           3
1071
        0
1002
}
  0
LINE
  5
FA
100
AcDbEntity
  8
図
370
         100
  6
Continuous
 62
           7
100
AcDbLine
 10
174.15
 20
58.3
 30
0.0
 11
172.65
 21
58.3
 31
0.0
1001
ACAD
1000
TCW40_DEV_WIDTH
1002
{
1040
0.039370078593
1002
}
1001
TCAD
1000
TCW_CUSTOM_DATA
1002
{
1000
#$AUX@_TCDO_SOURCE_COLOR
1070
           3
1071
        0
1000
#$AUX@_TCDO_PARENT_ID
1070
           3
1071
      307
1000
#$AUX@_TCDO_GTYPE
1070
           3
1071
        1
1000
#$AUX@_TCDO_VISIBILITY
1070
           3
1071
        0
1002
}
  0
LINE
  5
FB
100
AcDbEntity
  8
図
370
         100
  6
Continuous
 62
           7
100
AcDbLine
 10
195.65
 20
58.3
 30
0.0
 11
194.15
 21
58.3
 31
0.0
1001
ACAD
1000
TCW40_DEV_WIDTH
1002
{
1040
0.039370078593
1002
}
1001
TCAD
1000
TCW_CUSTOM_DATA
1002
{
1000
#$AUX@_TCDO_SOURCE_COLOR
1070
           3
1071
        0
1000
#$AUX@_TCDO_PARENT_ID
1070
           3
1071
      307
1000
#$AUX@_TCDO_GTYPE
1070
           3
1071
        1
1000
#$AUX@_TCDO_VISIBILITY
1070
           3
1071
        0
1002
}
  0
LINE
  5
FC
100
AcDbEntity
  8
図
370
         100
  6
Continuous
 62
           7
100
AcDbLine
 10
177.494755077867
 20
84.5
 30
0.0
 11
177.533434604565
 21
84.3
 31
0.0
1001
ACAD
1000
TCW40_DEV_WIDTH
1002
{
1040
0.039370078593
1002
}
1001
TCAD
1000
TCW_CUSTOM_DATA
1002
{
1000
#$AUX@_TCDO_SOURCE_COLOR
1070
           3
1071
        0
1000
#$AUX@_TCDO_PARENT_ID
1070
           3
1071
      211
1000
#$AUX@_TCDO_GTYPE
1070
           3
1071
        1
1000
#$AUX@_TCDO_VISIBILITY
1070
           3
1071
        0
1002
}
  0
LINE
  5
FD
100
AcDbEntity
  8
図
370
         100
  6
Continuous
 62
           7
100
AcDbLine
 10
183.960120762028
 20
85.863277804727
 30
0.0
 11
179.249999999997
 21
84.952351595903
 31
0.0
1001
ACAD
1000
TCW40_DEV_WIDTH
1002
{
1040
0.039370078593
1002
}
1001
TCAD
1000
TCW_CUSTOM_DATA
1002
{
1000
#$AUX@_TCDO_SOURCE_COLOR
1070
           3
1071
        0
1000
#$AUX@_TCDO_PARENT_ID
1070
           3
1071
      211
1000
#$AUX@_TCDO_GTYPE
1070
           3
1071
        1
1000
#$AUX@_TCDO_VISIBILITY
1070
           3
1071
        0
1002
}
  0
LINE
  5
FE
100
AcDbEntity
  8
図
370
         100
  6
Continuous
 62
           7
100
AcDbLine
 10
179.036792598604
 20
84.3
 30
0.0
 11
183.960120762028
 21
85.252160015696
 31
0.0
1001
ACAD
1000
TCW40_DEV_WIDTH
1002
{
1040
0.039370078593
1002
}
1001
TCAD
1000
TCW_CUSTOM_DATA
1002
{
1000
#$AUX@_TCDO_SOURCE_COLOR
1070
           3
1071
        0
1000
#$AUX@_TCDO_PARENT_ID
1070
           3
1071
      211
1000
#$AUX@_TCDO_GTYPE
1070
           3
1071
        1
1000
#$AUX@_TCDO_VISIBILITY
1070
           3
1071
        0
1002
}
  0
LINE
  5
FF
100
AcDbEntity
  8
図
370
         100
  6
Continuous
 62
           7
100
AcDbLine
 10
190.805244922133
 20
84.5
 30
0.0
 11
190.766565395435
 21
84.3
 31
0.0
1001
ACAD
1000
TCW40_DEV_WIDTH
1002
{
1040
0.039370078593
1002
}
1001
TCAD
1000
TCW_CUSTOM_DATA
1002
{
1000
#$AUX@_TCDO_SOURCE_COLOR
1070
           3
1071
        0
1000
#$AUX@_TCDO_PARENT_ID
1070
           3
1071
      211
1000
#$AUX@_TCDO_GTYPE
1070
           3
1071
        1
1000
#$AUX@_TCDO_VISIBILITY
1070
           3
1071
        0
1002
}
  0
LINE
  5
100
100
AcDbEntity
  8
図
370
         100
  6
Continuous
 62
           7
100
AcDbLine
 10
184.339879237976
 20
85.863277804727
 30
0.0
 11
189.049999999997
 21
84.952351595905
 31
0.0
1001
ACAD
1000
TCW40_DEV_WIDTH
1002
{
1040
0.039370078593
1002
}
1001
TCAD
1000
TCW_CUSTOM_DATA
1002
{
1000
#$AUX@_TCDO_SOURCE_COLOR
1070
           3
1071
        0
1000
#$AUX@_TCDO_PARENT_ID
1070
           3
1071
      211
1000
#$AUX@_TCDO_GTYPE
1070
           3
1071
        1
1000
#$AUX@_TCDO_VISIBILITY
1070
           3
1071
        0
1002
}
  0
ARC
  5
101
100
AcDbEntity
  8
図
370
         100
  6
Continuous
 62
           7
100
AcDbCircle
 10
184.150000000002
 20
84.881470351615
 30
0.0
 40
1.0
100
AcDbArc
 50
79.054263248872
 51
100.945736751128
1001
ACAD
1000
TCW40_DEV_WIDTH
1002
{
1040
0.039370078593
1002
}
1001
TCAD
1000
TCW_CUSTOM_DATA
1002
{
1000
#$AUX@_TCDO_SOURCE_COLOR
1070
           3
1071
        0
1000
#$AUX@_TCDO_PARENT_ID
1070
           3
1071
      211
1000
#$AUX@_TCDO_GTYPE
1070
           3
1071
        1
1000
#$AUX@_TCDO_VISIBILITY
1070
           3
1071
        0
1002
}
  0
LINE
  5
102
100
AcDbEntity
  8
図
370
         100
  6
Continuous
 62
           7
100
AcDbLine
 10
189.2632074014
 20
84.3
 30
0.0
 11
184.339879237976
 21
85.252160015696
 31
0.0
1001
ACAD
1000
TCW40_DEV_WIDTH
1002
{
1040
0.039370078593
1002
}
1001
TCAD
1000
TCW_CUSTOM_DATA
1002
{
1000
#$AUX@_TCDO_SOURCE_COLOR
1070
           3
1071
        0
1000
#$AUX@_TCDO_PARENT_ID
1070
           3
1071
      211
1000
#$AUX@_TCDO_GTYPE
1070
           3
1071
        1
1000
#$AUX@_TCDO_VISIBILITY
1070
           3
1071
        0
1002
}
  0
ARC
  5
103
100
AcDbEntity
  8
図
370
         100
  6
Continuous
 62
           7
100
AcDbCircle
 10
184.150000000002
 20
84.270352562584
 30
0.0
 40
1.0
100
AcDbArc
 50
79.054263248872
 51
100.945736751128
1001
ACAD
1000
TCW40_DEV_WIDTH
1002
{
1040
0.039370078593
1002
}
1001
TCAD
1000
TCW_CUSTOM_DATA
1002
{
1000
#$AUX@_TCDO_SOURCE_COLOR
1070
           3
1071
        0
1000
#$AUX@_TCDO_PARENT_ID
1070
           3
1071
      211
1000
#$AUX@_TCDO_GTYPE
1070
           3
1071
        1
1000
#$AUX@_TCDO_VISIBILITY
1070
           3
1071
        0
1002
}
  0
LINE
  5
104
100
AcDbEntity
  8
図
370
         100
  6
Continuous
 62
           7
100
AcDbLine
 10
180.35
 20
80.0
 30
0.0
 11
180.35
 21
79.0
 31
0.0
1001
ACAD
1000
TCW40_DEV_WIDTH
1002
{
1040
0.039370078593
1002
}
1001
TCAD
1000
TCW_CUSTOM_DATA
1002
{
1000
#$AUX@_TCDO_SOURCE_COLOR
1070
           3
1071
        0
1000
#$AUX@_TCDO_PARENT_ID
1070
           3
1071
      202
1000
#$AUX@_TCDO_GTYPE
1070
           3
1071
        0
1000
#$AUX@_TCDO_VISIBILITY
1070
           3
1071
        0
1002
}
  0
LINE
  5
105
100
AcDbEntity
  8
図
370
         100
  6
Continuous
 62
           7
100
AcDbLine
 10
182.65
 20
58.4
 30
0.0
 11
182.65
 21
58.3
 31
0.0
1001
ACAD
1000
TCW40_DEV_WIDTH
1002
{
1040
0.039370078593
1002
}
1001
TCAD
1000
TCW_CUSTOM_DATA
1002
{
1000
#$AUX@_TCDO_SOURCE_COLOR
1070
           3
1071
        0
1000
#$AUX@_TCDO_PARENT_ID
1070
           3
1071
      202
1000
#$AUX@_TCDO_GTYPE
1070
           3
1071
        1
1000
#$AUX@_TCDO_VISIBILITY
1070
           3
1071
        0
1002
}
  0
LINE
  5
106
100
AcDbEntity
  8
図
370
         100
  6
Continuous
 62
           7
100
AcDbLine
 10
172.65
 20
58.3
 30
0.0
 11
172.65
 21
58.5
 31
0.0
1001
ACAD
1000
TCW40_DEV_WIDTH
1002
{
1040
0.039370078593
1002
}
1001
TCAD
1000
TCW_CUSTOM_DATA
1002
{
1000
#$AUX@_TCDO_SOURCE_COLOR
1070
           3
1071
        0
1000
#$AUX@_TCDO_PARENT_ID
1070
           3
1071
      202
1000
#$AUX@_TCDO_GTYPE
1070
           3
1071
        1
1000
#$AUX@_TCDO_VISIBILITY
1070
           3
1071
        0
1002
}
  0
ARC
  5
107
100
AcDbEntity
  8
図
370
         100
  6
Continuous
 62
           7
100
AcDbCircle
 10
196.35
 20
84.4
 30
0.0
 40
0.3
100
AcDbArc
 50
-56.765807395603
 51
123.234192604377
1001
ACAD
1000
TCW40_DEV_WIDTH
1002
{
1040
0.039370078593
1002
}
1001
TCAD
1000
TCW_CUSTOM_DATA
1002
{
1000
#$AUX@_TCDO_SOURCE_COLOR
1070
           3
1071
        0
1000
#$AUX@_TCDO_PARENT_ID
1070
           3
1071
      202
1000
#$AUX@_TCDO_GTYPE
1070
           3
1071
        1
1000
#$AUX@_TCDO_VISIBILITY
1070
           3
1071
        0
1002
}
  0
LINE
  5
108
100
AcDbEntity
  8
図
370
         100
  6
Continuous
 62
           7
100
AcDbLine
 10
196.514418745425
 20
84.149068782028
 30
0.0
 11
195.65
 21
83.582671955069
 31
0.0
1001
ACAD
1000
TCW40_DEV_WIDTH
1002
{
1040
0.039370078593
1002
}
1001
TCAD
1000
TCW_CUSTOM_DATA
1002
{
1000
#$AUX@_TCDO_SOURCE_COLOR
1070
           3
1071
        0
1000
#$AUX@_TCDO_PARENT_ID
1070
           3
1071
      202
1000
#$AUX@_TCDO_GTYPE
1070
           3
1071
        1
1000
#$AUX@_TCDO_VISIBILITY
1070
           3
1071
        0
1002
}
  0
LINE
  5
109
100
AcDbEntity
  8
図
370
         100
  6
Continuous
 62
           7
100
AcDbLine
 10
195.65
 20
84.3
 30
0.0
 11
196.185581254575
 21
84.650931217972
 31
0.0
1001
ACAD
1000
TCW40_DEV_WIDTH
1002
{
1040
0.039370078593
1002
}
1001
TCAD
1000
TCW_CUSTOM_DATA
1002
{
1000
#$AUX@_TCDO_SOURCE_COLOR
1070
           3
1071
        0
1000
#$AUX@_TCDO_PARENT_ID
1070
           3
1071
      202
1000
#$AUX@_TCDO_GTYPE
1070
           3
1071
        1
1000
#$AUX@_TCDO_VISIBILITY
1070
           3
1071
        0
1002
}
  0
LINE
  5
10A
100
AcDbEntity
  8
図
370
         100
  6
Continuous
 62
           7
100
AcDbLine
 10
181.35
 20
60.4
 30
0.0
 11
181.35
 21
58.9
 31
0.0
1001
ACAD
1000
TCW40_DEV_WIDTH
1002
{
1040
0.039370078593
1002
}
1001
TCAD
1000
TCW_CUSTOM_DATA
1002
{
1000
#$AUX@_TCDO_SOURCE_COLOR
1070
           3
1071
        0
1000
#$AUX@_TCDO_PARENT_ID
1070
           3
1071
      202
1000
#$AUX@_TCDO_GTYPE
1070
           3
1071
        1
1000
#$AUX@_TCDO_VISIBILITY
1070
           3
1071
        0
1002
}
  0
LINE
  5
10B
100
AcDbEntity
  8
図
370
         100
  6
Continuous
 62
           7
100
AcDbLine
 10
186.95
 20
60.4
 30
0.0
 11
181.35
 21
60.4
 31
0.0
1001
ACAD
1000
TCW40_DEV_WIDTH
1002
{
1040
0.039370078593
1002
}
1001
TCAD
1000
TCW_CUSTOM_DATA
1002
{
1000
#$AUX@_TCDO_SOURCE_COLOR
1070
           3
1071
        0
1000
#$AUX@_TCDO_PARENT_ID
1070
           3
1071
      202
1000
#$AUX@_TCDO_GTYPE
1070
           3
1071
        1
1000
#$AUX@_TCDO_VISIBILITY
1070
           3
1071
        0
1002
}
  0
LINE
  5
10C
100
AcDbEntity
  8
図
370
         100
  6
Continuous
 62
           7
100
AcDbLine
 10
186.95
 20
58.9
 30
0.0
 11
186.95
 21
60.4
 31
0.0
1001
ACAD
1000
TCW40_DEV_WIDTH
1002
{
1040
0.039370078593
1002
}
1001
TCAD
1000
TCW_CUSTOM_DATA
1002
{
1000
#$AUX@_TCDO_SOURCE_COLOR
1070
           3
1071
        0
1000
#$AUX@_TCDO_PARENT_ID
1070
           3
1071
      202
1000
#$AUX@_TCDO_GTYPE
1070
           3
1071
        1
1000
#$AUX@_TCDO_VISIBILITY
1070
           3
1071
        0
1002
}
  0
LINE
  5
10D
100
AcDbEntity
  8
図
370
         100
  6
Continuous
 62
           7
100
AcDbLine
 10
181.35
 20
58.9
 30
0.0
 11
186.95
 21
58.9
 31
0.0
1001
ACAD
1000
TCW40_DEV_WIDTH
1002
{
1040
0.039370078593
1002
}
1001
TCAD
1000
TCW_CUSTOM_DATA
1002
{
1000
#$AUX@_TCDO_SOURCE_COLOR
1070
           3
1071
        0
1000
#$AUX@_TCDO_PARENT_ID
1070
           3
1071
      202
1000
#$AUX@_TCDO_GTYPE
1070
           3
1071
        0
1000
#$AUX@_TCDO_VISIBILITY
1070
           3
1071
        0
1002
}
  0
LINE
  5
10E
100
AcDbEntity
  8
図
370
         100
  6
Continuous
 62
           7
100
AcDbLine
 10
186.95
 20
58.4
 30
0.0
 11
186.95
 21
58.9
 31
0.0
1001
ACAD
1000
TCW40_DEV_WIDTH
1002
{
1040
0.039370078593
1002
}
1001
TCAD
1000
TCW_CUSTOM_DATA
1002
{
1000
#$AUX@_TCDO_SOURCE_COLOR
1070
           3
1071
        0
1000
#$AUX@_TCDO_PARENT_ID
1070
           3
1071
      202
1000
#$AUX@_TCDO_GTYPE
1070
           3
1071
        1
1000
#$AUX@_TCDO_VISIBILITY
1070
           3
1071
        0
1002
}
  0
LINE
  5
10F
100
AcDbEntity
  8
図
370
         100
  6
Continuous
 62
           7
100
AcDbLine
 10
186.95
 20
58.4
 30
0.0
 11
181.35
 21
58.4
 31
0.0
1001
ACAD
1000
TCW40_DEV_WIDTH
1002
{
1040
0.039370078593
1002
}
1001
TCAD
1000
TCW_CUSTOM_DATA
1002
{
1000
#$AUX@_TCDO_SOURCE_COLOR
1070
           3
1071
        0
1000
#$AUX@_TCDO_PARENT_ID
1070
           3
1071
      202
1000
#$AUX@_TCDO_GTYPE
1070
           3
1071
        1
1000
#$AUX@_TCDO_VISIBILITY
1070
           3
1071
        0
1002
}
  0
LINE
  5
110
100
AcDbEntity
  8
図
370
         100
  6
Continuous
 62
           7
100
AcDbLine
 10
181.35
 20
58.9
 30
0.0
 11
181.35
 21
58.4
 31
0.0
1001
ACAD
1000
TCW40_DEV_WIDTH
1002
{
1040
0.039370078593
1002
}
1001
TCAD
1000
TCW_CUSTOM_DATA
1002
{
1000
#$AUX@_TCDO_SOURCE_COLOR
1070
           3
1071
        0
1000
#$AUX@_TCDO_PARENT_ID
1070
           3
1071
      202
1000
#$AUX@_TCDO_GTYPE
1070
           3
1071
        1
1000
#$AUX@_TCDO_VISIBILITY
1070
           3
1071
        0
1002
}
  0
LINE
  5
111
100
AcDbEntity
  8
図
370
         100
  6
Continuous
 62
           7
100
AcDbLine
 10
194.15
 20
58.5
 30
0.0
 11
195.65
 21
58.5
 31
0.0
1001
ACAD
1000
TCW40_DEV_WIDTH
1002
{
1040
0.039370078593
1002
}
1001
TCAD
1000
TCW_CUSTOM_DATA
1002
{
1000
#$AUX@_TCDO_SOURCE_COLOR
1070
           3
1071
        0
1000
#$AUX@_TCDO_PARENT_ID
1070
           3
1071
      202
1000
#$AUX@_TCDO_GTYPE
1070
           3
1071
        1
1000
#$AUX@_TCDO_VISIBILITY
1070
           3
1071
        0
1002
}
  0
LINE
  5
112
100
AcDbEntity
  8
図
370
         100
  6
Continuous
 62
           7
100
AcDbLine
 10
181.35
 20
58.5
 30
0.0
 11
181.15
 21
58.5
 31
0.0
1001
ACAD
1000
TCW40_DEV_WIDTH
1002
{
1040
0.039370078593
1002
}
1001
TCAD
1000
TCW_CUSTOM_DATA
1002
{
1000
#$AUX@_TCDO_SOURCE_COLOR
1070
           3
1071
        0
1000
#$AUX@_TCDO_PARENT_ID
1070
           3
1071
      202
1000
#$AUX@_TCDO_GTYPE
1070
           3
1071
        1
1000
#$AUX@_TCDO_VISIBILITY
1070
           3
1071
        0
1002
}
  0
LINE
  5
113
100
AcDbEntity
  8
図
370
         100
  6
Continuous
 62
           7
100
AcDbLine
 10
179.15
 20
58.5
 30
0.0
 11
174.15
 21
58.5
 31
0.0
1001
ACAD
1000
TCW40_DEV_WIDTH
1002
{
1040
0.039370078593
1002
}
1001
TCAD
1000
TCW_CUSTOM_DATA
1002
{
1000
#$AUX@_TCDO_SOURCE_COLOR
1070
           3
1071
        0
1000
#$AUX@_TCDO_PARENT_ID
1070
           3
1071
      202
1000
#$AUX@_TCDO_GTYPE
1070
           3
1071
        1
1000
#$AUX@_TCDO_VISIBILITY
1070
           3
1071
        0
1002
}
  0
LINE
  5
114
100
AcDbEntity
  8
図
370
         100
  6
Continuous
 62
           7
100
AcDbLine
 10
194.15
 20
84.3
 30
0.0
 11
194.15
 21
58.5
 31
0.0
1001
ACAD
1000
TCW40_DEV_WIDTH
1002
{
1040
0.039370078593
1002
}
1001
TCAD
1000
TCW_CUSTOM_DATA
1002
{
1000
#$AUX@_TCDO_SOURCE_COLOR
1070
           3
1071
        0
1000
#$AUX@_TCDO_PARENT_ID
1070
           3
1071
      202
1000
#$AUX@_TCDO_GTYPE
1070
           3
1071
        0
1000
#$AUX@_TCDO_VISIBILITY
1070
           3
1071
        0
1002
}
  0
LINE
  5
115
100
AcDbEntity
  8
図
370
         100
  6
Continuous
 62
           7
100
AcDbLine
 10
194.15
 20
58.5
 30
0.0
 11
189.15
 21
58.5
 31
0.0
1001
ACAD
1000
TCW40_DEV_WIDTH
1002
{
1040
0.039370078593
1002
}
1001
TCAD
1000
TCW_CUSTOM_DATA
1002
{
1000
#$AUX@_TCDO_SOURCE_COLOR
1070
           3
1071
        0
1000
#$AUX@_TCDO_PARENT_ID
1070
           3
1071
      202
1000
#$AUX@_TCDO_GTYPE
1070
           3
1071
        1
1000
#$AUX@_TCDO_VISIBILITY
1070
           3
1071
        0
1002
}
  0
LINE
  5
116
100
AcDbEntity
  8
図
370
         100
  6
Continuous
 62
           7
100
AcDbLine
 10
187.15
 20
58.5
 30
0.0
 11
186.95
 21
58.5
 31
0.0
1001
ACAD
1000
TCW40_DEV_WIDTH
1002
{
1040
0.039370078593
1002
}
1001
TCAD
1000
TCW_CUSTOM_DATA
1002
{
1000
#$AUX@_TCDO_SOURCE_COLOR
1070
           3
1071
        0
1000
#$AUX@_TCDO_PARENT_ID
1070
           3
1071
      202
1000
#$AUX@_TCDO_GTYPE
1070
           3
1071
        1
1000
#$AUX@_TCDO_VISIBILITY
1070
           3
1071
        0
1002
}
  0
LINE
  5
117
100
AcDbEntity
  8
図
370
         100
  6
Continuous
 62
           7
100
AcDbLine
 10
181.35
 20
58.5
 30
0.0
 11
181.15
 21
58.5
 31
0.0
1001
ACAD
1000
TCW40_DEV_WIDTH
1002
{
1040
0.039370078593
1002
}
1001
TCAD
1000
TCW_CUSTOM_DATA
1002
{
1000
#$AUX@_TCDO_SOURCE_COLOR
1070
           3
1071
        0
1000
#$AUX@_TCDO_PARENT_ID
1070
           3
1071
      202
1000
#$AUX@_TCDO_GTYPE
1070
           3
1071
        1
1000
#$AUX@_TCDO_VISIBILITY
1070
           3
1071
        0
1002
}
  0
LINE
  5
118
100
AcDbEntity
  8
図
370
         100
  6
Continuous
 62
           7
100
AcDbLine
 10
179.15
 20
58.5
 30
0.0
 11
174.15
 21
58.5
 31
0.0
1001
ACAD
1000
TCW40_DEV_WIDTH
1002
{
1040
0.039370078593
1002
}
1001
TCAD
1000
TCW_CUSTOM_DATA
1002
{
1000
#$AUX@_TCDO_SOURCE_COLOR
1070
           3
1071
        0
1000
#$AUX@_TCDO_PARENT_ID
1070
           3
1071
      202
1000
#$AUX@_TCDO_GTYPE
1070
           3
1071
        1
1000
#$AUX@_TCDO_VISIBILITY
1070
           3
1071
        0
1002
}
  0
LINE
  5
119
100
AcDbEntity
  8
図
370
         100
  6
Continuous
 62
           7
100
AcDbLine
 10
180.35
 20
80.0
 30
0.0
 11
180.35
 21
83.4
 31
0.0
1001
ACAD
1000
TCW40_DEV_WIDTH
1002
{
1040
0.039370078593
1002
}
1001
TCAD
1000
TCW_CUSTOM_DATA
1002
{
1000
#$AUX@_TCDO_SOURCE_COLOR
1070
           3
1071
        0
1000
#$AUX@_TCDO_PARENT_ID
1070
           3
1071
      202
1000
#$AUX@_TCDO_GTYPE
1070
           3
1071
        1
1000
#$AUX@_TCDO_VISIBILITY
1070
           3
1071
        0
1002
}
  0
LINE
  5
11A
100
AcDbEntity
  8
図
370
         100
  6
Continuous
 62
           7
100
AcDbLine
 10
180.35
 20
83.4
 30
0.0
 11
182.65
 21
83.4
 31
0.0
1001
ACAD
1000
TCW40_DEV_WIDTH
1002
{
1040
0.039370078593
1002
}
1001
TCAD
1000
TCW_CUSTOM_DATA
1002
{
1000
#$AUX@_TCDO_SOURCE_COLOR
1070
           3
1071
        0
1000
#$AUX@_TCDO_PARENT_ID
1070
           3
1071
      202
1000
#$AUX@_TCDO_GTYPE
1070
           3
1071
        1
1000
#$AUX@_TCDO_VISIBILITY
1070
           3
1071
        0
1002
}
  0
LINE
  5
11B
100
AcDbEntity
  8
図
370
         100
  6
Continuous
 62
           7
100
AcDbLine
 10
185.65
 20
83.4
 30
0.0
 11
187.95
 21
83.4
 31
0.0
1001
ACAD
1000
TCW40_DEV_WIDTH
1002
{
1040
0.039370078593
1002
}
1001
TCAD
1000
TCW_CUSTOM_DATA
1002
{
1000
#$AUX@_TCDO_SOURCE_COLOR
1070
           3
1071
        0
1000
#$AUX@_TCDO_PARENT_ID
1070
           3
1071
      202
1000
#$AUX@_TCDO_GTYPE
1070
           3
1071
        1
1000
#$AUX@_TCDO_VISIBILITY
1070
           3
1071
        0
1002
}
  0
LINE
  5
11C
100
AcDbEntity
  8
図
370
         100
  6
Continuous
 62
           7
100
AcDbLine
 10
187.95
 20
79.0
 30
0.0
 11
184.15
 21
79.0
 31
0.0
1001
ACAD
1000
TCW40_DEV_WIDTH
1002
{
1040
0.039370078593
1002
}
1001
TCAD
1000
TCW_CUSTOM_DATA
1002
{
1000
#$AUX@_TCDO_SOURCE_COLOR
1070
           3
1071
        0
1000
#$AUX@_TCDO_PARENT_ID
1070
           3
1071
      202
1000
#$AUX@_TCDO_GTYPE
1070
           3
1071
        1
1000
#$AUX@_TCDO_VISIBILITY
1070
           3
1071
        0
1002
}
  0
LINE
  5
11D
100
AcDbEntity
  8
図
370
         100
  6
Continuous
 62
           7
100
AcDbLine
 10
187.95
 20
83.4
 30
0.0
 11
187.95
 21
79.0
 31
0.0
1001
ACAD
1000
TCW40_DEV_WIDTH
1002
{
1040
0.039370078593
1002
}
1001
TCAD
1000
TCW_CUSTOM_DATA
1002
{
1000
#$AUX@_TCDO_SOURCE_COLOR
1070
           3
1071
        0
1000
#$AUX@_TCDO_PARENT_ID
1070
           3
1071
      202
1000
#$AUX@_TCDO_GTYPE
1070
           3
1071
        1
1000
#$AUX@_TCDO_VISIBILITY
1070
           3
1071
        0
1002
}
  0
LINE
  5
11E
100
AcDbEntity
  8
図
370
         100
  6
Continuous
 62
           7
100
AcDbLine
 10
184.15
 20
79.0
 30
0.0
 11
181.85
 21
79.0
 31
0.0
1001
ACAD
1000
TCW40_DEV_WIDTH
1002
{
1040
0.039370078593
1002
}
1001
TCAD
1000
TCW_CUSTOM_DATA
1002
{
1000
#$AUX@_TCDO_SOURCE_COLOR
1070
           3
1071
        0
1000
#$AUX@_TCDO_PARENT_ID
1070
           3
1071
      202
1000
#$AUX@_TCDO_GTYPE
1070
           3
1071
        1
1000
#$AUX@_TCDO_VISIBILITY
1070
           3
1071
        0
1002
}
  0
LINE
  5
11F
100
AcDbEntity
  8
図
370
         100
  6
Continuous
 62
           7
100
AcDbLine
 10
181.85
 20
80.0
 30
0.0
 11
182.65
 21
80.0
 31
0.0
1001
ACAD
1000
TCW40_DEV_WIDTH
1002
{
1040
0.039370078593
1002
}
1001
TCAD
1000
TCW_CUSTOM_DATA
1002
{
1000
#$AUX@_TCDO_SOURCE_COLOR
1070
           3
1071
        0
1000
#$AUX@_TCDO_PARENT_ID
1070
           3
1071
      202
1000
#$AUX@_TCDO_GTYPE
1070
           3
1071
        1
1000
#$AUX@_TCDO_VISIBILITY
1070
           3
1071
        0
1002
}
  0
LINE
  5
120
100
AcDbEntity
  8
図
370
         100
  6
Continuous
 62
           7
100
AcDbLine
 10
182.65
 20
83.4
 30
0.0
 11
185.65
 21
83.4
 31
0.0
1001
ACAD
1000
TCW40_DEV_WIDTH
1002
{
1040
0.039370078593
1002
}
1001
TCAD
1000
TCW_CUSTOM_DATA
1002
{
1000
#$AUX@_TCDO_SOURCE_COLOR
1070
           3
1071
        0
1000
#$AUX@_TCDO_PARENT_ID
1070
           3
1071
      202
1000
#$AUX@_TCDO_GTYPE
1070
           3
1071
        1
1000
#$AUX@_TCDO_VISIBILITY
1070
           3
1071
        0
1002
}
  0
LINE
  5
121
100
AcDbEntity
  8
図
370
         100
  6
Continuous
 62
           7
100
AcDbLine
 10
185.65
 20
83.4
 30
0.0
 11
185.65
 21
80.5
 31
0.0
1001
ACAD
1000
TCW40_DEV_WIDTH
1002
{
1040
0.039370078593
1002
}
1001
TCAD
1000
TCW_CUSTOM_DATA
1002
{
1000
#$AUX@_TCDO_SOURCE_COLOR
1070
           3
1071
        0
1000
#$AUX@_TCDO_PARENT_ID
1070
           3
1071
      202
1000
#$AUX@_TCDO_GTYPE
1070
           3
1071
        1
1000
#$AUX@_TCDO_VISIBILITY
1070
           3
1071
        0
1002
}
  0
LINE
  5
122
100
AcDbEntity
  8
図
370
         100
  6
Continuous
 62
           7
100
AcDbLine
 10
182.65
 20
80.0
 30
0.0
 11
182.65
 21
83.4
 31
0.0
1001
ACAD
1000
TCW40_DEV_WIDTH
1002
{
1040
0.039370078593
1002
}
1001
TCAD
1000
TCW_CUSTOM_DATA
1002
{
1000
#$AUX@_TCDO_SOURCE_COLOR
1070
           3
1071
        0
1000
#$AUX@_TCDO_PARENT_ID
1070
           3
1071
      202
1000
#$AUX@_TCDO_GTYPE
1070
           3
1071
        1
1000
#$AUX@_TCDO_VISIBILITY
1070
           3
1071
        0
1002
}
  0
LINE
  5
123
100
AcDbEntity
  8
図
370
         100
  6
Continuous
 62
           7
100
AcDbLine
 10
181.85
 20
80.0
 30
0.0
 11
181.85
 21
79.0
 31
0.0
1001
ACAD
1000
TCW40_DEV_WIDTH
1002
{
1040
0.039370078593
1002
}
1001
TCAD
1000
TCW_CUSTOM_DATA
1002
{
1000
#$AUX@_TCDO_SOURCE_COLOR
1070
           3
1071
        0
1000
#$AUX@_TCDO_PARENT_ID
1070
           3
1071
      202
1000
#$AUX@_TCDO_GTYPE
1070
           3
1071
        0
1000
#$AUX@_TCDO_VISIBILITY
1070
           3
1071
        0
1002
}
  0
LINE
  5
124
100
AcDbEntity
  8
図
370
         100
  6
Continuous
 62
           7
100
AcDbLine
 10
180.35
 20
79.0
 30
0.0
 11
181.85
 21
79.0
 31
0.0
1001
ACAD
1000
TCW40_DEV_WIDTH
1002
{
1040
0.039370078593
1002
}
1001
TCAD
1000
TCW_CUSTOM_DATA
1002
{
1000
#$AUX@_TCDO_SOURCE_COLOR
1070
           3
1071
        0
1000
#$AUX@_TCDO_PARENT_ID
1070
           3
1071
      202
1000
#$AUX@_TCDO_GTYPE
1070
           3
1071
        1
1000
#$AUX@_TCDO_VISIBILITY
1070
           3
1071
        0
1002
}
  0
LINE
  5
125
100
AcDbEntity
  8
図
370
         100
  6
Continuous
 62
           7
100
AcDbLine
 10
181.85
 20
80.0
 30
0.0
 11
180.35
 21
80.0
 31
0.0
1001
ACAD
1000
TCW40_DEV_WIDTH
1002
{
1040
0.039370078593
1002
}
1001
TCAD
1000
TCW_CUSTOM_DATA
1002
{
1000
#$AUX@_TCDO_SOURCE_COLOR
1070
           3
1071
        0
1000
#$AUX@_TCDO_PARENT_ID
1070
           3
1071
      202
1000
#$AUX@_TCDO_GTYPE
1070
           3
1071
        1
1000
#$AUX@_TCDO_VISIBILITY
1070
           3
1071
        0
1002
}
  0
ARC
  5
126
100
AcDbEntity
  8
図
370
         100
  6
Continuous
 62
           7
100
AcDbCircle
 10
184.15
 20
80.5
 30
0.0
 40
1.5
100
AcDbArc
 50
-90.0
 51
0.0
1001
ACAD
1000
TCW40_DEV_WIDTH
1002
{
1040
0.039370078593
1002
}
1001
TCAD
1000
TCW_CUSTOM_DATA
1002
{
1000
#$AUX@_TCDO_SOURCE_COLOR
1070
           3
1071
        0
1000
#$AUX@_TCDO_PARENT_ID
1070
           3
1071
      202
1000
#$AUX@_TCDO_GTYPE
1070
           3
1071
        1
1000
#$AUX@_TCDO_VISIBILITY
1070
           3
1071
        0
1002
}
  0
ARC
  5
127
100
AcDbEntity
  8
図
370
         100
  6
Continuous
 62
           7
100
AcDbCircle
 10
184.15
 20
91.12
 30
0.0
 40
7.72
100
AcDbArc
 50
-90.0
 51
-62.05767070182
1001
ACAD
1000
TCW40_DEV_WIDTH
1002
{
1040
0.039370078593
1002
}
1001
TCAD
1000
TCW_CUSTOM_DATA
1002
{
1000
#$AUX@_TCDO_SOURCE_COLOR
1070
           3
1071
        0
1000
#$AUX@_TCDO_PARENT_ID
1070
           3
1071
      202
1000
#$AUX@_TCDO_GTYPE
1070
           3
1071
        1
1000
#$AUX@_TCDO_VISIBILITY
1070
           3
1071
        0
1002
}
  0
ARC
  5
128
100
AcDbEntity
  8
図
370
         100
  6
Continuous
 62
           7
100
AcDbCircle
 10
184.15
 20
91.12
 30
0.0
 40
7.72
100
AcDbArc
 50
-117.94232929818
 51
-89.999996935172
1001
ACAD
1000
TCW40_DEV_WIDTH
1002
{
1040
0.039370078593
1002
}
1001
TCAD
1000
TCW_CUSTOM_DATA
1002
{
1000
#$AUX@_TCDO_SOURCE_COLOR
1070
           3
1071
        0
1000
#$AUX@_TCDO_PARENT_ID
1070
           3
1071
      202
1000
#$AUX@_TCDO_GTYPE
1070
           3
1071
        1
1000
#$AUX@_TCDO_VISIBILITY
1070
           3
1071
        0
1002
}
  0
LINE
  5
129
100
AcDbEntity
  8
図
370
         100
  6
Continuous
 62
           7
100
AcDbLine
 10
174.15
 20
58.5
 30
0.0
 11
174.15
 21
84.3
 31
0.0
1001
ACAD
1000
TCW40_DEV_WIDTH
1002
{
1040
0.039370078593
1002
}
1001
TCAD
1000
TCW_CUSTOM_DATA
1002
{
1000
#$AUX@_TCDO_SOURCE_COLOR
1070
           3
1071
        0
1000
#$AUX@_TCDO_PARENT_ID
1070
           3
1071
      202
1000
#$AUX@_TCDO_GTYPE
1070
           3
1071
        0
1000
#$AUX@_TCDO_VISIBILITY
1070
           3
1071
        0
1002
}
  0
LINE
  5
12A
100
AcDbEntity
  8
図
370
         100
  6
Continuous
 62
           7
100
AcDbLine
 10
172.65
 20
58.5
 30
0.0
 11
174.15
 21
58.5
 31
0.0
1001
ACAD
1000
TCW40_DEV_WIDTH
1002
{
1040
0.039370078593
1002
}
1001
TCAD
1000
TCW_CUSTOM_DATA
1002
{
1000
#$AUX@_TCDO_SOURCE_COLOR
1070
           3
1071
        0
1000
#$AUX@_TCDO_PARENT_ID
1070
           3
1071
      202
1000
#$AUX@_TCDO_GTYPE
1070
           3
1071
        1
1000
#$AUX@_TCDO_VISIBILITY
1070
           3
1071
        0
1002
}
  0
LINE
  5
12B
100
AcDbEntity
  8
図
370
         100
  6
Continuous
 62
           7
100
AcDbLine
 10
172.65
 20
84.3
 30
0.0
 11
172.65
 21
58.5
 31
0.0
1001
ACAD
1000
TCW40_DEV_WIDTH
1002
{
1040
0.039370078593
1002
}
1001
TCAD
1000
TCW_CUSTOM_DATA
1002
{
1000
#$AUX@_TCDO_SOURCE_COLOR
1070
           3
1071
        0
1000
#$AUX@_TCDO_PARENT_ID
1070
           3
1071
      202
1000
#$AUX@_TCDO_GTYPE
1070
           3
1071
        1
1000
#$AUX@_TCDO_VISIBILITY
1070
           3
1071
        0
1002
}
  0
LINE
  5
12C
100
AcDbEntity
  8
図
370
         100
  6
Continuous
 62
           7
100
AcDbLine
 10
195.65
 20
84.3
 30
0.0
 11
194.15
 21
84.3
 31
0.0
1001
ACAD
1000
TCW40_DEV_WIDTH
1002
{
1040
0.039370078593
1002
}
1001
TCAD
1000
TCW_CUSTOM_DATA
1002
{
1000
#$AUX@_TCDO_SOURCE_COLOR
1070
           3
1071
        0
1000
#$AUX@_TCDO_PARENT_ID
1070
           3
1071
      202
1000
#$AUX@_TCDO_GTYPE
1070
           3
1071
        1
1000
#$AUX@_TCDO_VISIBILITY
1070
           3
1071
        0
1002
}
  0
LINE
  5
12D
100
AcDbEntity
  8
図
370
         100
  6
Continuous
 62
           7
100
AcDbLine
 10
187.767457670796
 20
84.3
 30
0.0
 11
194.15
 21
84.3
 31
0.0
1001
ACAD
1000
TCW40_DEV_WIDTH
1002
{
1040
0.039370078593
1002
}
1001
TCAD
1000
TCW_CUSTOM_DATA
1002
{
1000
#$AUX@_TCDO_SOURCE_COLOR
1070
           3
1071
        0
1000
#$AUX@_TCDO_PARENT_ID
1070
           3
1071
      202
1000
#$AUX@_TCDO_GTYPE
1070
           3
1071
        1
1000
#$AUX@_TCDO_VISIBILITY
1070
           3
1071
        0
1002
}
  0
LINE
  5
12E
100
AcDbEntity
  8
図
370
         100
  6
Continuous
 62
           7
100
AcDbLine
 10
174.15
 20
84.3
 30
0.0
 11
180.532542329204
 21
84.3
 31
0.0
1001
ACAD
1000
TCW40_DEV_WIDTH
1002
{
1040
0.039370078593
1002
}
1001
TCAD
1000
TCW_CUSTOM_DATA
1002
{
1000
#$AUX@_TCDO_SOURCE_COLOR
1070
           3
1071
        0
1000
#$AUX@_TCDO_PARENT_ID
1070
           3
1071
      202
1000
#$AUX@_TCDO_GTYPE
1070
           3
1071
        1
1000
#$AUX@_TCDO_VISIBILITY
1070
           3
1071
        0
1002
}
  0
LINE
  5
12F
100
AcDbEntity
  8
図
370
         100
  6
Continuous
 62
           7
100
AcDbLine
 10
174.15
 20
84.3
 30
0.0
 11
172.65
 21
84.3
 31
0.0
1001
ACAD
1000
TCW40_DEV_WIDTH
1002
{
1040
0.039370078593
1002
}
1001
TCAD
1000
TCW_CUSTOM_DATA
1002
{
1000
#$AUX@_TCDO_SOURCE_COLOR
1070
           3
1071
        0
1000
#$AUX@_TCDO_PARENT_ID
1070
           3
1071
      202
1000
#$AUX@_TCDO_GTYPE
1070
           3
1071
        1
1000
#$AUX@_TCDO_VISIBILITY
1070
           3
1071
        0
1002
}
  0
LINE
  5
130
100
AcDbEntity
  8
図
370
         100
  6
Continuous
 62
           7
100
AcDbLine
 10
195.65
 20
58.5
 30
0.0
 11
195.65
 21
84.3
 31
0.0
1001
ACAD
1000
TCW40_DEV_WIDTH
1002
{
1040
0.039370078593
1002
}
1001
TCAD
1000
TCW_CUSTOM_DATA
1002
{
1000
#$AUX@_TCDO_SOURCE_COLOR
1070
           3
1071
        0
1000
#$AUX@_TCDO_PARENT_ID
1070
           3
1071
      202
1000
#$AUX@_TCDO_GTYPE
1070
           3
1071
        1
1000
#$AUX@_TCDO_VISIBILITY
1070
           3
1071
        0
1002
}
  0
ARC
  5
131
100
AcDbEntity
  8
図
370
         100
  6
Continuous
 62
           7
100
AcDbCircle
 10
195.15
 20
96.5
 30
0.0
 40
0.5
100
AcDbArc
 50
0.0
 51
90.0
1001
ACAD
1000
TCW40_DEV_WIDTH
1002
{
1040
0.039370078593
1002
}
1001
TCAD
1000
TCW_CUSTOM_DATA
1002
{
1000
#$AUX@_TCDO_SOURCE_COLOR
1070
           3
1071
        0
1000
#$AUX@_TCDO_PARENT_ID
1070
           3
1071
       99
1000
#$AUX@_TCDO_GTYPE
1070
           3
1071
        0
1000
#$AUX@_TCDO_VISIBILITY
1070
           3
1071
        0
1002
}
  0
ARC
  5
132
100
AcDbEntity
  8
図
370
         100
  6
Continuous
 62
           7
100
AcDbCircle
 10
194.65
 20
99.2
 30
0.0
 40
1.0
100
AcDbArc
 50
0.0
 51
90.0
1001
ACAD
1000
TCW40_DEV_WIDTH
1002
{
1040
0.039370078593
1002
}
1001
TCAD
1000
TCW_CUSTOM_DATA
1002
{
1000
#$AUX@_TCDO_SOURCE_COLOR
1070
           3
1071
        0
1000
#$AUX@_TCDO_PARENT_ID
1070
           3
1071
       99
1000
#$AUX@_TCDO_GTYPE
1070
           3
1071
        0
1000
#$AUX@_TCDO_VISIBILITY
1070
           3
1071
        0
1002
}
  0
ARC
  5
133
100
AcDbEntity
  8
図
370
         100
  6
Continuous
 62
           7
100
AcDbCircle
 10
196.35
 20
84.4
 30
0.0
 40
0.3
100
AcDbArc
 50
-123.234192604377
 51
56.765807395603
1001
ACAD
1000
TCW40_DEV_WIDTH
1002
{
1040
0.039370078593
1002
}
1001
TCAD
1000
TCW_CUSTOM_DATA
1002
{
1000
#$AUX@_TCDO_SOURCE_COLOR
1070
           3
1071
        0
1000
#$AUX@_TCDO_PARENT_ID
1070
           3
1071
       99
1000
#$AUX@_TCDO_GTYPE
1070
           3
1071
        1
1000
#$AUX@_TCDO_VISIBILITY
1070
           3
1071
        0
1002
}
  0
LINE
  5
134
100
AcDbEntity
  8
図
370
         100
  6
Continuous
 62
           7
100
AcDbLine
 10
196.514418745425
 20
84.650931217972
 30
0.0
 11
195.65
 21
85.217328044931
 31
0.0
1001
ACAD
1000
TCW40_DEV_WIDTH
1002
{
1040
0.039370078593
1002
}
1001
TCAD
1000
TCW_CUSTOM_DATA
1002
{
1000
#$AUX@_TCDO_SOURCE_COLOR
1070
           3
1071
        0
1000
#$AUX@_TCDO_PARENT_ID
1070
           3
1071
       99
1000
#$AUX@_TCDO_GTYPE
1070
           3
1071
        1
1000
#$AUX@_TCDO_VISIBILITY
1070
           3
1071
        0
1002
}
  0
LINE
  5
135
100
AcDbEntity
  8
図
370
         100
  6
Continuous
 62
           7
100
AcDbLine
 10
195.65
 20
84.5
 30
0.0
 11
196.185581254575
 21
84.149068782028
 31
0.0
1001
ACAD
1000
TCW40_DEV_WIDTH
1002
{
1040
0.039370078593
1002
}
1001
TCAD
1000
TCW_CUSTOM_DATA
1002
{
1000
#$AUX@_TCDO_SOURCE_COLOR
1070
           3
1071
        0
1000
#$AUX@_TCDO_PARENT_ID
1070
           3
1071
       99
1000
#$AUX@_TCDO_GTYPE
1070
           3
1071
        1
1000
#$AUX@_TCDO_VISIBILITY
1070
           3
1071
        0
1002
}
  0
LINE
  5
136
100
AcDbEntity
  8
図
370
         100
  6
Continuous
 62
           7
100
AcDbLine
 10
169.65
 20
76.2
 30
0.0
 11
171.15
 21
78.7
 31
0.0
1001
ACAD
1000
TCW40_DEV_WIDTH
1002
{
1040
0.039370078593
1002
}
1001
TCAD
1000
TCW_CUSTOM_DATA
1002
{
1000
#$AUX@_TCDO_SOURCE_COLOR
1070
           3
1071
        0
1000
#$AUX@_TCDO_PARENT_ID
1070
           3
1071
       99
1000
#$AUX@_TCDO_GTYPE
1070
           3
1071
        1
1000
#$AUX@_TCDO_VISIBILITY
1070
           3
1071
        0
1002
}
  0
LINE
  5
137
100
AcDbEntity
  8
図
370
         100
  6
Continuous
 62
           7
100
AcDbLine
 10
172.65
 20
78.7
 30
0.0
 11
169.65
 21
76.2
 31
0.0
1001
ACAD
1000
TCW40_DEV_WIDTH
1002
{
1040
0.039370078593
1002
}
1001
TCAD
1000
TCW_CUSTOM_DATA
1002
{
1000
#$AUX@_TCDO_SOURCE_COLOR
1070
           3
1071
        0
1000
#$AUX@_TCDO_PARENT_ID
1070
           3
1071
       99
1000
#$AUX@_TCDO_GTYPE
1070
           3
1071
        1
1000
#$AUX@_TCDO_VISIBILITY
1070
           3
1071
        0
1002
}
  0
LINE
  5
138
100
AcDbEntity
  8
図
370
         100
  6
Continuous
 62
           7
100
AcDbLine
 10
171.15
 20
87.7
 30
0.0
 11
171.15
 21
78.7
 31
0.0
1001
ACAD
1000
TCW40_DEV_WIDTH
1002
{
1040
0.039370078593
1002
}
1001
TCAD
1000
TCW_CUSTOM_DATA
1002
{
1000
#$AUX@_TCDO_SOURCE_COLOR
1070
           3
1071
        0
1000
#$AUX@_TCDO_PARENT_ID
1070
           3
1071
       99
1000
#$AUX@_TCDO_GTYPE
1070
           3
1071
        1
1000
#$AUX@_TCDO_VISIBILITY
1070
           3
1071
        0
1002
}
  0
ARC
  5
139
100
AcDbEntity
  8
図
370
         100
  6
Continuous
 62
           7
100
AcDbCircle
 10
172.65
 20
87.7
 30
0.0
 40
1.5
100
AcDbArc
 50
111.039469780955
 51
180.0
1001
ACAD
1000
TCW40_DEV_WIDTH
1002
{
1040
0.039370078593
1002
}
1001
TCAD
1000
TCW_CUSTOM_DATA
1002
{
1000
#$AUX@_TCDO_SOURCE_COLOR
1070
           3
1071
        0
1000
#$AUX@_TCDO_PARENT_ID
1070
           3
1071
       99
1000
#$AUX@_TCDO_GTYPE
1070
           3
1071
        1
1000
#$AUX@_TCDO_VISIBILITY
1070
           3
1071
        0
1002
}
  0
LINE
  5
13A
100
AcDbEntity
  8
図
370
         100
  6
Continuous
 62
           7
100
AcDbLine
 10
172.65
 20
89.100000000003
 30
0.0
 11
172.111483519295
 21
89.100000000003
 31
0.0
1001
ACAD
1000
TCW40_DEV_WIDTH
1002
{
1040
0.039370078593
1002
}
1001
TCAD
1000
TCW_CUSTOM_DATA
1002
{
1000
#$AUX@_TCDO_SOURCE_COLOR
1070
           3
1071
        0
1000
#$AUX@_TCDO_PARENT_ID
1070
           3
1071
       99
1000
#$AUX@_TCDO_GTYPE
1070
           3
1071
        0
1000
#$AUX@_TCDO_VISIBILITY
1070
           3
1071
        0
1002
}
  0
ARC
  5
13B
100
AcDbEntity
  8
図
370
         100
  6
Continuous
 62
           7
100
AcDbCircle
 10
172.65
 20
87.7
 30
0.0
 40
1.5
100
AcDbArc
 50
90.0
 51
111.039469780954
1001
ACAD
1000
TCW40_DEV_WIDTH
1002
{
1040
0.039370078593
1002
}
1001
TCAD
1000
TCW_CUSTOM_DATA
1002
{
1000
#$AUX@_TCDO_SOURCE_COLOR
1070
           3
1071
        0
1000
#$AUX@_TCDO_PARENT_ID
1070
           3
1071
       99
1000
#$AUX@_TCDO_GTYPE
1070
           3
1071
        1
1000
#$AUX@_TCDO_VISIBILITY
1070
           3
1071
        0
1002
}
  0
LINE
  5
13C
100
AcDbEntity
  8
図
370
         100
  6
Continuous
 62
           7
100
AcDbLine
 10
172.65
 20
84.3
 30
0.0
 11
172.65
 21
84.5
 31
0.0
1001
ACAD
1000
TCW40_DEV_WIDTH
1002
{
1040
0.039370078593
1002
}
1001
TCAD
1000
TCW_CUSTOM_DATA
1002
{
1000
#$AUX@_TCDO_SOURCE_COLOR
1070
           3
1071
        0
1000
#$AUX@_TCDO_PARENT_ID
1070
           3
1071
       99
1000
#$AUX@_TCDO_GTYPE
1070
           3
1071
        1
1000
#$AUX@_TCDO_VISIBILITY
1070
           3
1071
        0
1002
}
  0
LINE
  5
13D
100
AcDbEntity
  8
図
370
         100
  6
Continuous
 62
           7
100
AcDbLine
 10
172.65
 20
84.3
 30
0.0
 11
172.65
 21
84.5
 31
0.0
1001
ACAD
1000
TCW40_DEV_WIDTH
1002
{
1040
0.039370078593
1002
}
1001
TCAD
1000
TCW_CUSTOM_DATA
1002
{
1000
#$AUX@_TCDO_SOURCE_COLOR
1070
           3
1071
        0
1000
#$AUX@_TCDO_PARENT_ID
1070
           3
1071
       99
1000
#$AUX@_TCDO_GTYPE
1070
           3
1071
        1
1000
#$AUX@_TCDO_VISIBILITY
1070
           3
1071
        0
1002
}
  0
LINE
  5
13E
100
AcDbEntity
  8
図
370
         100
  6
Continuous
 62
           7
100
AcDbLine
 10
195.65
 20
96.5
 30
0.0
 11
194.15
 21
96.5
 31
0.0
1001
ACAD
1000
TCW40_DEV_WIDTH
1002
{
1040
0.039370078593
1002
}
1001
TCAD
1000
TCW_CUSTOM_DATA
1002
{
1000
#$AUX@_TCDO_SOURCE_COLOR
1070
           3
1071
        0
1000
#$AUX@_TCDO_PARENT_ID
1070
           3
1071
       99
1000
#$AUX@_TCDO_GTYPE
1070
           3
1071
        0
1000
#$AUX@_TCDO_VISIBILITY
1070
           3
1071
        0
1002
}
  0
LINE
  5
13F
100
AcDbEntity
  8
図
370
         100
  6
Continuous
 62
           7
100
AcDbLine
 10
194.15
 20
97.0
 30
0.0
 11
195.15
 21
97.0
 31
0.0
1001
ACAD
1000
TCW40_DEV_WIDTH
1002
{
1040
0.039370078593
1002
}
1001
TCAD
1000
TCW_CUSTOM_DATA
1002
{
1000
#$AUX@_TCDO_SOURCE_COLOR
1070
           3
1071
        0
1000
#$AUX@_TCDO_PARENT_ID
1070
           3
1071
       99
1000
#$AUX@_TCDO_GTYPE
1070
           3
1071
        1
1000
#$AUX@_TCDO_VISIBILITY
1070
           3
1071
        0
1002
}
  0
ARC
  5
140
100
AcDbEntity
  8
図
370
         100
  6
Continuous
 62
           7
100
AcDbCircle
 10
195.15
 20
96.5
 30
0.0
 40
0.5
100
AcDbArc
 50
0.0
 51
90.0
1001
ACAD
1000
TCW40_DEV_WIDTH
1002
{
1040
0.039370078593
1002
}
1001
TCAD
1000
TCW_CUSTOM_DATA
1002
{
1000
#$AUX@_TCDO_SOURCE_COLOR
1070
           3
1071
        0
1000
#$AUX@_TCDO_PARENT_ID
1070
           3
1071
       99
1000
#$AUX@_TCDO_GTYPE
1070
           3
1071
        1
1000
#$AUX@_TCDO_VISIBILITY
1070
           3
1071
        0
1002
}
  0
LINE
  5
141
100
AcDbEntity
  8
図
370
         100
  6
Continuous
 62
           7
100
AcDbLine
 10
194.15
 20
97.0
 30
0.0
 11
174.15
 21
97.0
 31
0.0
1001
ACAD
1000
TCW40_DEV_WIDTH
1002
{
1040
0.039370078593
1002
}
1001
TCAD
1000
TCW_CUSTOM_DATA
1002
{
1000
#$AUX@_TCDO_SOURCE_COLOR
1070
           3
1071
        0
1000
#$AUX@_TCDO_PARENT_ID
1070
           3
1071
       99
1000
#$AUX@_TCDO_GTYPE
1070
           3
1071
        1
1000
#$AUX@_TCDO_VISIBILITY
1070
           3
1071
        0
1002
}
  0
LINE
  5
142
100
AcDbEntity
  8
図
370
         100
  6
Continuous
 62
           7
100
AcDbLine
 10
194.15
 20
97.0
 30
0.0
 11
194.15
 21
96.5
 31
0.0
1001
ACAD
1000
TCW40_DEV_WIDTH
1002
{
1040
0.039370078593
1002
}
1001
TCAD
1000
TCW_CUSTOM_DATA
1002
{
1000
#$AUX@_TCDO_SOURCE_COLOR
1070
           3
1071
        0
1000
#$AUX@_TCDO_PARENT_ID
1070
           3
1071
       99
1000
#$AUX@_TCDO_GTYPE
1070
           3
1071
        0
1000
#$AUX@_TCDO_VISIBILITY
1070
           3
1071
        0
1002
}
  0
ARC
  5
143
100
AcDbEntity
  8
図
370
         100
  6
Continuous
 62
           7
100
AcDbCircle
 10
173.15
 20
96.5
 30
0.0
 40
0.5
100
AcDbArc
 50
90.0
 51
180.0
1001
ACAD
1000
TCW40_DEV_WIDTH
1002
{
1040
0.039370078593
1002
}
1001
TCAD
1000
TCW_CUSTOM_DATA
1002
{
1000
#$AUX@_TCDO_SOURCE_COLOR
1070
           3
1071
        0
1000
#$AUX@_TCDO_PARENT_ID
1070
           3
1071
       99
1000
#$AUX@_TCDO_GTYPE
1070
           3
1071
        1
1000
#$AUX@_TCDO_VISIBILITY
1070
           3
1071
        0
1002
}
  0
LINE
  5
144
100
AcDbEntity
  8
図
370
         100
  6
Continuous
 62
           7
100
AcDbLine
 10
173.15
 20
97.0
 30
0.0
 11
174.15
 21
97.0
 31
0.0
1001
ACAD
1000
TCW40_DEV_WIDTH
1002
{
1040
0.039370078593
1002
}
1001
TCAD
1000
TCW_CUSTOM_DATA
1002
{
1000
#$AUX@_TCDO_SOURCE_COLOR
1070
           3
1071
        0
1000
#$AUX@_TCDO_PARENT_ID
1070
           3
1071
       99
1000
#$AUX@_TCDO_GTYPE
1070
           3
1071
        1
1000
#$AUX@_TCDO_VISIBILITY
1070
           3
1071
        0
1002
}
  0
LINE
  5
145
100
AcDbEntity
  8
図
370
         100
  6
Continuous
 62
           7
100
AcDbLine
 10
174.15
 20
97.0
 30
0.0
 11
174.15
 21
96.5
 31
0.0
1001
ACAD
1000
TCW40_DEV_WIDTH
1002
{
1040
0.039370078593
1002
}
1001
TCAD
1000
TCW_CUSTOM_DATA
1002
{
1000
#$AUX@_TCDO_SOURCE_COLOR
1070
           3
1071
        0
1000
#$AUX@_TCDO_PARENT_ID
1070
           3
1071
       99
1000
#$AUX@_TCDO_GTYPE
1070
           3
1071
        0
1000
#$AUX@_TCDO_VISIBILITY
1070
           3
1071
        0
1002
}
  0
LINE
  5
146
100
AcDbEntity
  8
図
370
         100
  6
Continuous
 62
           7
100
AcDbLine
 10
167.15
 20
99.2
 30
0.0
 11
173.15
 21
99.2
 31
0.0
1001
ACAD
1000
TCW40_DEV_WIDTH
1002
{
1040
0.039370078593
1002
}
1001
TCAD
1000
TCW_CUSTOM_DATA
1002
{
1000
#$AUX@_TCDO_SOURCE_COLOR
1070
           3
1071
        0
1000
#$AUX@_TCDO_PARENT_ID
1070
           3
1071
       99
1000
#$AUX@_TCDO_GTYPE
1070
           3
1071
        1
1000
#$AUX@_TCDO_VISIBILITY
1070
           3
1071
        0
1002
}
  0
ARC
  5
147
100
AcDbEntity
  8
図
370
         100
  6
Continuous
 62
           7
100
AcDbCircle
 10
166.65
 20
91.2
 30
0.0
 40
6.0
100
AcDbArc
 50
0.0
 51
90.0
1001
ACAD
1000
TCW40_DEV_WIDTH
1002
{
1040
0.039370078593
1002
}
1001
TCAD
1000
TCW_CUSTOM_DATA
1002
{
1000
#$AUX@_TCDO_SOURCE_COLOR
1070
           3
1071
        0
1000
#$AUX@_TCDO_PARENT_ID
1070
           3
1071
       99
1000
#$AUX@_TCDO_GTYPE
1070
           3
1071
        1
1000
#$AUX@_TCDO_VISIBILITY
1070
           3
1071
        0
1002
}
  0
LINE
  5
148
100
AcDbEntity
  8
図
370
         100
  6
Continuous
 62
           7
100
AcDbLine
 10
166.65
 20
97.2
 30
0.0
 11
166.65
 21
98.7
 31
0.0
1001
ACAD
1000
TCW40_DEV_WIDTH
1002
{
1040
0.039370078593
1002
}
1001
TCAD
1000
TCW_CUSTOM_DATA
1002
{
1000
#$AUX@_TCDO_SOURCE_COLOR
1070
           3
1071
        0
1000
#$AUX@_TCDO_PARENT_ID
1070
           3
1071
       99
1000
#$AUX@_TCDO_GTYPE
1070
           3
1071
        1
1000
#$AUX@_TCDO_VISIBILITY
1070
           3
1071
        0
1002
}
  0
ARC
  5
149
100
AcDbEntity
  8
図
370
         100
  6
Continuous
 62
           7
100
AcDbCircle
 10
167.15
 20
98.7
 30
0.0
 40
0.5
100
AcDbArc
 50
90.0
 51
180.0
1001
ACAD
1000
TCW40_DEV_WIDTH
1002
{
1040
0.039370078593
1002
}
1001
TCAD
1000
TCW_CUSTOM_DATA
1002
{
1000
#$AUX@_TCDO_SOURCE_COLOR
1070
           3
1071
        0
1000
#$AUX@_TCDO_PARENT_ID
1070
           3
1071
       99
1000
#$AUX@_TCDO_GTYPE
1070
           3
1071
        1
1000
#$AUX@_TCDO_VISIBILITY
1070
           3
1071
        0
1002
}
  0
ARC
  5
14A
100
AcDbEntity
  8
図
370
         100
  6
Continuous
 62
           7
100
AcDbCircle
 10
173.65
 20
99.2
 30
0.0
 40
1.0
100
AcDbArc
 50
90.0
 51
180.000000000003
1001
ACAD
1000
TCW40_DEV_WIDTH
1002
{
1040
0.039370078593
1002
}
1001
TCAD
1000
TCW_CUSTOM_DATA
1002
{
1000
#$AUX@_TCDO_SOURCE_COLOR
1070
           3
1071
        0
1000
#$AUX@_TCDO_PARENT_ID
1070
           3
1071
       99
1000
#$AUX@_TCDO_GTYPE
1070
           3
1071
        1
1000
#$AUX@_TCDO_VISIBILITY
1070
           3
1071
        0
1002
}
  0
ARC
  5
14B
100
AcDbEntity
  8
図
370
         100
  6
Continuous
 62
           7
100
AcDbCircle
 10
173.65
 20
99.2
 30
0.0
 40
0.5
100
AcDbArc
 50
90.0
 51
180.000000000007
1001
ACAD
1000
TCW40_DEV_WIDTH
1002
{
1040
0.039370078593
1002
}
1001
TCAD
1000
TCW_CUSTOM_DATA
1002
{
1000
#$AUX@_TCDO_SOURCE_COLOR
1070
           3
1071
        0
1000
#$AUX@_TCDO_PARENT_ID
1070
           3
1071
       99
1000
#$AUX@_TCDO_GTYPE
1070
           3
1071
        0
1000
#$AUX@_TCDO_VISIBILITY
1070
           3
1071
        0
1002
}
  0
LINE
  5
14C
100
AcDbEntity
  8
図
370
         100
  6
Continuous
 62
           7
100
AcDbLine
 10
195.15
 20
99.2
 30
0.0
 11
195.15
 21
97.0
 31
0.0
1001
ACAD
1000
TCW40_DEV_WIDTH
1002
{
1040
0.039370078593
1002
}
1001
TCAD
1000
TCW_CUSTOM_DATA
1002
{
1000
#$AUX@_TCDO_SOURCE_COLOR
1070
           3
1071
        0
1000
#$AUX@_TCDO_PARENT_ID
1070
           3
1071
       99
1000
#$AUX@_TCDO_GTYPE
1070
           3
1071
        0
1000
#$AUX@_TCDO_VISIBILITY
1070
           3
1071
        0
1002
}
  0
LINE
  5
14D
100
AcDbEntity
  8
図
370
         100
  6
Continuous
 62
           7
100
AcDbLine
 10
173.65
 20
99.7
 30
0.0
 11
194.65
 21
99.7
 31
0.0
1001
ACAD
1000
TCW40_DEV_WIDTH
1002
{
1040
0.039370078593
1002
}
1001
TCAD
1000
TCW_CUSTOM_DATA
1002
{
1000
#$AUX@_TCDO_SOURCE_COLOR
1070
           3
1071
        0
1000
#$AUX@_TCDO_PARENT_ID
1070
           3
1071
       99
1000
#$AUX@_TCDO_GTYPE
1070
           3
1071
        0
1000
#$AUX@_TCDO_VISIBILITY
1070
           3
1071
        0
1002
}
  0
LINE
  5
14E
100
AcDbEntity
  8
図
370
         100
  6
Continuous
 62
           7
100
AcDbLine
 10
173.65
 20
99.7
 30
0.0
 11
173.65
 21
100.2
 31
0.0
1001
ACAD
1000
TCW40_DEV_WIDTH
1002
{
1040
0.039370078593
1002
}
1001
TCAD
1000
TCW_CUSTOM_DATA
1002
{
1000
#$AUX@_TCDO_SOURCE_COLOR
1070
           3
1071
        0
1000
#$AUX@_TCDO_PARENT_ID
1070
           3
1071
       99
1000
#$AUX@_TCDO_GTYPE
1070
           3
1071
        0
1000
#$AUX@_TCDO_VISIBILITY
1070
           3
1071
        0
1002
}
  0
ARC
  5
14F
100
AcDbEntity
  8
図
370
         100
  6
Continuous
 62
           7
100
AcDbCircle
 10
194.65
 20
99.2
 30
0.0
 40
1.0
100
AcDbArc
 50
0.0
 51
90.0
1001
ACAD
1000
TCW40_DEV_WIDTH
1002
{
1040
0.039370078593
1002
}
1001
TCAD
1000
TCW_CUSTOM_DATA
1002
{
1000
#$AUX@_TCDO_SOURCE_COLOR
1070
           3
1071
        0
1000
#$AUX@_TCDO_PARENT_ID
1070
           3
1071
       99
1000
#$AUX@_TCDO_GTYPE
1070
           3
1071
        1
1000
#$AUX@_TCDO_VISIBILITY
1070
           3
1071
        0
1002
}
  0
LINE
  5
150
100
AcDbEntity
  8
図
370
         100
  6
Continuous
 62
           7
100
AcDbLine
 10
195.65
 20
99.2
 30
0.0
 11
195.15
 21
99.2
 31
0.0
1001
ACAD
1000
TCW40_DEV_WIDTH
1002
{
1040
0.039370078593
1002
}
1001
TCAD
1000
TCW_CUSTOM_DATA
1002
{
1000
#$AUX@_TCDO_SOURCE_COLOR
1070
           3
1071
        0
1000
#$AUX@_TCDO_PARENT_ID
1070
           3
1071
       99
1000
#$AUX@_TCDO_GTYPE
1070
           3
1071
        0
1000
#$AUX@_TCDO_VISIBILITY
1070
           3
1071
        0
1002
}
  0
ARC
  5
151
100
AcDbEntity
  8
図
370
         100
  6
Continuous
 62
           7
100
AcDbCircle
 10
194.65
 20
99.2
 30
0.0
 40
0.5
100
AcDbArc
 50
0.0
 51
90.0
1001
ACAD
1000
TCW40_DEV_WIDTH
1002
{
1040
0.039370078593
1002
}
1001
TCAD
1000
TCW_CUSTOM_DATA
1002
{
1000
#$AUX@_TCDO_SOURCE_COLOR
1070
           3
1071
        0
1000
#$AUX@_TCDO_PARENT_ID
1070
           3
1071
       99
1000
#$AUX@_TCDO_GTYPE
1070
           3
1071
        0
1000
#$AUX@_TCDO_VISIBILITY
1070
           3
1071
        0
1002
}
  0
LINE
  5
152
100
AcDbEntity
  8
図
370
         100
  6
Continuous
 62
           7
100
AcDbLine
 10
194.65
 20
99.7
 30
0.0
 11
194.65
 21
100.2
 31
0.0
1001
ACAD
1000
TCW40_DEV_WIDTH
1002
{
1040
0.039370078593
1002
}
1001
TCAD
1000
TCW_CUSTOM_DATA
1002
{
1000
#$AUX@_TCDO_SOURCE_COLOR
1070
           3
1071
        0
1000
#$AUX@_TCDO_PARENT_ID
1070
           3
1071
       99
1000
#$AUX@_TCDO_GTYPE
1070
           3
1071
        0
1000
#$AUX@_TCDO_VISIBILITY
1070
           3
1071
        0
1002
}
  0
LINE
  5
153
100
AcDbEntity
  8
図
370
         100
  6
Continuous
 62
           7
100
AcDbLine
 10
194.65
 20
100.2
 30
0.0
 11
173.65
 21
100.2
 31
0.0
1001
ACAD
1000
TCW40_DEV_WIDTH
1002
{
1040
0.039370078593
1002
}
1001
TCAD
1000
TCW_CUSTOM_DATA
1002
{
1000
#$AUX@_TCDO_SOURCE_COLOR
1070
           3
1071
        0
1000
#$AUX@_TCDO_PARENT_ID
1070
           3
1071
       99
1000
#$AUX@_TCDO_GTYPE
1070
           3
1071
        1
1000
#$AUX@_TCDO_VISIBILITY
1070
           3
1071
        0
1002
}
  0
LINE
  5
154
100
AcDbEntity
  8
図
370
         100
  6
Continuous
 62
           7
100
AcDbLine
 10
174.15
 20
96.5
 30
0.0
 11
194.15
 21
96.5
 31
0.0
1001
ACAD
1000
TCW40_DEV_WIDTH
1002
{
1040
0.039370078593
1002
}
1001
TCAD
1000
TCW_CUSTOM_DATA
1002
{
1000
#$AUX@_TCDO_SOURCE_COLOR
1070
           3
1071
        0
1000
#$AUX@_TCDO_PARENT_ID
1070
           3
1071
       99
1000
#$AUX@_TCDO_GTYPE
1070
           3
1071
        0
1000
#$AUX@_TCDO_VISIBILITY
1070
           3
1071
        0
1002
}
  0
LINE
  5
155
100
AcDbEntity
  8
図
370
         100
  6
Continuous
 62
           7
100
AcDbLine
 10
194.15
 20
96.5
 30
0.0
 11
194.15
 21
84.5
 31
0.0
1001
ACAD
1000
TCW40_DEV_WIDTH
1002
{
1040
0.039370078593
1002
}
1001
TCAD
1000
TCW_CUSTOM_DATA
1002
{
1000
#$AUX@_TCDO_SOURCE_COLOR
1070
           3
1071
        0
1000
#$AUX@_TCDO_PARENT_ID
1070
           3
1071
       99
1000
#$AUX@_TCDO_GTYPE
1070
           3
1071
        0
1000
#$AUX@_TCDO_VISIBILITY
1070
           3
1071
        0
1002
}
  0
LINE
  5
156
100
AcDbEntity
  8
図
370
         100
  6
Continuous
 62
           7
100
AcDbLine
 10
189.049999999997
 20
87.700000000001
 30
0.0
 11
189.049999999997
 21
84.5
 31
0.0
1001
ACAD
1000
TCW40_DEV_WIDTH
1002
{
1040
0.039370078593
1002
}
1001
TCAD
1000
TCW_CUSTOM_DATA
1002
{
1000
#$AUX@_TCDO_SOURCE_COLOR
1070
           3
1071
        0
1000
#$AUX@_TCDO_PARENT_ID
1070
           3
1071
       99
1000
#$AUX@_TCDO_GTYPE
1070
           3
1071
        1
1000
#$AUX@_TCDO_VISIBILITY
1070
           3
1071
        0
1002
}
  0
ARC
  5
157
100
AcDbEntity
  8
図
370
         100
  6
Continuous
 62
           7
100
AcDbCircle
 10
184.149999999997
 20
87.700000000001
 30
0.0
 40
4.9
100
AcDbArc
 50
0.0
 51
180.0
1001
ACAD
1000
TCW40_DEV_WIDTH
1002
{
1040
0.039370078593
1002
}
1001
TCAD
1000
TCW_CUSTOM_DATA
1002
{
1000
#$AUX@_TCDO_SOURCE_COLOR
1070
           3
1071
        0
1000
#$AUX@_TCDO_PARENT_ID
1070
           3
1071
       99
1000
#$AUX@_TCDO_GTYPE
1070
           3
1071
        1
1000
#$AUX@_TCDO_VISIBILITY
1070
           3
1071
        0
1002
}
  0
LINE
  5
158
100
AcDbEntity
  8
図
370
         100
  6
Continuous
 62
           7
100
AcDbLine
 10
179.249999999997
 20
84.5
 30
0.0
 11
179.249999999997
 21
87.700000000001
 31
0.0
1001
ACAD
1000
TCW40_DEV_WIDTH
1002
{
1040
0.039370078593
1002
}
1001
TCAD
1000
TCW_CUSTOM_DATA
1002
{
1000
#$AUX@_TCDO_SOURCE_COLOR
1070
           3
1071
        0
1000
#$AUX@_TCDO_PARENT_ID
1070
           3
1071
       99
1000
#$AUX@_TCDO_GTYPE
1070
           3
1071
        1
1000
#$AUX@_TCDO_VISIBILITY
1070
           3
1071
        0
1002
}
  0
LINE
  5
159
100
AcDbEntity
  8
図
370
         100
  6
Continuous
 62
           7
100
AcDbLine
 10
174.15
 20
96.5
 30
0.0
 11
172.65
 21
96.5
 31
0.0
1001
ACAD
1000
TCW40_DEV_WIDTH
1002
{
1040
0.039370078593
1002
}
1001
TCAD
1000
TCW_CUSTOM_DATA
1002
{
1000
#$AUX@_TCDO_SOURCE_COLOR
1070
           3
1071
        0
1000
#$AUX@_TCDO_PARENT_ID
1070
           3
1071
       99
1000
#$AUX@_TCDO_GTYPE
1070
           3
1071
        0
1000
#$AUX@_TCDO_VISIBILITY
1070
           3
1071
        0
1002
}
  0
LINE
  5
15A
100
AcDbEntity
  8
図
370
         100
  6
Continuous
 62
           7
100
AcDbLine
 10
174.15
 20
84.5
 30
0.0
 11
174.15
 21
96.5
 31
0.0
1001
ACAD
1000
TCW40_DEV_WIDTH
1002
{
1040
0.039370078593
1002
}
1001
TCAD
1000
TCW_CUSTOM_DATA
1002
{
1000
#$AUX@_TCDO_SOURCE_COLOR
1070
           3
1071
        0
1000
#$AUX@_TCDO_PARENT_ID
1070
           3
1071
       99
1000
#$AUX@_TCDO_GTYPE
1070
           3
1071
        0
1000
#$AUX@_TCDO_VISIBILITY
1070
           3
1071
        0
1002
}
  0
LINE
  5
15B
100
AcDbEntity
  8
図
370
         100
  6
Continuous
 62
           7
100
AcDbLine
 10
172.65
 20
96.5
 30
0.0
 11
172.65
 21
84.5
 31
0.0
1001
ACAD
1000
TCW40_DEV_WIDTH
1002
{
1040
0.039370078593
1002
}
1001
TCAD
1000
TCW_CUSTOM_DATA
1002
{
1000
#$AUX@_TCDO_SOURCE_COLOR
1070
           3
1071
        0
1000
#$AUX@_TCDO_PARENT_ID
1070
           3
1071
       99
1000
#$AUX@_TCDO_GTYPE
1070
           3
1071
        1
1000
#$AUX@_TCDO_VISIBILITY
1070
           3
1071
        0
1002
}
  0
LINE
  5
15C
100
AcDbEntity
  8
図
370
         100
  6
Continuous
 62
           7
100
AcDbLine
 10
172.65
 20
84.5
 30
0.0
 11
174.15
 21
84.5
 31
0.0
1001
ACAD
1000
TCW40_DEV_WIDTH
1002
{
1040
0.039370078593
1002
}
1001
TCAD
1000
TCW_CUSTOM_DATA
1002
{
1000
#$AUX@_TCDO_SOURCE_COLOR
1070
           3
1071
        0
1000
#$AUX@_TCDO_PARENT_ID
1070
           3
1071
       99
1000
#$AUX@_TCDO_GTYPE
1070
           3
1071
        1
1000
#$AUX@_TCDO_VISIBILITY
1070
           3
1071
        0
1002
}
  0
LINE
  5
15D
100
AcDbEntity
  8
図
370
         100
  6
Continuous
 62
           7
100
AcDbLine
 10
179.249999999997
 20
84.5
 30
0.0
 11
174.15
 21
84.5
 31
0.0
1001
ACAD
1000
TCW40_DEV_WIDTH
1002
{
1040
0.039370078593
1002
}
1001
TCAD
1000
TCW_CUSTOM_DATA
1002
{
1000
#$AUX@_TCDO_SOURCE_COLOR
1070
           3
1071
        0
1000
#$AUX@_TCDO_PARENT_ID
1070
           3
1071
       99
1000
#$AUX@_TCDO_GTYPE
1070
           3
1071
        1
1000
#$AUX@_TCDO_VISIBILITY
1070
           3
1071
        0
1002
}
  0
LINE
  5
15E
100
AcDbEntity
  8
図
370
         100
  6
Continuous
 62
           7
100
AcDbLine
 10
195.65
 20
84.5
 30
0.0
 11
195.65
 21
96.5
 31
0.0
1001
ACAD
1000
TCW40_DEV_WIDTH
1002
{
1040
0.039370078593
1002
}
1001
TCAD
1000
TCW_CUSTOM_DATA
1002
{
1000
#$AUX@_TCDO_SOURCE_COLOR
1070
           3
1071
        0
1000
#$AUX@_TCDO_PARENT_ID
1070
           3
1071
       99
1000
#$AUX@_TCDO_GTYPE
1070
           3
1071
        1
1000
#$AUX@_TCDO_VISIBILITY
1070
           3
1071
        0
1002
}
  0
LINE
  5
15F
100
AcDbEntity
  8
図
370
         100
  6
Continuous
 62
           7
100
AcDbLine
 10
195.65
 20
96.5
 30
0.0
 11
195.65
 21
99.2
 31
0.0
1001
ACAD
1000
TCW40_DEV_WIDTH
1002
{
1040
0.039370078593
1002
}
1001
TCAD
1000
TCW_CUSTOM_DATA
1002
{
1000
#$AUX@_TCDO_SOURCE_COLOR
1070
           3
1071
        0
1000
#$AUX@_TCDO_PARENT_ID
1070
           3
1071
       99
1000
#$AUX@_TCDO_GTYPE
1070
           3
1071
        1
1000
#$AUX@_TCDO_VISIBILITY
1070
           3
1071
        0
1002
}
  0
LINE
  5
160
100
AcDbEntity
  8
図
370
         100
  6
Continuous
 62
           7
100
AcDbLine
 10
194.15
 20
84.5
 30
0.0
 11
189.049999999997
 21
84.5
 31
0.0
1001
ACAD
1000
TCW40_DEV_WIDTH
1002
{
1040
0.039370078593
1002
}
1001
TCAD
1000
TCW_CUSTOM_DATA
1002
{
1000
#$AUX@_TCDO_SOURCE_COLOR
1070
           3
1071
        0
1000
#$AUX@_TCDO_PARENT_ID
1070
           3
1071
       99
1000
#$AUX@_TCDO_GTYPE
1070
           3
1071
        1
1000
#$AUX@_TCDO_VISIBILITY
1070
           3
1071
        0
1002
}
  0
LINE
  5
161
100
AcDbEntity
  8
図
370
         100
  6
Continuous
 62
           7
100
AcDbLine
 10
194.15
 20
84.5
 30
0.0
 11
195.65
 21
84.5
 31
0.0
1001
ACAD
1000
TCW40_DEV_WIDTH
1002
{
1040
0.039370078593
1002
}
1001
TCAD
1000
TCW_CUSTOM_DATA
1002
{
1000
#$AUX@_TCDO_SOURCE_COLOR
1070
           3
1071
        0
1000
#$AUX@_TCDO_PARENT_ID
1070
           3
1071
       99
1000
#$AUX@_TCDO_GTYPE
1070
           3
1071
        1
1000
#$AUX@_TCDO_VISIBILITY
1070
           3
1071
        0
1002
}
  0
LINE
  5
162
100
AcDbEntity
  8
図
370
         100
  6
Continuous
 62
           7
100
AcDbLine
 10
179.15
 20
150.3
 30
0.0
 11
179.15
 21
149.1
 31
0.0
1001
ACAD
1000
TCW40_DEV_WIDTH
1002
{
1040
0.039370078593
1002
}
1001
TCAD
1000
TCW_CUSTOM_DATA
1002
{
1000
#$AUX@_TCDO_SOURCE_COLOR
1070
           3
1071
        0
1000
#$AUX@_TCDO_PARENT_ID
1070
           3
1071
      307
1000
#$AUX@_TCDO_GTYPE
1070
           3
1071
        1
1000
#$AUX@_TCDO_VISIBILITY
1070
           3
1071
        0
1002
}
  0
LINE
  5
163
100
AcDbEntity
  8
図
370
         100
  6
Continuous
 62
           7
100
AcDbLine
 10
180.15
 20
149.1
 30
0.0
 11
180.15
 21
150.3
 31
0.0
1001
ACAD
1000
TCW40_DEV_WIDTH
1002
{
1040
0.039370078593
1002
}
1001
TCAD
1000
TCW_CUSTOM_DATA
1002
{
1000
#$AUX@_TCDO_SOURCE_COLOR
1070
           3
1071
        0
1000
#$AUX@_TCDO_PARENT_ID
1070
           3
1071
      307
1000
#$AUX@_TCDO_GTYPE
1070
           3
1071
        0
1000
#$AUX@_TCDO_VISIBILITY
1070
           3
1071
        0
1002
}
  0
LINE
  5
164
100
AcDbEntity
  8
図
370
         100
  6
Continuous
 62
           7
100
AcDbLine
 10
188.15
 20
150.3
 30
0.0
 11
188.15
 21
149.1
 31
0.0
1001
ACAD
1000
TCW40_DEV_WIDTH
1002
{
1040
0.039370078593
1002
}
1001
TCAD
1000
TCW_CUSTOM_DATA
1002
{
1000
#$AUX@_TCDO_SOURCE_COLOR
1070
           3
1071
        0
1000
#$AUX@_TCDO_PARENT_ID
1070
           3
1071
      307
1000
#$AUX@_TCDO_GTYPE
1070
           3
1071
        0
1000
#$AUX@_TCDO_VISIBILITY
1070
           3
1071
        0
1002
}
  0
LINE
  5
165
100
AcDbEntity
  8
図
370
         100
  6
Continuous
 62
           7
100
AcDbLine
 10
188.15
 20
150.3
 30
0.0
 11
189.15
 21
150.3
 31
0.0
1001
ACAD
1000
TCW40_DEV_WIDTH
1002
{
1040
0.039370078593
1002
}
1001
TCAD
1000
TCW_CUSTOM_DATA
1002
{
1000
#$AUX@_TCDO_SOURCE_COLOR
1070
           3
1071
        0
1000
#$AUX@_TCDO_PARENT_ID
1070
           3
1071
      307
1000
#$AUX@_TCDO_GTYPE
1070
           3
1071
        1
1000
#$AUX@_TCDO_VISIBILITY
1070
           3
1071
        0
1002
}
  0
LINE
  5
166
100
AcDbEntity
  8
図
370
         100
  6
Continuous
 62
           7
100
AcDbLine
 10
180.15
 20
150.3
 30
0.0
 11
180.35
 21
150.3
 31
0.0
1001
ACAD
1000
TCW40_DEV_WIDTH
1002
{
1040
0.039370078593
1002
}
1001
TCAD
1000
TCW_CUSTOM_DATA
1002
{
1000
#$AUX@_TCDO_SOURCE_COLOR
1070
           3
1071
        0
1000
#$AUX@_TCDO_PARENT_ID
1070
           3
1071
      307
1000
#$AUX@_TCDO_GTYPE
1070
           3
1071
        1
1000
#$AUX@_TCDO_VISIBILITY
1070
           3
1071
        0
1002
}
  0
LINE
  5
167
100
AcDbEntity
  8
図
370
         100
  6
Continuous
 62
           7
100
AcDbLine
 10
181.35
 20
150.3
 30
0.0
 11
186.95
 21
150.3
 31
0.0
1001
ACAD
1000
TCW40_DEV_WIDTH
1002
{
1040
0.039370078593
1002
}
1001
TCAD
1000
TCW_CUSTOM_DATA
1002
{
1000
#$AUX@_TCDO_SOURCE_COLOR
1070
           3
1071
        0
1000
#$AUX@_TCDO_PARENT_ID
1070
           3
1071
      307
1000
#$AUX@_TCDO_GTYPE
1070
           3
1071
        1
1000
#$AUX@_TCDO_VISIBILITY
1070
           3
1071
        0
1002
}
  0
LINE
  5
168
100
AcDbEntity
  8
図
370
         100
  6
Continuous
 62
           7
100
AcDbLine
 10
187.95
 20
150.3
 30
0.0
 11
188.15
 21
150.3
 31
0.0
1001
ACAD
1000
TCW40_DEV_WIDTH
1002
{
1040
0.039370078593
1002
}
1001
TCAD
1000
TCW_CUSTOM_DATA
1002
{
1000
#$AUX@_TCDO_SOURCE_COLOR
1070
           3
1071
        0
1000
#$AUX@_TCDO_PARENT_ID
1070
           3
1071
      307
1000
#$AUX@_TCDO_GTYPE
1070
           3
1071
        1
1000
#$AUX@_TCDO_VISIBILITY
1070
           3
1071
        0
1002
}
  0
LINE
  5
169
100
AcDbEntity
  8
図
370
         100
  6
Continuous
 62
           7
100
AcDbLine
 10
179.15
 20
150.3
 30
0.0
 11
180.15
 21
150.3
 31
0.0
1001
ACAD
1000
TCW40_DEV_WIDTH
1002
{
1040
0.039370078593
1002
}
1001
TCAD
1000
TCW_CUSTOM_DATA
1002
{
1000
#$AUX@_TCDO_SOURCE_COLOR
1070
           3
1071
        0
1000
#$AUX@_TCDO_PARENT_ID
1070
           3
1071
      307
1000
#$AUX@_TCDO_GTYPE
1070
           3
1071
        1
1000
#$AUX@_TCDO_VISIBILITY
1070
           3
1071
        0
1002
}
  0
LINE
  5
16A
100
AcDbEntity
  8
図
370
         100
  6
Continuous
 62
           7
100
AcDbLine
 10
189.15
 20
149.1
 30
0.0
 11
189.15
 21
150.3
 31
0.0
1001
ACAD
1000
TCW40_DEV_WIDTH
1002
{
1040
0.039370078593
1002
}
1001
TCAD
1000
TCW_CUSTOM_DATA
1002
{
1000
#$AUX@_TCDO_SOURCE_COLOR
1070
           3
1071
        0
1000
#$AUX@_TCDO_PARENT_ID
1070
           3
1071
      307
1000
#$AUX@_TCDO_GTYPE
1070
           3
1071
        1
1000
#$AUX@_TCDO_VISIBILITY
1070
           3
1071
        0
1002
}
  0
LINE
  5
16B
100
AcDbEntity
  8
図
370
         100
  6
Continuous
 62
           7
100
AcDbLine
 10
180.15
 20
123.5
 30
0.0
 11
180.15
 21
122.3
 31
0.0
1001
ACAD
1000
TCW40_DEV_WIDTH
1002
{
1040
0.039370078593
1002
}
1001
TCAD
1000
TCW_CUSTOM_DATA
1002
{
1000
#$AUX@_TCDO_SOURCE_COLOR
1070
           3
1071
        0
1000
#$AUX@_TCDO_PARENT_ID
1070
           3
1071
      307
1000
#$AUX@_TCDO_GTYPE
1070
           3
1071
        0
1000
#$AUX@_TCDO_VISIBILITY
1070
           3
1071
        0
1002
}
  0
LINE
  5
16C
100
AcDbEntity
  8
図
370
         100
  6
Continuous
 62
           7
100
AcDbLine
 10
179.15
 20
122.3
 30
0.0
 11
179.15
 21
123.5
 31
0.0
1001
ACAD
1000
TCW40_DEV_WIDTH
1002
{
1040
0.039370078593
1002
}
1001
TCAD
1000
TCW_CUSTOM_DATA
1002
{
1000
#$AUX@_TCDO_SOURCE_COLOR
1070
           3
1071
        0
1000
#$AUX@_TCDO_PARENT_ID
1070
           3
1071
      307
1000
#$AUX@_TCDO_GTYPE
1070
           3
1071
        1
1000
#$AUX@_TCDO_VISIBILITY
1070
           3
1071
        0
1002
}
  0
LINE
  5
16D
100
AcDbEntity
  8
図
370
         100
  6
Continuous
 62
           7
100
AcDbLine
 10
188.15
 20
122.3
 30
0.0
 11
188.15
 21
123.5
 31
0.0
1001
ACAD
1000
TCW40_DEV_WIDTH
1002
{
1040
0.039370078593
1002
}
1001
TCAD
1000
TCW_CUSTOM_DATA
1002
{
1000
#$AUX@_TCDO_SOURCE_COLOR
1070
           3
1071
        0
1000
#$AUX@_TCDO_PARENT_ID
1070
           3
1071
      307
1000
#$AUX@_TCDO_GTYPE
1070
           3
1071
        0
1000
#$AUX@_TCDO_VISIBILITY
1070
           3
1071
        0
1002
}
  0
LINE
  5
16E
100
AcDbEntity
  8
図
370
         100
  6
Continuous
 62
           7
100
AcDbLine
 10
179.15
 20
122.3
 30
0.0
 11
180.15
 21
122.3
 31
0.0
1001
ACAD
1000
TCW40_DEV_WIDTH
1002
{
1040
0.039370078593
1002
}
1001
TCAD
1000
TCW_CUSTOM_DATA
1002
{
1000
#$AUX@_TCDO_SOURCE_COLOR
1070
           3
1071
        0
1000
#$AUX@_TCDO_PARENT_ID
1070
           3
1071
      307
1000
#$AUX@_TCDO_GTYPE
1070
           3
1071
        1
1000
#$AUX@_TCDO_VISIBILITY
1070
           3
1071
        0
1002
}
  0
LINE
  5
16F
100
AcDbEntity
  8
図
370
         100
  6
Continuous
 62
           7
100
AcDbLine
 10
180.15
 20
122.3
 30
0.0
 11
180.35
 21
122.3
 31
0.0
1001
ACAD
1000
TCW40_DEV_WIDTH
1002
{
1040
0.039370078593
1002
}
1001
TCAD
1000
TCW_CUSTOM_DATA
1002
{
1000
#$AUX@_TCDO_SOURCE_COLOR
1070
           3
1071
        0
1000
#$AUX@_TCDO_PARENT_ID
1070
           3
1071
      307
1000
#$AUX@_TCDO_GTYPE
1070
           3
1071
        1
1000
#$AUX@_TCDO_VISIBILITY
1070
           3
1071
        0
1002
}
  0
LINE
  5
170
100
AcDbEntity
  8
図
370
         100
  6
Continuous
 62
           7
100
AcDbLine
 10
181.35
 20
122.3
 30
0.0
 11
186.95
 21
122.3
 31
0.0
1001
ACAD
1000
TCW40_DEV_WIDTH
1002
{
1040
0.039370078593
1002
}
1001
TCAD
1000
TCW_CUSTOM_DATA
1002
{
1000
#$AUX@_TCDO_SOURCE_COLOR
1070
           3
1071
        0
1000
#$AUX@_TCDO_PARENT_ID
1070
           3
1071
      307
1000
#$AUX@_TCDO_GTYPE
1070
           3
1071
        1
1000
#$AUX@_TCDO_VISIBILITY
1070
           3
1071
        0
1002
}
  0
LINE
  5
171
100
AcDbEntity
  8
図
370
         100
  6
Continuous
 62
           7
100
AcDbLine
 10
187.95
 20
122.3
 30
0.0
 11
188.15
 21
122.3
 31
0.0
1001
ACAD
1000
TCW40_DEV_WIDTH
1002
{
1040
0.039370078593
1002
}
1001
TCAD
1000
TCW_CUSTOM_DATA
1002
{
1000
#$AUX@_TCDO_SOURCE_COLOR
1070
           3
1071
        0
1000
#$AUX@_TCDO_PARENT_ID
1070
           3
1071
      307
1000
#$AUX@_TCDO_GTYPE
1070
           3
1071
        1
1000
#$AUX@_TCDO_VISIBILITY
1070
           3
1071
        0
1002
}
  0
LINE
  5
172
100
AcDbEntity
  8
図
370
         100
  6
Continuous
 62
           7
100
AcDbLine
 10
188.15
 20
122.3
 30
0.0
 11
189.15
 21
122.3
 31
0.0
1001
ACAD
1000
TCW40_DEV_WIDTH
1002
{
1040
0.039370078593
1002
}
1001
TCAD
1000
TCW_CUSTOM_DATA
1002
{
1000
#$AUX@_TCDO_SOURCE_COLOR
1070
           3
1071
        0
1000
#$AUX@_TCDO_PARENT_ID
1070
           3
1071
      307
1000
#$AUX@_TCDO_GTYPE
1070
           3
1071
        1
1000
#$AUX@_TCDO_VISIBILITY
1070
           3
1071
        0
1002
}
  0
LINE
  5
173
100
AcDbEntity
  8
図
370
         100
  6
Continuous
 62
           7
100
AcDbLine
 10
189.15
 20
123.5
 30
0.0
 11
189.15
 21
122.3
 31
0.0
1001
ACAD
1000
TCW40_DEV_WIDTH
1002
{
1040
0.039370078593
1002
}
1001
TCAD
1000
TCW_CUSTOM_DATA
1002
{
1000
#$AUX@_TCDO_SOURCE_COLOR
1070
           3
1071
        0
1000
#$AUX@_TCDO_PARENT_ID
1070
           3
1071
      307
1000
#$AUX@_TCDO_GTYPE
1070
           3
1071
        1
1000
#$AUX@_TCDO_VISIBILITY
1070
           3
1071
        0
1002
}
  0
LINE
  5
174
100
AcDbEntity
  8
図
370
         100
  6
Continuous
 62
           7
100
AcDbLine
 10
183.960120762028
 20
143.1
 30
0.0
 11
177.473709318838
 21
143.1
 31
0.0
1001
ACAD
1000
TCW40_DEV_WIDTH
1002
{
1040
0.039370078593
1002
}
1001
TCAD
1000
TCW_CUSTOM_DATA
1002
{
1000
#$AUX@_TCDO_SOURCE_COLOR
1070
           3
1071
        0
1000
#$AUX@_TCDO_PARENT_ID
1070
           3
1071
      211
1000
#$AUX@_TCDO_GTYPE
1070
           3
1071
        1
1000
#$AUX@_TCDO_VISIBILITY
1070
           3
1071
        0
1002
}
  0
LINE
  5
175
100
AcDbEntity
  8
図
370
         100
  6
Continuous
 62
           7
100
AcDbLine
 10
177.473709318838
 20
147.1
 30
0.0
 11
177.473709318838
 21
143.1
 31
0.0
1001
ACAD
1000
TCW40_DEV_WIDTH
1002
{
1040
0.039370078593
1002
}
1001
TCAD
1000
TCW_CUSTOM_DATA
1002
{
1000
#$AUX@_TCDO_SOURCE_COLOR
1070
           3
1071
        0
1000
#$AUX@_TCDO_PARENT_ID
1070
           3
1071
      211
1000
#$AUX@_TCDO_GTYPE
1070
           3
1071
        1
1000
#$AUX@_TCDO_VISIBILITY
1070
           3
1071
        0
1002
}
  0
LINE
  5
176
100
AcDbEntity
  8
図
370
         100
  6
Continuous
 62
           7
100
AcDbLine
 10
190.826290681163
 20
147.1
 30
0.0
 11
190.826290681163
 21
143.1
 31
0.0
1001
ACAD
1000
TCW40_DEV_WIDTH
1002
{
1040
0.039370078593
1002
}
1001
TCAD
1000
TCW_CUSTOM_DATA
1002
{
1000
#$AUX@_TCDO_SOURCE_COLOR
1070
           3
1071
        0
1000
#$AUX@_TCDO_PARENT_ID
1070
           3
1071
      211
1000
#$AUX@_TCDO_GTYPE
1070
           3
1071
        1
1000
#$AUX@_TCDO_VISIBILITY
1070
           3
1071
        0
1002
}
  0
LINE
  5
177
100
AcDbEntity
  8
図
370
         100
  6
Continuous
 62
           7
100
AcDbLine
 10
184.339879237976
 20
143.1
 30
0.0
 11
190.826290681163
 21
143.1
 31
0.0
1001
ACAD
1000
TCW40_DEV_WIDTH
1002
{
1040
0.039370078593
1002
}
1001
TCAD
1000
TCW_CUSTOM_DATA
1002
{
1000
#$AUX@_TCDO_SOURCE_COLOR
1070
           3
1071
        0
1000
#$AUX@_TCDO_PARENT_ID
1070
           3
1071
      211
1000
#$AUX@_TCDO_GTYPE
1070
           3
1071
        1
1000
#$AUX@_TCDO_VISIBILITY
1070
           3
1071
        0
1002
}
  0
LINE
  5
178
100
AcDbEntity
  8
図
370
         100
  6
Continuous
 62
           7
100
AcDbLine
 10
177.473709318838
 20
147.1
 30
0.0
 11
183.960120762028
 21
147.1
 31
0.0
1001
ACAD
1000
TCW40_DEV_WIDTH
1002
{
1040
0.039370078593
1002
}
1001
TCAD
1000
TCW_CUSTOM_DATA
1002
{
1000
#$AUX@_TCDO_SOURCE_COLOR
1070
           3
1071
        0
1000
#$AUX@_TCDO_PARENT_ID
1070
           3
1071
      211
1000
#$AUX@_TCDO_GTYPE
1070
           3
1071
        1
1000
#$AUX@_TCDO_VISIBILITY
1070
           3
1071
        0
1002
}
  0
LINE
  5
179
100
AcDbEntity
  8
図
370
         100
  6
Continuous
 62
           7
100
AcDbLine
 10
190.826290681163
 20
147.1
 30
0.0
 11
184.339879237976
 21
147.1
 31
0.0
1001
ACAD
1000
TCW40_DEV_WIDTH
1002
{
1040
0.039370078593
1002
}
1001
TCAD
1000
TCW_CUSTOM_DATA
1002
{
1000
#$AUX@_TCDO_SOURCE_COLOR
1070
           3
1071
        0
1000
#$AUX@_TCDO_PARENT_ID
1070
           3
1071
      211
1000
#$AUX@_TCDO_GTYPE
1070
           3
1071
        1
1000
#$AUX@_TCDO_VISIBILITY
1070
           3
1071
        0
1002
}
  0
LINE
  5
17A
100
AcDbEntity
  8
図
370
         100
  6
Continuous
 62
           7
100
AcDbLine
 10
183.960120762028
 20
147.1
 30
0.0
 11
183.960120762028
 21
143.1
 31
0.0
1001
ACAD
1000
TCW40_DEV_WIDTH
1002
{
1040
0.039370078593
1002
}
1001
TCAD
1000
TCW_CUSTOM_DATA
1002
{
1000
#$AUX@_TCDO_SOURCE_COLOR
1070
           3
1071
        0
1000
#$AUX@_TCDO_PARENT_ID
1070
           3
1071
      211
1000
#$AUX@_TCDO_GTYPE
1070
           3
1071
        0
1000
#$AUX@_TCDO_VISIBILITY
1070
           3
1071
        0
1002
}
  0
LINE
  5
17B
100
AcDbEntity
  8
図
370
         100
  6
Continuous
 62
           7
100
AcDbLine
 10
183.960120762028
 20
147.1
 30
0.0
 11
184.339879237976
 21
147.1
 31
0.0
1001
ACAD
1000
TCW40_DEV_WIDTH
1002
{
1040
0.039370078593
1002
}
1001
TCAD
1000
TCW_CUSTOM_DATA
1002
{
1000
#$AUX@_TCDO_SOURCE_COLOR
1070
           3
1071
        0
1000
#$AUX@_TCDO_PARENT_ID
1070
           3
1071
      211
1000
#$AUX@_TCDO_GTYPE
1070
           3
1071
        1
1000
#$AUX@_TCDO_VISIBILITY
1070
           3
1071
        0
1002
}
  0
LINE
  5
17C
100
AcDbEntity
  8
図
370
         100
  6
Continuous
 62
           7
100
AcDbLine
 10
184.339879237976
 20
143.1
 30
0.0
 11
184.339879237976
 21
147.1
 31
0.0
1001
ACAD
1000
TCW40_DEV_WIDTH
1002
{
1040
0.039370078593
1002
}
1001
TCAD
1000
TCW_CUSTOM_DATA
1002
{
1000
#$AUX@_TCDO_SOURCE_COLOR
1070
           3
1071
        0
1000
#$AUX@_TCDO_PARENT_ID
1070
           3
1071
      211
1000
#$AUX@_TCDO_GTYPE
1070
           3
1071
        0
1000
#$AUX@_TCDO_VISIBILITY
1070
           3
1071
        0
1002
}
  0
LINE
  5
17D
100
AcDbEntity
  8
図
370
         100
  6
Continuous
 62
           7
100
AcDbLine
 10
184.339879237976
 20
143.1
 30
0.0
 11
183.960120762028
 21
143.1
 31
0.0
1001
ACAD
1000
TCW40_DEV_WIDTH
1002
{
1040
0.039370078593
1002
}
1001
TCAD
1000
TCW_CUSTOM_DATA
1002
{
1000
#$AUX@_TCDO_SOURCE_COLOR
1070
           3
1071
        0
1000
#$AUX@_TCDO_PARENT_ID
1070
           3
1071
      211
1000
#$AUX@_TCDO_GTYPE
1070
           3
1071
        1
1000
#$AUX@_TCDO_VISIBILITY
1070
           3
1071
        0
1002
}
  0
LINE
  5
17E
100
AcDbEntity
  8
図
370
         100
  6
Continuous
 62
           7
100
AcDbLine
 10
177.473709318838
 20
129.1
 30
0.0
 11
177.473709318838
 21
125.1
 31
0.0
1001
ACAD
1000
TCW40_DEV_WIDTH
1002
{
1040
0.039370078593
1002
}
1001
TCAD
1000
TCW_CUSTOM_DATA
1002
{
1000
#$AUX@_TCDO_SOURCE_COLOR
1070
           3
1071
        0
1000
#$AUX@_TCDO_PARENT_ID
1070
           3
1071
      211
1000
#$AUX@_TCDO_GTYPE
1070
           3
1071
        1
1000
#$AUX@_TCDO_VISIBILITY
1070
           3
1071
        0
1002
}
  0
LINE
  5
17F
100
AcDbEntity
  8
図
370
         100
  6
Continuous
 62
           7
100
AcDbLine
 10
183.960120762028
 20
125.1
 30
0.0
 11
177.473709318838
 21
125.1
 31
0.0
1001
ACAD
1000
TCW40_DEV_WIDTH
1002
{
1040
0.039370078593
1002
}
1001
TCAD
1000
TCW_CUSTOM_DATA
1002
{
1000
#$AUX@_TCDO_SOURCE_COLOR
1070
           3
1071
        0
1000
#$AUX@_TCDO_PARENT_ID
1070
           3
1071
      211
1000
#$AUX@_TCDO_GTYPE
1070
           3
1071
        1
1000
#$AUX@_TCDO_VISIBILITY
1070
           3
1071
        0
1002
}
  0
LINE
  5
180
100
AcDbEntity
  8
図
370
         100
  6
Continuous
 62
           7
100
AcDbLine
 10
190.826290681163
 20
129.1
 30
0.0
 11
190.826290681163
 21
125.1
 31
0.0
1001
ACAD
1000
TCW40_DEV_WIDTH
1002
{
1040
0.039370078593
1002
}
1001
TCAD
1000
TCW_CUSTOM_DATA
1002
{
1000
#$AUX@_TCDO_SOURCE_COLOR
1070
           3
1071
        0
1000
#$AUX@_TCDO_PARENT_ID
1070
           3
1071
      211
1000
#$AUX@_TCDO_GTYPE
1070
           3
1071
        1
1000
#$AUX@_TCDO_VISIBILITY
1070
           3
1071
        0
1002
}
  0
LINE
  5
181
100
AcDbEntity
  8
図
370
         100
  6
Continuous
 62
           7
100
AcDbLine
 10
184.339879237976
 20
125.1
 30
0.0
 11
190.826290681163
 21
125.1
 31
0.0
1001
ACAD
1000
TCW40_DEV_WIDTH
1002
{
1040
0.039370078593
1002
}
1001
TCAD
1000
TCW_CUSTOM_DATA
1002
{
1000
#$AUX@_TCDO_SOURCE_COLOR
1070
           3
1071
        0
1000
#$AUX@_TCDO_PARENT_ID
1070
           3
1071
      211
1000
#$AUX@_TCDO_GTYPE
1070
           3
1071
        1
1000
#$AUX@_TCDO_VISIBILITY
1070
           3
1071
        0
1002
}
  0
LINE
  5
182
100
AcDbEntity
  8
図
370
         100
  6
Continuous
 62
           7
100
AcDbLine
 10
177.473709318838
 20
129.1
 30
0.0
 11
183.960120762028
 21
129.1
 31
0.0
1001
ACAD
1000
TCW40_DEV_WIDTH
1002
{
1040
0.039370078593
1002
}
1001
TCAD
1000
TCW_CUSTOM_DATA
1002
{
1000
#$AUX@_TCDO_SOURCE_COLOR
1070
           3
1071
        0
1000
#$AUX@_TCDO_PARENT_ID
1070
           3
1071
      211
1000
#$AUX@_TCDO_GTYPE
1070
           3
1071
        1
1000
#$AUX@_TCDO_VISIBILITY
1070
           3
1071
        0
1002
}
  0
LINE
  5
183
100
AcDbEntity
  8
図
370
         100
  6
Continuous
 62
           7
100
AcDbLine
 10
190.826290681163
 20
129.1
 30
0.0
 11
184.339879237976
 21
129.1
 31
0.0
1001
ACAD
1000
TCW40_DEV_WIDTH
1002
{
1040
0.039370078593
1002
}
1001
TCAD
1000
TCW_CUSTOM_DATA
1002
{
1000
#$AUX@_TCDO_SOURCE_COLOR
1070
           3
1071
        0
1000
#$AUX@_TCDO_PARENT_ID
1070
           3
1071
      211
1000
#$AUX@_TCDO_GTYPE
1070
           3
1071
        1
1000
#$AUX@_TCDO_VISIBILITY
1070
           3
1071
        0
1002
}
  0
LINE
  5
184
100
AcDbEntity
  8
図
370
         100
  6
Continuous
 62
           7
100
AcDbLine
 10
183.960120762028
 20
129.1
 30
0.0
 11
183.960120762028
 21
125.1
 31
0.0
1001
ACAD
1000
TCW40_DEV_WIDTH
1002
{
1040
0.039370078593
1002
}
1001
TCAD
1000
TCW_CUSTOM_DATA
1002
{
1000
#$AUX@_TCDO_SOURCE_COLOR
1070
           3
1071
        0
1000
#$AUX@_TCDO_PARENT_ID
1070
           3
1071
      211
1000
#$AUX@_TCDO_GTYPE
1070
           3
1071
        0
1000
#$AUX@_TCDO_VISIBILITY
1070
           3
1071
        0
1002
}
  0
LINE
  5
185
100
AcDbEntity
  8
図
370
         100
  6
Continuous
 62
           7
100
AcDbLine
 10
183.960120762028
 20
129.1
 30
0.0
 11
184.339879237976
 21
129.1
 31
0.0
1001
ACAD
1000
TCW40_DEV_WIDTH
1002
{
1040
0.039370078593
1002
}
1001
TCAD
1000
TCW_CUSTOM_DATA
1002
{
1000
#$AUX@_TCDO_SOURCE_COLOR
1070
           3
1071
        0
1000
#$AUX@_TCDO_PARENT_ID
1070
           3
1071
      211
1000
#$AUX@_TCDO_GTYPE
1070
           3
1071
        1
1000
#$AUX@_TCDO_VISIBILITY
1070
           3
1071
        0
1002
}
  0
LINE
  5
186
100
AcDbEntity
  8
図
370
         100
  6
Continuous
 62
           7
100
AcDbLine
 10
184.339879237976
 20
125.1
 30
0.0
 11
184.339879237976
 21
129.1
 31
0.0
1001
ACAD
1000
TCW40_DEV_WIDTH
1002
{
1040
0.039370078593
1002
}
1001
TCAD
1000
TCW_CUSTOM_DATA
1002
{
1000
#$AUX@_TCDO_SOURCE_COLOR
1070
           3
1071
        0
1000
#$AUX@_TCDO_PARENT_ID
1070
           3
1071
      211
1000
#$AUX@_TCDO_GTYPE
1070
           3
1071
        0
1000
#$AUX@_TCDO_VISIBILITY
1070
           3
1071
        0
1002
}
  0
LINE
  5
187
100
AcDbEntity
  8
図
370
         100
  6
Continuous
 62
           7
100
AcDbLine
 10
184.339879237976
 20
125.1
 30
0.0
 11
183.960120762028
 21
125.1
 31
0.0
1001
ACAD
1000
TCW40_DEV_WIDTH
1002
{
1040
0.039370078593
1002
}
1001
TCAD
1000
TCW_CUSTOM_DATA
1002
{
1000
#$AUX@_TCDO_SOURCE_COLOR
1070
           3
1071
        0
1000
#$AUX@_TCDO_PARENT_ID
1070
           3
1071
      211
1000
#$AUX@_TCDO_GTYPE
1070
           3
1071
        1
1000
#$AUX@_TCDO_VISIBILITY
1070
           3
1071
        0
1002
}
  0
LINE
  5
188
100
AcDbEntity
  8
図
370
         100
  6
Continuous
 62
           7
100
AcDbLine
 10
196.514418745425
 20
128.8
 30
0.0
 11
196.65
 21
128.8
 31
0.0
1001
ACAD
1000
TCW40_DEV_WIDTH
1002
{
1040
0.039370078593
1002
}
1001
TCAD
1000
TCW_CUSTOM_DATA
1002
{
1000
#$AUX@_TCDO_SOURCE_COLOR
1070
           3
1071
        0
1000
#$AUX@_TCDO_PARENT_ID
1070
           3
1071
      202
1000
#$AUX@_TCDO_GTYPE
1070
           3
1071
        1
1000
#$AUX@_TCDO_VISIBILITY
1070
           3
1071
        0
1002
}
  0
LINE
  5
189
100
AcDbEntity
  8
図
370
         100
  6
Continuous
 62
           7
100
AcDbLine
 10
172.65
 20
134.0
 30
0.0
 11
171.15
 21
134.0
 31
0.0
1001
ACAD
1000
TCW40_DEV_WIDTH
1002
{
1040
0.039370078593
1002
}
1001
TCAD
1000
TCW_CUSTOM_DATA
1002
{
1000
#$AUX@_TCDO_SOURCE_COLOR
1070
           3
1071
        0
1000
#$AUX@_TCDO_PARENT_ID
1070
           3
1071
      202
1000
#$AUX@_TCDO_GTYPE
1070
           3
1071
        1
1000
#$AUX@_TCDO_VISIBILITY
1070
           3
1071
        0
1002
}
  0
LINE
  5
18A
100
AcDbEntity
  8
図
370
         100
  6
Continuous
 62
           7
100
AcDbLine
 10
171.15
 20
138.6
 30
0.0
 11
171.15
 21
134.0
 31
0.0
1001
ACAD
1000
TCW40_DEV_WIDTH
1002
{
1040
0.039370078593
1002
}
1001
TCAD
1000
TCW_CUSTOM_DATA
1002
{
1000
#$AUX@_TCDO_SOURCE_COLOR
1070
           3
1071
        0
1000
#$AUX@_TCDO_PARENT_ID
1070
           3
1071
      202
1000
#$AUX@_TCDO_GTYPE
1070
           3
1071
        1
1000
#$AUX@_TCDO_VISIBILITY
1070
           3
1071
        0
1002
}
  0
LINE
  5
18B
100
AcDbEntity
  8
図
370
         100
  6
Continuous
 62
           7
100
AcDbLine
 10
171.15
 20
138.6
 30
0.0
 11
172.65
 21
138.6
 31
0.0
1001
ACAD
1000
TCW40_DEV_WIDTH
1002
{
1040
0.039370078593
1002
}
1001
TCAD
1000
TCW_CUSTOM_DATA
1002
{
1000
#$AUX@_TCDO_SOURCE_COLOR
1070
           3
1071
        0
1000
#$AUX@_TCDO_PARENT_ID
1070
           3
1071
      202
1000
#$AUX@_TCDO_GTYPE
1070
           3
1071
        1
1000
#$AUX@_TCDO_VISIBILITY
1070
           3
1071
        0
1002
}
  0
LINE
  5
18C
100
AcDbEntity
  8
図
370
         100
  6
Continuous
 62
           7
100
AcDbLine
 10
180.35
 20
152.1
 30
0.0
 11
180.35
 21
149.1
 31
0.0
1001
ACAD
1000
TCW40_DEV_WIDTH
1002
{
1040
0.039370078593
1002
}
1001
TCAD
1000
TCW_CUSTOM_DATA
1002
{
1000
#$AUX@_TCDO_SOURCE_COLOR
1070
           3
1071
        0
1000
#$AUX@_TCDO_PARENT_ID
1070
           3
1071
      202
1000
#$AUX@_TCDO_GTYPE
1070
           3
1071
        1
1000
#$AUX@_TCDO_VISIBILITY
1070
           3
1071
        0
1002
}
  0
LINE
  5
18D
100
AcDbEntity
  8
図
370
         100
  6
Continuous
 62
           7
100
AcDbLine
 10
185.65
 20
152.1
 30
0.0
 11
187.95
 21
152.1
 31
0.0
1001
ACAD
1000
TCW40_DEV_WIDTH
1002
{
1040
0.039370078593
1002
}
1001
TCAD
1000
TCW_CUSTOM_DATA
1002
{
1000
#$AUX@_TCDO_SOURCE_COLOR
1070
           3
1071
        0
1000
#$AUX@_TCDO_PARENT_ID
1070
           3
1071
      202
1000
#$AUX@_TCDO_GTYPE
1070
           3
1071
        1
1000
#$AUX@_TCDO_VISIBILITY
1070
           3
1071
        0
1002
}
  0
LINE
  5
18E
100
AcDbEntity
  8
図
370
         100
  6
Continuous
 62
           7
100
AcDbLine
 10
180.35
 20
152.1
 30
0.0
 11
182.65
 21
152.1
 31
0.0
1001
ACAD
1000
TCW40_DEV_WIDTH
1002
{
1040
0.039370078593
1002
}
1001
TCAD
1000
TCW_CUSTOM_DATA
1002
{
1000
#$AUX@_TCDO_SOURCE_COLOR
1070
           3
1071
        0
1000
#$AUX@_TCDO_PARENT_ID
1070
           3
1071
      202
1000
#$AUX@_TCDO_GTYPE
1070
           3
1071
        1
1000
#$AUX@_TCDO_VISIBILITY
1070
           3
1071
        0
1002
}
  0
LINE
  5
18F
100
AcDbEntity
  8
図
370
         100
  6
Continuous
 62
           7
100
AcDbLine
 10
181.35
 20
151.1
 30
0.0
 11
181.35
 21
149.1
 31
0.0
1001
ACAD
1000
TCW40_DEV_WIDTH
1002
{
1040
0.039370078593
1002
}
1001
TCAD
1000
TCW_CUSTOM_DATA
1002
{
1000
#$AUX@_TCDO_SOURCE_COLOR
1070
           3
1071
        0
1000
#$AUX@_TCDO_PARENT_ID
1070
           3
1071
      202
1000
#$AUX@_TCDO_GTYPE
1070
           3
1071
        1
1000
#$AUX@_TCDO_VISIBILITY
1070
           3
1071
        0
1002
}
  0
LINE
  5
190
100
AcDbEntity
  8
図
370
         100
  6
Continuous
 62
           7
100
AcDbLine
 10
186.95
 20
151.1
 30
0.0
 11
181.35
 21
151.1
 31
0.0
1001
ACAD
1000
TCW40_DEV_WIDTH
1002
{
1040
0.039370078593
1002
}
1001
TCAD
1000
TCW_CUSTOM_DATA
1002
{
1000
#$AUX@_TCDO_SOURCE_COLOR
1070
           3
1071
        0
1000
#$AUX@_TCDO_PARENT_ID
1070
           3
1071
      202
1000
#$AUX@_TCDO_GTYPE
1070
           3
1071
        1
1000
#$AUX@_TCDO_VISIBILITY
1070
           3
1071
        0
1002
}
  0
LINE
  5
191
100
AcDbEntity
  8
図
370
         100
  6
Continuous
 62
           7
100
AcDbLine
 10
187.95
 20
152.1
 30
0.0
 11
187.95
 21
149.1
 31
0.0
1001
ACAD
1000
TCW40_DEV_WIDTH
1002
{
1040
0.039370078593
1002
}
1001
TCAD
1000
TCW_CUSTOM_DATA
1002
{
1000
#$AUX@_TCDO_SOURCE_COLOR
1070
           3
1071
        0
1000
#$AUX@_TCDO_PARENT_ID
1070
           3
1071
      202
1000
#$AUX@_TCDO_GTYPE
1070
           3
1071
        1
1000
#$AUX@_TCDO_VISIBILITY
1070
           3
1071
        0
1002
}
  0
LINE
  5
192
100
AcDbEntity
  8
図
370
         100
  6
Continuous
 62
           7
100
AcDbLine
 10
186.95
 20
149.1
 30
0.0
 11
186.95
 21
151.1
 31
0.0
1001
ACAD
1000
TCW40_DEV_WIDTH
1002
{
1040
0.039370078593
1002
}
1001
TCAD
1000
TCW_CUSTOM_DATA
1002
{
1000
#$AUX@_TCDO_SOURCE_COLOR
1070
           3
1071
        0
1000
#$AUX@_TCDO_PARENT_ID
1070
           3
1071
      202
1000
#$AUX@_TCDO_GTYPE
1070
           3
1071
        1
1000
#$AUX@_TCDO_VISIBILITY
1070
           3
1071
        0
1002
}
  0
LINE
  5
193
100
AcDbEntity
  8
図
370
         100
  6
Continuous
 62
           7
100
AcDbLine
 10
180.35
 20
156.1
 30
0.0
 11
180.35
 21
152.1
 31
0.0
1001
ACAD
1000
TCW40_DEV_WIDTH
1002
{
1040
0.039370078593
1002
}
1001
TCAD
1000
TCW_CUSTOM_DATA
1002
{
1000
#$AUX@_TCDO_SOURCE_COLOR
1070
           3
1071
        0
1000
#$AUX@_TCDO_PARENT_ID
1070
           3
1071
      202
1000
#$AUX@_TCDO_GTYPE
1070
           3
1071
        1
1000
#$AUX@_TCDO_VISIBILITY
1070
           3
1071
        0
1002
}
  0
LINE
  5
194
100
AcDbEntity
  8
図
370
         100
  6
Continuous
 62
           7
100
AcDbLine
 10
182.65
 20
157.6
 30
0.0
 11
185.65
 21
157.6
 31
0.0
1001
ACAD
1000
TCW40_DEV_WIDTH
1002
{
1040
0.039370078593
1002
}
1001
TCAD
1000
TCW_CUSTOM_DATA
1002
{
1000
#$AUX@_TCDO_SOURCE_COLOR
1070
           3
1071
        0
1000
#$AUX@_TCDO_PARENT_ID
1070
           3
1071
      202
1000
#$AUX@_TCDO_GTYPE
1070
           3
1071
        1
1000
#$AUX@_TCDO_VISIBILITY
1070
           3
1071
        0
1002
}
  0
LINE
  5
195
100
AcDbEntity
  8
図
370
         100
  6
Continuous
 62
           7
100
AcDbLine
 10
181.85
 20
157.6
 30
0.0
 11
182.65
 21
157.6
 31
0.0
1001
ACAD
1000
TCW40_DEV_WIDTH
1002
{
1040
0.039370078593
1002
}
1001
TCAD
1000
TCW_CUSTOM_DATA
1002
{
1000
#$AUX@_TCDO_SOURCE_COLOR
1070
           3
1071
        0
1000
#$AUX@_TCDO_PARENT_ID
1070
           3
1071
      202
1000
#$AUX@_TCDO_GTYPE
1070
           3
1071
        1
1000
#$AUX@_TCDO_VISIBILITY
1070
           3
1071
        0
1002
}
  0
LINE
  5
196
100
AcDbEntity
  8
図
370
         100
  6
Continuous
 62
           7
100
AcDbLine
 10
185.65
 20
157.6
 30
0.0
 11
185.65
 21
152.1
 31
0.0
1001
ACAD
1000
TCW40_DEV_WIDTH
1002
{
1040
0.039370078593
1002
}
1001
TCAD
1000
TCW_CUSTOM_DATA
1002
{
1000
#$AUX@_TCDO_SOURCE_COLOR
1070
           3
1071
        0
1000
#$AUX@_TCDO_PARENT_ID
1070
           3
1071
      202
1000
#$AUX@_TCDO_GTYPE
1070
           3
1071
        1
1000
#$AUX@_TCDO_VISIBILITY
1070
           3
1071
        0
1002
}
  0
LINE
  5
197
100
AcDbEntity
  8
図
370
         100
  6
Continuous
 62
           7
100
AcDbLine
 10
182.65
 20
157.6
 30
0.0
 11
182.65
 21
152.1
 31
0.0
1001
ACAD
1000
TCW40_DEV_WIDTH
1002
{
1040
0.039370078593
1002
}
1001
TCAD
1000
TCW_CUSTOM_DATA
1002
{
1000
#$AUX@_TCDO_SOURCE_COLOR
1070
           3
1071
        0
1000
#$AUX@_TCDO_PARENT_ID
1070
           3
1071
      202
1000
#$AUX@_TCDO_GTYPE
1070
           3
1071
        1
1000
#$AUX@_TCDO_VISIBILITY
1070
           3
1071
        0
1002
}
  0
ARC
  5
198
100
AcDbEntity
  8
図
370
         100
  6
Continuous
 62
           7
100
AcDbCircle
 10
181.85
 20
156.1
 30
0.0
 40
1.5
100
AcDbArc
 50
90.0
 51
180.0
1001
ACAD
1000
TCW40_DEV_WIDTH
1002
{
1040
0.039370078593
1002
}
1001
TCAD
1000
TCW_CUSTOM_DATA
1002
{
1000
#$AUX@_TCDO_SOURCE_COLOR
1070
           3
1071
        0
1000
#$AUX@_TCDO_PARENT_ID
1070
           3
1071
      202
1000
#$AUX@_TCDO_GTYPE
1070
           3
1071
        1
1000
#$AUX@_TCDO_VISIBILITY
1070
           3
1071
        0
1002
}
  0
LINE
  5
199
100
AcDbEntity
  8
図
370
         100
  6
Continuous
 62
           7
100
AcDbLine
 10
180.35
 20
120.5
 30
0.0
 11
180.35
 21
123.5
 31
0.0
1001
ACAD
1000
TCW40_DEV_WIDTH
1002
{
1040
0.039370078593
1002
}
1001
TCAD
1000
TCW_CUSTOM_DATA
1002
{
1000
#$AUX@_TCDO_SOURCE_COLOR
1070
           3
1071
        0
1000
#$AUX@_TCDO_PARENT_ID
1070
           3
1071
      202
1000
#$AUX@_TCDO_GTYPE
1070
           3
1071
        1
1000
#$AUX@_TCDO_VISIBILITY
1070
           3
1071
        0
1002
}
  0
LINE
  5
19A
100
AcDbEntity
  8
図
370
         100
  6
Continuous
 62
           7
100
AcDbLine
 10
180.35
 20
120.5
 30
0.0
 11
182.65
 21
120.5
 31
0.0
1001
ACAD
1000
TCW40_DEV_WIDTH
1002
{
1040
0.039370078593
1002
}
1001
TCAD
1000
TCW_CUSTOM_DATA
1002
{
1000
#$AUX@_TCDO_SOURCE_COLOR
1070
           3
1071
        0
1000
#$AUX@_TCDO_PARENT_ID
1070
           3
1071
      202
1000
#$AUX@_TCDO_GTYPE
1070
           3
1071
        1
1000
#$AUX@_TCDO_VISIBILITY
1070
           3
1071
        0
1002
}
  0
LINE
  5
19B
100
AcDbEntity
  8
図
370
         100
  6
Continuous
 62
           7
100
AcDbLine
 10
185.65
 20
120.5
 30
0.0
 11
187.95
 21
120.5
 31
0.0
1001
ACAD
1000
TCW40_DEV_WIDTH
1002
{
1040
0.039370078593
1002
}
1001
TCAD
1000
TCW_CUSTOM_DATA
1002
{
1000
#$AUX@_TCDO_SOURCE_COLOR
1070
           3
1071
        0
1000
#$AUX@_TCDO_PARENT_ID
1070
           3
1071
      202
1000
#$AUX@_TCDO_GTYPE
1070
           3
1071
        1
1000
#$AUX@_TCDO_VISIBILITY
1070
           3
1071
        0
1002
}
  0
LINE
  5
19C
100
AcDbEntity
  8
図
370
         100
  6
Continuous
 62
           7
100
AcDbLine
 10
181.35
 20
121.5
 30
0.0
 11
181.35
 21
123.5
 31
0.0
1001
ACAD
1000
TCW40_DEV_WIDTH
1002
{
1040
0.039370078593
1002
}
1001
TCAD
1000
TCW_CUSTOM_DATA
1002
{
1000
#$AUX@_TCDO_SOURCE_COLOR
1070
           3
1071
        0
1000
#$AUX@_TCDO_PARENT_ID
1070
           3
1071
      202
1000
#$AUX@_TCDO_GTYPE
1070
           3
1071
        1
1000
#$AUX@_TCDO_VISIBILITY
1070
           3
1071
        0
1002
}
  0
LINE
  5
19D
100
AcDbEntity
  8
図
370
         100
  6
Continuous
 62
           7
100
AcDbLine
 10
186.95
 20
121.5
 30
0.0
 11
181.35
 21
121.5
 31
0.0
1001
ACAD
1000
TCW40_DEV_WIDTH
1002
{
1040
0.039370078593
1002
}
1001
TCAD
1000
TCW_CUSTOM_DATA
1002
{
1000
#$AUX@_TCDO_SOURCE_COLOR
1070
           3
1071
        0
1000
#$AUX@_TCDO_PARENT_ID
1070
           3
1071
      202
1000
#$AUX@_TCDO_GTYPE
1070
           3
1071
        1
1000
#$AUX@_TCDO_VISIBILITY
1070
           3
1071
        0
1002
}
  0
LINE
  5
19E
100
AcDbEntity
  8
図
370
         100
  6
Continuous
 62
           7
100
AcDbLine
 10
187.95
 20
120.5
 30
0.0
 11
187.95
 21
123.5
 31
0.0
1001
ACAD
1000
TCW40_DEV_WIDTH
1002
{
1040
0.039370078593
1002
}
1001
TCAD
1000
TCW_CUSTOM_DATA
1002
{
1000
#$AUX@_TCDO_SOURCE_COLOR
1070
           3
1071
        0
1000
#$AUX@_TCDO_PARENT_ID
1070
           3
1071
      202
1000
#$AUX@_TCDO_GTYPE
1070
           3
1071
        1
1000
#$AUX@_TCDO_VISIBILITY
1070
           3
1071
        0
1002
}
  0
LINE
  5
19F
100
AcDbEntity
  8
図
370
         100
  6
Continuous
 62
           7
100
AcDbLine
 10
186.95
 20
123.5
 30
0.0
 11
186.95
 21
121.5
 31
0.0
1001
ACAD
1000
TCW40_DEV_WIDTH
1002
{
1040
0.039370078593
1002
}
1001
TCAD
1000
TCW_CUSTOM_DATA
1002
{
1000
#$AUX@_TCDO_SOURCE_COLOR
1070
           3
1071
        0
1000
#$AUX@_TCDO_PARENT_ID
1070
           3
1071
      202
1000
#$AUX@_TCDO_GTYPE
1070
           3
1071
        1
1000
#$AUX@_TCDO_VISIBILITY
1070
           3
1071
        0
1002
}
  0
LINE
  5
1A0
100
AcDbEntity
  8
図
370
         100
  6
Continuous
 62
           7
100
AcDbLine
 10
180.35
 20
116.5
 30
0.0
 11
180.35
 21
120.5
 31
0.0
1001
ACAD
1000
TCW40_DEV_WIDTH
1002
{
1040
0.039370078593
1002
}
1001
TCAD
1000
TCW_CUSTOM_DATA
1002
{
1000
#$AUX@_TCDO_SOURCE_COLOR
1070
           3
1071
        0
1000
#$AUX@_TCDO_PARENT_ID
1070
           3
1071
      202
1000
#$AUX@_TCDO_GTYPE
1070
           3
1071
        1
1000
#$AUX@_TCDO_VISIBILITY
1070
           3
1071
        0
1002
}
  0
LINE
  5
1A1
100
AcDbEntity
  8
図
370
         100
  6
Continuous
 62
           7
100
AcDbLine
 10
181.85
 20
115.0
 30
0.0
 11
182.65
 21
115.0
 31
0.0
1001
ACAD
1000
TCW40_DEV_WIDTH
1002
{
1040
0.039370078593
1002
}
1001
TCAD
1000
TCW_CUSTOM_DATA
1002
{
1000
#$AUX@_TCDO_SOURCE_COLOR
1070
           3
1071
        0
1000
#$AUX@_TCDO_PARENT_ID
1070
           3
1071
      202
1000
#$AUX@_TCDO_GTYPE
1070
           3
1071
        1
1000
#$AUX@_TCDO_VISIBILITY
1070
           3
1071
        0
1002
}
  0
LINE
  5
1A2
100
AcDbEntity
  8
図
370
         100
  6
Continuous
 62
           7
100
AcDbLine
 10
182.65
 20
115.0
 30
0.0
 11
185.65
 21
115.0
 31
0.0
1001
ACAD
1000
TCW40_DEV_WIDTH
1002
{
1040
0.039370078593
1002
}
1001
TCAD
1000
TCW_CUSTOM_DATA
1002
{
1000
#$AUX@_TCDO_SOURCE_COLOR
1070
           3
1071
        0
1000
#$AUX@_TCDO_PARENT_ID
1070
           3
1071
      202
1000
#$AUX@_TCDO_GTYPE
1070
           3
1071
        1
1000
#$AUX@_TCDO_VISIBILITY
1070
           3
1071
        0
1002
}
  0
LINE
  5
1A3
100
AcDbEntity
  8
図
370
         100
  6
Continuous
 62
           7
100
AcDbLine
 10
185.65
 20
115.0
 30
0.0
 11
185.65
 21
120.5
 31
0.0
1001
ACAD
1000
TCW40_DEV_WIDTH
1002
{
1040
0.039370078593
1002
}
1001
TCAD
1000
TCW_CUSTOM_DATA
1002
{
1000
#$AUX@_TCDO_SOURCE_COLOR
1070
           3
1071
        0
1000
#$AUX@_TCDO_PARENT_ID
1070
           3
1071
      202
1000
#$AUX@_TCDO_GTYPE
1070
           3
1071
        1
1000
#$AUX@_TCDO_VISIBILITY
1070
           3
1071
        0
1002
}
  0
LINE
  5
1A4
100
AcDbEntity
  8
図
370
         100
  6
Continuous
 62
           7
100
AcDbLine
 10
182.65
 20
115.0
 30
0.0
 11
182.65
 21
120.5
 31
0.0
1001
ACAD
1000
TCW40_DEV_WIDTH
1002
{
1040
0.039370078593
1002
}
1001
TCAD
1000
TCW_CUSTOM_DATA
1002
{
1000
#$AUX@_TCDO_SOURCE_COLOR
1070
           3
1071
        0
1000
#$AUX@_TCDO_PARENT_ID
1070
           3
1071
      202
1000
#$AUX@_TCDO_GTYPE
1070
           3
1071
        1
1000
#$AUX@_TCDO_VISIBILITY
1070
           3
1071
        0
1002
}
  0
ARC
  5
1A5
100
AcDbEntity
  8
図
370
         100
  6
Continuous
 62
           7
100
AcDbCircle
 10
181.85
 20
116.5
 30
0.0
 40
1.5
100
AcDbArc
 50
180.0
 51
270.0
1001
ACAD
1000
TCW40_DEV_WIDTH
1002
{
1040
0.039370078593
1002
}
1001
TCAD
1000
TCW_CUSTOM_DATA
1002
{
1000
#$AUX@_TCDO_SOURCE_COLOR
1070
           3
1071
        0
1000
#$AUX@_TCDO_PARENT_ID
1070
           3
1071
      202
1000
#$AUX@_TCDO_GTYPE
1070
           3
1071
        1
1000
#$AUX@_TCDO_VISIBILITY
1070
           3
1071
        0
1002
}
  0
ARC
  5
1A6
100
AcDbEntity
  8
図
370
         100
  6
Continuous
 62
           7
100
AcDbCircle
 10
194.15
 20
125.0
 30
0.0
 40
1.5
100
AcDbArc
 50
-90.0
 51
-44.999999999999
1001
ACAD
1000
TCW40_DEV_WIDTH
1002
{
1040
0.039370078593
1002
}
1001
TCAD
1000
TCW_CUSTOM_DATA
1002
{
1000
#$AUX@_TCDO_SOURCE_COLOR
1070
           3
1071
        0
1000
#$AUX@_TCDO_PARENT_ID
1070
           3
1071
      202
1000
#$AUX@_TCDO_GTYPE
1070
           3
1071
        1
1000
#$AUX@_TCDO_VISIBILITY
1070
           3
1071
        0
1002
}
  0
LINE
  5
1A7
100
AcDbEntity
  8
図
370
         100
  6
Continuous
 62
           7
100
AcDbLine
 10
187.767457670796
 20
149.1
 30
0.0
 11
187.767457670796
 21
147.1
 31
0.0
1001
ACAD
1000
TCW40_DEV_WIDTH
1002
{
1040
0.039370078593
1002
}
1001
TCAD
1000
TCW_CUSTOM_DATA
1002
{
1000
#$AUX@_TCDO_SOURCE_COLOR
1070
           3
1071
        0
1000
#$AUX@_TCDO_PARENT_ID
1070
           3
1071
      202
1000
#$AUX@_TCDO_GTYPE
1070
           3
1071
        0
1000
#$AUX@_TCDO_VISIBILITY
1070
           3
1071
        0
1002
}
  0
LINE
  5
1A8
100
AcDbEntity
  8
図
370
         100
  6
Continuous
 62
           7
100
AcDbLine
 10
187.767457670796
 20
143.1
 30
0.0
 11
187.767457670796
 21
141.9
 31
0.0
1001
ACAD
1000
TCW40_DEV_WIDTH
1002
{
1040
0.039370078593
1002
}
1001
TCAD
1000
TCW_CUSTOM_DATA
1002
{
1000
#$AUX@_TCDO_SOURCE_COLOR
1070
           3
1071
        0
1000
#$AUX@_TCDO_PARENT_ID
1070
           3
1071
      202
1000
#$AUX@_TCDO_GTYPE
1070
           3
1071
        0
1000
#$AUX@_TCDO_VISIBILITY
1070
           3
1071
        0
1002
}
  0
LINE
  5
1A9
100
AcDbEntity
  8
図
370
         100
  6
Continuous
 62
           7
100
AcDbLine
 10
187.767457670796
 20
130.700000000002
 30
0.0
 11
187.767457670796
 21
129.1
 31
0.0
1001
ACAD
1000
TCW40_DEV_WIDTH
1002
{
1040
0.039370078593
1002
}
1001
TCAD
1000
TCW_CUSTOM_DATA
1002
{
1000
#$AUX@_TCDO_SOURCE_COLOR
1070
           3
1071
        0
1000
#$AUX@_TCDO_PARENT_ID
1070
           3
1071
      202
1000
#$AUX@_TCDO_GTYPE
1070
           3
1071
        0
1000
#$AUX@_TCDO_VISIBILITY
1070
           3
1071
        0
1002
}
  0
LINE
  5
1AA
100
AcDbEntity
  8
図
370
         100
  6
Continuous
 62
           7
100
AcDbLine
 10
187.767457670796
 20
125.1
 30
0.0
 11
187.767457670796
 21
123.5
 31
0.0
1001
ACAD
1000
TCW40_DEV_WIDTH
1002
{
1040
0.039370078593
1002
}
1001
TCAD
1000
TCW_CUSTOM_DATA
1002
{
1000
#$AUX@_TCDO_SOURCE_COLOR
1070
           3
1071
        0
1000
#$AUX@_TCDO_PARENT_ID
1070
           3
1071
      202
1000
#$AUX@_TCDO_GTYPE
1070
           3
1071
        0
1000
#$AUX@_TCDO_VISIBILITY
1070
           3
1071
        0
1002
}
  0
LINE
  5
1AB
100
AcDbEntity
  8
図
370
         100
  6
Continuous
 62
           7
100
AcDbLine
 10
180.532542329204
 20
123.5
 30
0.0
 11
180.532542329204
 21
125.1
 31
0.0
1001
ACAD
1000
TCW40_DEV_WIDTH
1002
{
1040
0.039370078593
1002
}
1001
TCAD
1000
TCW_CUSTOM_DATA
1002
{
1000
#$AUX@_TCDO_SOURCE_COLOR
1070
           3
1071
        0
1000
#$AUX@_TCDO_PARENT_ID
1070
           3
1071
      202
1000
#$AUX@_TCDO_GTYPE
1070
           3
1071
        0
1000
#$AUX@_TCDO_VISIBILITY
1070
           3
1071
        0
1002
}
  0
LINE
  5
1AC
100
AcDbEntity
  8
図
370
         100
  6
Continuous
 62
           7
100
AcDbLine
 10
180.532542329204
 20
129.1
 30
0.0
 11
180.532542329204
 21
130.699999999999
 31
0.0
1001
ACAD
1000
TCW40_DEV_WIDTH
1002
{
1040
0.039370078593
1002
}
1001
TCAD
1000
TCW_CUSTOM_DATA
1002
{
1000
#$AUX@_TCDO_SOURCE_COLOR
1070
           3
1071
        0
1000
#$AUX@_TCDO_PARENT_ID
1070
           3
1071
      202
1000
#$AUX@_TCDO_GTYPE
1070
           3
1071
        0
1000
#$AUX@_TCDO_VISIBILITY
1070
           3
1071
        0
1002
}
  0
LINE
  5
1AD
100
AcDbEntity
  8
図
370
         100
  6
Continuous
 62
           7
100
AcDbLine
 10
180.532542329204
 20
141.9
 30
0.0
 11
180.532542329204
 21
143.1
 31
0.0
1001
ACAD
1000
TCW40_DEV_WIDTH
1002
{
1040
0.039370078593
1002
}
1001
TCAD
1000
TCW_CUSTOM_DATA
1002
{
1000
#$AUX@_TCDO_SOURCE_COLOR
1070
           3
1071
        0
1000
#$AUX@_TCDO_PARENT_ID
1070
           3
1071
      202
1000
#$AUX@_TCDO_GTYPE
1070
           3
1071
        0
1000
#$AUX@_TCDO_VISIBILITY
1070
           3
1071
        0
1002
}
  0
LINE
  5
1AE
100
AcDbEntity
  8
図
370
         100
  6
Continuous
 62
           7
100
AcDbLine
 10
180.532542329204
 20
147.1
 30
0.0
 11
180.532542329204
 21
149.1
 31
0.0
1001
ACAD
1000
TCW40_DEV_WIDTH
1002
{
1040
0.039370078593
1002
}
1001
TCAD
1000
TCW_CUSTOM_DATA
1002
{
1000
#$AUX@_TCDO_SOURCE_COLOR
1070
           3
1071
        0
1000
#$AUX@_TCDO_PARENT_ID
1070
           3
1071
      202
1000
#$AUX@_TCDO_GTYPE
1070
           3
1071
        0
1000
#$AUX@_TCDO_VISIBILITY
1070
           3
1071
        0
1002
}
  0
ARC
  5
1AF
100
AcDbEntity
  8
図
370
         100
  6
Continuous
 62
           7
100
AcDbCircle
 10
174.15
 20
125.0
 30
0.0
 40
1.5
100
AcDbArc
 50
180.0
 51
224.999999999999
1001
ACAD
1000
TCW40_DEV_WIDTH
1002
{
1040
0.039370078593
1002
}
1001
TCAD
1000
TCW_CUSTOM_DATA
1002
{
1000
#$AUX@_TCDO_SOURCE_COLOR
1070
           3
1071
        0
1000
#$AUX@_TCDO_PARENT_ID
1070
           3
1071
      202
1000
#$AUX@_TCDO_GTYPE
1070
           3
1071
        1
1000
#$AUX@_TCDO_VISIBILITY
1070
           3
1071
        0
1002
}
  0
ARC
  5
1B0
100
AcDbEntity
  8
図
370
         100
  6
Continuous
 62
           7
100
AcDbCircle
 10
174.15
 20
147.6
 30
0.0
 40
1.5
100
AcDbArc
 50
90.0
 51
134.999999999999
1001
ACAD
1000
TCW40_DEV_WIDTH
1002
{
1040
0.039370078593
1002
}
1001
TCAD
1000
TCW_CUSTOM_DATA
1002
{
1000
#$AUX@_TCDO_SOURCE_COLOR
1070
           3
1071
        0
1000
#$AUX@_TCDO_PARENT_ID
1070
           3
1071
      202
1000
#$AUX@_TCDO_GTYPE
1070
           3
1071
        1
1000
#$AUX@_TCDO_VISIBILITY
1070
           3
1071
        0
1002
}
  0
ARC
  5
1B1
100
AcDbEntity
  8
図
370
         100
  6
Continuous
 62
           7
100
AcDbCircle
 10
194.15
 20
147.6
 30
0.0
 40
1.5
100
AcDbArc
 50
0.0
 51
90.0
1001
ACAD
1000
TCW40_DEV_WIDTH
1002
{
1040
0.039370078593
1002
}
1001
TCAD
1000
TCW_CUSTOM_DATA
1002
{
1000
#$AUX@_TCDO_SOURCE_COLOR
1070
           3
1071
        0
1000
#$AUX@_TCDO_PARENT_ID
1070
           3
1071
       99
1000
#$AUX@_TCDO_GTYPE
1070
           3
1071
        0
1000
#$AUX@_TCDO_VISIBILITY
1070
           3
1071
        0
1002
}
  0
LINE
  5
1B2
100
AcDbEntity
  8
図
370
         100
  6
Continuous
 62
           7
100
AcDbLine
 10
173.15
 20
142.9
 30
0.0
 11
173.65
 21
142.9
 31
0.0
1001
ACAD
1000
TCW40_DEV_WIDTH
1002
{
1040
0.039370078593
1002
}
1001
TCAD
1000
TCW_CUSTOM_DATA
1002
{
1000
#$AUX@_TCDO_SOURCE_COLOR
1070
           3
1071
        0
1000
#$AUX@_TCDO_PARENT_ID
1070
           3
1071
       99
1000
#$AUX@_TCDO_GTYPE
1070
           3
1071
        0
1000
#$AUX@_TCDO_VISIBILITY
1070
           3
1071
        0
1002
}
  0
ARC
  5
1B3
100
AcDbEntity
  8
図
370
         100
  6
Continuous
 62
           7
100
AcDbCircle
 10
173.15
 20
142.4
 30
0.0
 40
0.5
100
AcDbArc
 50
90.0
 51
180.0
1001
ACAD
1000
TCW40_DEV_WIDTH
1002
{
1040
0.039370078593
1002
}
1001
TCAD
1000
TCW_CUSTOM_DATA
1002
{
1000
#$AUX@_TCDO_SOURCE_COLOR
1070
           3
1071
        0
1000
#$AUX@_TCDO_PARENT_ID
1070
           3
1071
       99
1000
#$AUX@_TCDO_GTYPE
1070
           3
1071
        0
1000
#$AUX@_TCDO_VISIBILITY
1070
           3
1071
        0
1002
}
  0
ARC
  5
1B4
100
AcDbEntity
  8
図
370
         100
  6
Continuous
 62
           7
100
AcDbCircle
 10
195.15
 20
142.4
 30
0.0
 40
0.5
100
AcDbArc
 50
0.0
 51
90.0
1001
ACAD
1000
TCW40_DEV_WIDTH
1002
{
1040
0.039370078593
1002
}
1001
TCAD
1000
TCW_CUSTOM_DATA
1002
{
1000
#$AUX@_TCDO_SOURCE_COLOR
1070
           3
1071
        0
1000
#$AUX@_TCDO_PARENT_ID
1070
           3
1071
       99
1000
#$AUX@_TCDO_GTYPE
1070
           3
1071
        0
1000
#$AUX@_TCDO_VISIBILITY
1070
           3
1071
        0
1002
}
  0
ARC
  5
1B5
100
AcDbEntity
  8
図
370
         100
  6
Continuous
 62
           7
100
AcDbCircle
 10
173.15
 20
130.2
 30
0.0
 40
0.5
100
AcDbArc
 50
180.0
 51
270.0
1001
ACAD
1000
TCW40_DEV_WIDTH
1002
{
1040
0.039370078593
1002
}
1001
TCAD
1000
TCW_CUSTOM_DATA
1002
{
1000
#$AUX@_TCDO_SOURCE_COLOR
1070
           3
1071
        0
1000
#$AUX@_TCDO_PARENT_ID
1070
           3
1071
       99
1000
#$AUX@_TCDO_GTYPE
1070
           3
1071
        0
1000
#$AUX@_TCDO_VISIBILITY
1070
           3
1071
        0
1002
}
  0
LINE
  5
1B6
100
AcDbEntity
  8
図
370
         100
  6
Continuous
 62
           7
100
AcDbLine
 10
196.65
 20
128.8
 30
0.0
 11
196.514418745425
 21
128.8
 31
0.0
1001
ACAD
1000
TCW40_DEV_WIDTH
1002
{
1040
0.039370078593
1002
}
1001
TCAD
1000
TCW_CUSTOM_DATA
1002
{
1000
#$AUX@_TCDO_SOURCE_COLOR
1070
           3
1071
        0
1000
#$AUX@_TCDO_PARENT_ID
1070
           3
1071
       99
1000
#$AUX@_TCDO_GTYPE
1070
           3
1071
        1
1000
#$AUX@_TCDO_VISIBILITY
1070
           3
1071
        0
1002
}
  0
LINE
  5
1B7
100
AcDbEntity
  8
図
370
         100
  6
Continuous
 62
           7
100
AcDbLine
 10
196.514418745425
 20
143.8
 30
0.0
 11
196.514418745425
 21
128.8
 31
0.0
1001
ACAD
1000
TCW40_DEV_WIDTH
1002
{
1040
0.039370078593
1002
}
1001
TCAD
1000
TCW_CUSTOM_DATA
1002
{
1000
#$AUX@_TCDO_SOURCE_COLOR
1070
           3
1071
        0
1000
#$AUX@_TCDO_PARENT_ID
1070
           3
1071
       99
1000
#$AUX@_TCDO_GTYPE
1070
           3
1071
        0
1000
#$AUX@_TCDO_VISIBILITY
1070
           3
1071
        0
1002
}
  0
LINE
  5
1B8
100
AcDbEntity
  8
図
370
         100
  6
Continuous
 62
           7
100
AcDbLine
 10
196.514418745425
 20
128.8
 30
0.0
 11
195.65
 21
128.8
 31
0.0
1001
ACAD
1000
TCW40_DEV_WIDTH
1002
{
1040
0.039370078593
1002
}
1001
TCAD
1000
TCW_CUSTOM_DATA
1002
{
1000
#$AUX@_TCDO_SOURCE_COLOR
1070
           3
1071
        0
1000
#$AUX@_TCDO_PARENT_ID
1070
           3
1071
       99
1000
#$AUX@_TCDO_GTYPE
1070
           3
1071
        1
1000
#$AUX@_TCDO_VISIBILITY
1070
           3
1071
        0
1002
}
  0
LINE
  5
1B9
100
AcDbEntity
  8
図
370
         100
  6
Continuous
 62
           7
100
AcDbLine
 10
196.514418745425
 20
143.8
 30
0.0
 11
196.65
 21
143.8
 31
0.0
1001
ACAD
1000
TCW40_DEV_WIDTH
1002
{
1040
0.039370078593
1002
}
1001
TCAD
1000
TCW_CUSTOM_DATA
1002
{
1000
#$AUX@_TCDO_SOURCE_COLOR
1070
           3
1071
        0
1000
#$AUX@_TCDO_PARENT_ID
1070
           3
1071
       99
1000
#$AUX@_TCDO_GTYPE
1070
           3
1071
        1
1000
#$AUX@_TCDO_VISIBILITY
1070
           3
1071
        0
1002
}
  0
LINE
  5
1BA
100
AcDbEntity
  8
図
370
         100
  6
Continuous
 62
           7
100
AcDbLine
 10
195.65
 20
143.8
 30
0.0
 11
196.514418745425
 21
143.8
 31
0.0
1001
ACAD
1000
TCW40_DEV_WIDTH
1002
{
1040
0.039370078593
1002
}
1001
TCAD
1000
TCW_CUSTOM_DATA
1002
{
1000
#$AUX@_TCDO_SOURCE_COLOR
1070
           3
1071
        0
1000
#$AUX@_TCDO_PARENT_ID
1070
           3
1071
       99
1000
#$AUX@_TCDO_GTYPE
1070
           3
1071
        1
1000
#$AUX@_TCDO_VISIBILITY
1070
           3
1071
        0
1002
}
  0
LINE
  5
1BB
100
AcDbEntity
  8
図
370
         100
  6
Continuous
 62
           7
100
AcDbLine
 10
171.15
 20
133.8
 30
0.0
 11
171.15
 21
134.0
 31
0.0
1001
ACAD
1000
TCW40_DEV_WIDTH
1002
{
1040
0.039370078593
1002
}
1001
TCAD
1000
TCW_CUSTOM_DATA
1002
{
1000
#$AUX@_TCDO_SOURCE_COLOR
1070
           3
1071
        0
1000
#$AUX@_TCDO_PARENT_ID
1070
           3
1071
       99
1000
#$AUX@_TCDO_GTYPE
1070
           3
1071
        0
1000
#$AUX@_TCDO_VISIBILITY
1070
           3
1071
        0
1002
}
  0
LINE
  5
1BC
100
AcDbEntity
  8
図
370
         100
  6
Continuous
 62
           7
100
AcDbLine
 10
171.15
 20
138.6
 30
0.0
 11
171.15
 21
138.8
 31
0.0
1001
ACAD
1000
TCW40_DEV_WIDTH
1002
{
1040
0.039370078593
1002
}
1001
TCAD
1000
TCW_CUSTOM_DATA
1002
{
1000
#$AUX@_TCDO_SOURCE_COLOR
1070
           3
1071
        0
1000
#$AUX@_TCDO_PARENT_ID
1070
           3
1071
       99
1000
#$AUX@_TCDO_GTYPE
1070
           3
1071
        0
1000
#$AUX@_TCDO_VISIBILITY
1070
           3
1071
        0
1002
}
  0
LINE
  5
1BD
100
AcDbEntity
  8
図
370
         100
  6
Continuous
 62
           7
100
AcDbLine
 10
169.65
 20
131.5
 30
0.0
 11
171.15
 21
131.461240310078
 31
0.0
1001
ACAD
1000
TCW40_DEV_WIDTH
1002
{
1040
0.039370078593
1002
}
1001
TCAD
1000
TCW_CUSTOM_DATA
1002
{
1000
#$AUX@_TCDO_SOURCE_COLOR
1070
           3
1071
        0
1000
#$AUX@_TCDO_PARENT_ID
1070
           3
1071
       99
1000
#$AUX@_TCDO_GTYPE
1070
           3
1071
        1
1000
#$AUX@_TCDO_VISIBILITY
1070
           3
1071
        0
1002
}
  0
LINE
  5
1BE
100
AcDbEntity
  8
図
370
         100
  6
Continuous
 62
           7
100
AcDbLine
 10
171.15
 20
141.138461538462
 30
0.0
 11
169.65
 21
141.1
 31
0.0
1001
ACAD
1000
TCW40_DEV_WIDTH
1002
{
1040
0.039370078593
1002
}
1001
TCAD
1000
TCW_CUSTOM_DATA
1002
{
1000
#$AUX@_TCDO_SOURCE_COLOR
1070
           3
1071
        0
1000
#$AUX@_TCDO_PARENT_ID
1070
           3
1071
       99
1000
#$AUX@_TCDO_GTYPE
1070
           3
1071
        1
1000
#$AUX@_TCDO_VISIBILITY
1070
           3
1071
        0
1002
}
  0
LINE
  5
1BF
100
AcDbEntity
  8
図
370
         100
  6
Continuous
 62
           7
100
AcDbLine
 10
169.65
 20
141.1
 30
0.0
 11
169.65
 21
131.5
 31
0.0
1001
ACAD
1000
TCW40_DEV_WIDTH
1002
{
1040
0.039370078593
1002
}
1001
TCAD
1000
TCW_CUSTOM_DATA
1002
{
1000
#$AUX@_TCDO_SOURCE_COLOR
1070
           3
1071
        0
1000
#$AUX@_TCDO_PARENT_ID
1070
           3
1071
       99
1000
#$AUX@_TCDO_GTYPE
1070
           3
1071
        1
1000
#$AUX@_TCDO_VISIBILITY
1070
           3
1071
        0
1002
}
  0
ELLIPSE
  5
1C0
100
AcDbEntity
  8
図
370
         100
  6
Continuous
 62
           7
100
AcDbEllipse
 10
172.65
 20
131.321705426357
 30
0.0
 11
1.5000000000000568
 21
0.0
 31
0.0
210
0.0
220
0.0
230
1.0
 40
0.015503875969
 41
3.1415926535897931
 42
4.3451809598329509
1001
ACAD
1000
TCW40_DEV_WIDTH
1002
{
1040
0.039370078593
1002
}
1001
TCAD
1000
TCW_CUSTOM_DATA
1002
{
1000
#$AUX@_TCDO_SOURCE_COLOR
1070
           3
1071
        0
1000
#$AUX@_TCDO_PARENT_ID
1070
           3
1071
       99
1000
#$AUX@_TCDO_GTYPE
1070
           3
1071
        1
1000
#$AUX@_TCDO_VISIBILITY
1070
           3
1071
        0
1002
}
  0
LINE
  5
1C1
100
AcDbEntity
  8
図
370
         100
  6
Continuous
 62
           7
100
AcDbLine
 10
171.15
 20
133.8
 30
0.0
 11
171.15
 21
131.321705426357
 31
0.0
1001
ACAD
1000
TCW40_DEV_WIDTH
1002
{
1040
0.039370078593
1002
}
1001
TCAD
1000
TCW_CUSTOM_DATA
1002
{
1000
#$AUX@_TCDO_SOURCE_COLOR
1070
           3
1071
        0
1000
#$AUX@_TCDO_PARENT_ID
1070
           3
1071
       99
1000
#$AUX@_TCDO_GTYPE
1070
           3
1071
        1
1000
#$AUX@_TCDO_VISIBILITY
1070
           3
1071
        0
1002
}
  0
LINE
  5
1C2
100
AcDbEntity
  8
図
370
         100
  6
Continuous
 62
           7
100
AcDbLine
 10
172.65
 20
131.3
 30
0.0
 11
172.111483519295
 21
131.3
 31
0.0
1001
ACAD
1000
TCW40_DEV_WIDTH
1002
{
1040
0.039370078593
1002
}
1001
TCAD
1000
TCW_CUSTOM_DATA
1002
{
1000
#$AUX@_TCDO_SOURCE_COLOR
1070
           3
1071
        0
1000
#$AUX@_TCDO_PARENT_ID
1070
           3
1071
       99
1000
#$AUX@_TCDO_GTYPE
1070
           3
1071
        1
1000
#$AUX@_TCDO_VISIBILITY
1070
           3
1071
        0
1002
}
  0
LINE
  5
1C3
100
AcDbEntity
  8
図
370
         100
  6
Continuous
 62
           7
100
AcDbLine
 10
171.15
 20
133.8
 30
0.0
 11
172.65
 21
133.8
 31
0.0
1001
ACAD
1000
TCW40_DEV_WIDTH
1002
{
1040
0.039370078593
1002
}
1001
TCAD
1000
TCW_CUSTOM_DATA
1002
{
1000
#$AUX@_TCDO_SOURCE_COLOR
1070
           3
1071
        0
1000
#$AUX@_TCDO_PARENT_ID
1070
           3
1071
       99
1000
#$AUX@_TCDO_GTYPE
1070
           3
1071
        1
1000
#$AUX@_TCDO_VISIBILITY
1070
           3
1071
        0
1002
}
  0
LINE
  5
1C4
100
AcDbEntity
  8
図
370
         100
  6
Continuous
 62
           7
100
AcDbLine
 10
172.65
 20
138.8
 30
0.0
 11
171.15
 21
138.8
 31
0.0
1001
ACAD
1000
TCW40_DEV_WIDTH
1002
{
1040
0.039370078593
1002
}
1001
TCAD
1000
TCW_CUSTOM_DATA
1002
{
1000
#$AUX@_TCDO_SOURCE_COLOR
1070
           3
1071
        0
1000
#$AUX@_TCDO_PARENT_ID
1070
           3
1071
       99
1000
#$AUX@_TCDO_GTYPE
1070
           3
1071
        1
1000
#$AUX@_TCDO_VISIBILITY
1070
           3
1071
        0
1002
}
  0
ELLIPSE
  5
1C5
100
AcDbEntity
  8
図
370
         100
  6
Continuous
 62
           7
100
AcDbEllipse
 10
172.65
 20
141.276923076923
 30
0.0
 11
1.5
 21
0.0
 31
0.0
210
0.0
220
0.0
230
1.0
 40
0.015384615385
 41
1.5707963267948966
 42
3.1415926535897931
1001
ACAD
1000
TCW40_DEV_WIDTH
1002
{
1040
0.039370078593
1002
}
1001
TCAD
1000
TCW_CUSTOM_DATA
1002
{
1000
#$AUX@_TCDO_SOURCE_COLOR
1070
           3
1071
        0
1000
#$AUX@_TCDO_PARENT_ID
1070
           3
1071
       99
1000
#$AUX@_TCDO_GTYPE
1070
           3
1071
        1
1000
#$AUX@_TCDO_VISIBILITY
1070
           3
1071
        0
1002
}
  0
LINE
  5
1C6
100
AcDbEntity
  8
図
370
         100
  6
Continuous
 62
           7
100
AcDbLine
 10
171.15
 20
141.276923076923
 30
0.0
 11
171.15
 21
138.8
 31
0.0
1001
ACAD
1000
TCW40_DEV_WIDTH
1002
{
1040
0.039370078593
1002
}
1001
TCAD
1000
TCW_CUSTOM_DATA
1002
{
1000
#$AUX@_TCDO_SOURCE_COLOR
1070
           3
1071
        0
1000
#$AUX@_TCDO_PARENT_ID
1070
           3
1071
       99
1000
#$AUX@_TCDO_GTYPE
1070
           3
1071
        1
1000
#$AUX@_TCDO_VISIBILITY
1070
           3
1071
        0
1002
}
  0
LINE
  5
1C7
100
AcDbEntity
  8
図
370
         100
  6
Continuous
 62
           7
100
AcDbLine
 10
189.049999999997
 20
123.5
 30
0.0
 11
189.049999999997
 21
124.5
 31
0.0
1001
ACAD
1000
TCW40_DEV_WIDTH
1002
{
1040
0.039370078593
1002
}
1001
TCAD
1000
TCW_CUSTOM_DATA
1002
{
1000
#$AUX@_TCDO_SOURCE_COLOR
1070
           3
1071
        0
1000
#$AUX@_TCDO_PARENT_ID
1070
           3
1071
       99
1000
#$AUX@_TCDO_GTYPE
1070
           3
1071
        0
1000
#$AUX@_TCDO_VISIBILITY
1070
           3
1071
        0
1002
}
  0
LINE
  5
1C8
100
AcDbEntity
  8
図
370
         100
  6
Continuous
 62
           7
100
AcDbLine
 10
179.249999999998
 20
149.1
 30
0.0
 11
179.249999999998
 21
148.1
 31
0.0
1001
ACAD
1000
TCW40_DEV_WIDTH
1002
{
1040
0.039370078593
1002
}
1001
TCAD
1000
TCW_CUSTOM_DATA
1002
{
1000
#$AUX@_TCDO_SOURCE_COLOR
1070
           3
1071
        0
1000
#$AUX@_TCDO_PARENT_ID
1070
           3
1071
       99
1000
#$AUX@_TCDO_GTYPE
1070
           3
1071
        0
1000
#$AUX@_TCDO_VISIBILITY
1070
           3
1071
        0
1002
}
  0
LINE
  5
1C9
100
AcDbEntity
  8
図
370
         100
  6
Continuous
 62
           7
100
AcDbLine
 10
174.15
 20
148.1
 30
0.0
 11
194.15
 21
148.1
 31
0.0
1001
ACAD
1000
TCW40_DEV_WIDTH
1002
{
1040
0.039370078593
1002
}
1001
TCAD
1000
TCW_CUSTOM_DATA
1002
{
1000
#$AUX@_TCDO_SOURCE_COLOR
1070
           3
1071
        0
1000
#$AUX@_TCDO_PARENT_ID
1070
           3
1071
       99
1000
#$AUX@_TCDO_GTYPE
1070
           3
1071
        1
1000
#$AUX@_TCDO_VISIBILITY
1070
           3
1071
        0
1002
}
  0
ARC
  5
1CA
100
AcDbEntity
  8
図
370
         100
  6
Continuous
 62
           7
100
AcDbCircle
 10
174.15
 20
147.6
 30
0.0
 40
0.5
100
AcDbArc
 50
90.0
 51
180.0
1001
ACAD
1000
TCW40_DEV_WIDTH
1002
{
1040
0.039370078593
1002
}
1001
TCAD
1000
TCW_CUSTOM_DATA
1002
{
1000
#$AUX@_TCDO_SOURCE_COLOR
1070
           3
1071
        0
1000
#$AUX@_TCDO_PARENT_ID
1070
           3
1071
       99
1000
#$AUX@_TCDO_GTYPE
1070
           3
1071
        1
1000
#$AUX@_TCDO_VISIBILITY
1070
           3
1071
        0
1002
}
  0
LINE
  5
1CB
100
AcDbEntity
  8
図
370
         100
  6
Continuous
 62
           7
100
AcDbLine
 10
173.65
 20
142.9
 30
0.0
 11
173.65
 21
147.6
 31
0.0
1001
ACAD
1000
TCW40_DEV_WIDTH
1002
{
1040
0.039370078593
1002
}
1001
TCAD
1000
TCW_CUSTOM_DATA
1002
{
1000
#$AUX@_TCDO_SOURCE_COLOR
1070
           3
1071
        0
1000
#$AUX@_TCDO_PARENT_ID
1070
           3
1071
       99
1000
#$AUX@_TCDO_GTYPE
1070
           3
1071
        1
1000
#$AUX@_TCDO_VISIBILITY
1070
           3
1071
        0
1002
}
  0
ARC
  5
1CC
100
AcDbEntity
  8
図
370
         100
  6
Continuous
 62
           7
100
AcDbCircle
 10
194.150000000005
 20
125.000000000002
 30
0.0
 40
0.5
100
AcDbArc
 50
-90.0
 51
0.0
1001
ACAD
1000
TCW40_DEV_WIDTH
1002
{
1040
0.039370078593
1002
}
1001
TCAD
1000
TCW_CUSTOM_DATA
1002
{
1000
#$AUX@_TCDO_SOURCE_COLOR
1070
           3
1071
        0
1000
#$AUX@_TCDO_PARENT_ID
1070
           3
1071
       99
1000
#$AUX@_TCDO_GTYPE
1070
           3
1071
        1
1000
#$AUX@_TCDO_VISIBILITY
1070
           3
1071
        0
1002
}
  0
LINE
  5
1CD
100
AcDbEntity
  8
図
370
         100
  6
Continuous
 62
           7
100
AcDbLine
 10
173.15
 20
142.9
 30
0.0
 11
173.15
 21
147.6
 31
0.0
1001
ACAD
1000
TCW40_DEV_WIDTH
1002
{
1040
0.039370078593
1002
}
1001
TCAD
1000
TCW_CUSTOM_DATA
1002
{
1000
#$AUX@_TCDO_SOURCE_COLOR
1070
           3
1071
        0
1000
#$AUX@_TCDO_PARENT_ID
1070
           3
1071
       99
1000
#$AUX@_TCDO_GTYPE
1070
           3
1071
        0
1000
#$AUX@_TCDO_VISIBILITY
1070
           3
1071
        0
1002
}
  0
ARC
  5
1CE
100
AcDbEntity
  8
図
370
         100
  6
Continuous
 62
           7
100
AcDbCircle
 10
174.15
 20
147.6
 30
0.0
 40
1.0
100
AcDbArc
 50
90.0
 51
180.0
1001
ACAD
1000
TCW40_DEV_WIDTH
1002
{
1040
0.039370078593
1002
}
1001
TCAD
1000
TCW_CUSTOM_DATA
1002
{
1000
#$AUX@_TCDO_SOURCE_COLOR
1070
           3
1071
        0
1000
#$AUX@_TCDO_PARENT_ID
1070
           3
1071
       99
1000
#$AUX@_TCDO_GTYPE
1070
           3
1071
        0
1000
#$AUX@_TCDO_VISIBILITY
1070
           3
1071
        0
1002
}
  0
LINE
  5
1CF
100
AcDbEntity
  8
図
370
         100
  6
Continuous
 62
           7
100
AcDbLine
 10
173.15
 20
147.6
 30
0.0
 11
172.65
 21
147.6
 31
0.0
1001
ACAD
1000
TCW40_DEV_WIDTH
1002
{
1040
0.039370078593
1002
}
1001
TCAD
1000
TCW_CUSTOM_DATA
1002
{
1000
#$AUX@_TCDO_SOURCE_COLOR
1070
           3
1071
        0
1000
#$AUX@_TCDO_PARENT_ID
1070
           3
1071
       99
1000
#$AUX@_TCDO_GTYPE
1070
           3
1071
        0
1000
#$AUX@_TCDO_VISIBILITY
1070
           3
1071
        0
1002
}
  0
LINE
  5
1D0
100
AcDbEntity
  8
図
370
         100
  6
Continuous
 62
           7
100
AcDbLine
 10
195.15
 20
147.6
 30
0.0
 11
195.15
 21
142.9
 31
0.0
1001
ACAD
1000
TCW40_DEV_WIDTH
1002
{
1040
0.039370078593
1002
}
1001
TCAD
1000
TCW_CUSTOM_DATA
1002
{
1000
#$AUX@_TCDO_SOURCE_COLOR
1070
           3
1071
        0
1000
#$AUX@_TCDO_PARENT_ID
1070
           3
1071
       99
1000
#$AUX@_TCDO_GTYPE
1070
           3
1071
        0
1000
#$AUX@_TCDO_VISIBILITY
1070
           3
1071
        0
1002
}
  0
LINE
  5
1D1
100
AcDbEntity
  8
図
370
         100
  6
Continuous
 62
           7
100
AcDbLine
 10
194.15
 20
149.1
 30
0.0
 11
174.15
 21
149.1
 31
0.0
1001
ACAD
1000
TCW40_DEV_WIDTH
1002
{
1040
0.039370078593
1002
}
1001
TCAD
1000
TCW_CUSTOM_DATA
1002
{
1000
#$AUX@_TCDO_SOURCE_COLOR
1070
           3
1071
        0
1000
#$AUX@_TCDO_PARENT_ID
1070
           3
1071
       99
1000
#$AUX@_TCDO_GTYPE
1070
           3
1071
        1
1000
#$AUX@_TCDO_VISIBILITY
1070
           3
1071
        0
1002
}
  0
LINE
  5
1D2
100
AcDbEntity
  8
図
370
         100
  6
Continuous
 62
           7
100
AcDbLine
 10
174.15
 20
148.6
 30
0.0
 11
194.15
 21
148.6
 31
0.0
1001
ACAD
1000
TCW40_DEV_WIDTH
1002
{
1040
0.039370078593
1002
}
1001
TCAD
1000
TCW_CUSTOM_DATA
1002
{
1000
#$AUX@_TCDO_SOURCE_COLOR
1070
           3
1071
        0
1000
#$AUX@_TCDO_PARENT_ID
1070
           3
1071
       99
1000
#$AUX@_TCDO_GTYPE
1070
           3
1071
        0
1000
#$AUX@_TCDO_VISIBILITY
1070
           3
1071
        0
1002
}
  0
LINE
  5
1D3
100
AcDbEntity
  8
図
370
         100
  6
Continuous
 62
           7
100
AcDbLine
 10
174.15
 20
148.6
 30
0.0
 11
174.15
 21
149.1
 31
0.0
1001
ACAD
1000
TCW40_DEV_WIDTH
1002
{
1040
0.039370078593
1002
}
1001
TCAD
1000
TCW_CUSTOM_DATA
1002
{
1000
#$AUX@_TCDO_SOURCE_COLOR
1070
           3
1071
        0
1000
#$AUX@_TCDO_PARENT_ID
1070
           3
1071
       99
1000
#$AUX@_TCDO_GTYPE
1070
           3
1071
        0
1000
#$AUX@_TCDO_VISIBILITY
1070
           3
1071
        0
1002
}
  0
ARC
  5
1D4
100
AcDbEntity
  8
図
370
         100
  6
Continuous
 62
           7
100
AcDbCircle
 10
194.15
 20
147.6
 30
0.0
 40
1.5
100
AcDbArc
 50
0.0
 51
90.0
1001
ACAD
1000
TCW40_DEV_WIDTH
1002
{
1040
0.039370078593
1002
}
1001
TCAD
1000
TCW_CUSTOM_DATA
1002
{
1000
#$AUX@_TCDO_SOURCE_COLOR
1070
           3
1071
        0
1000
#$AUX@_TCDO_PARENT_ID
1070
           3
1071
       99
1000
#$AUX@_TCDO_GTYPE
1070
           3
1071
        1
1000
#$AUX@_TCDO_VISIBILITY
1070
           3
1071
        0
1002
}
  0
LINE
  5
1D5
100
AcDbEntity
  8
図
370
         100
  6
Continuous
 62
           7
100
AcDbLine
 10
195.65
 20
147.6
 30
0.0
 11
195.15
 21
147.6
 31
0.0
1001
ACAD
1000
TCW40_DEV_WIDTH
1002
{
1040
0.039370078593
1002
}
1001
TCAD
1000
TCW_CUSTOM_DATA
1002
{
1000
#$AUX@_TCDO_SOURCE_COLOR
1070
           3
1071
        0
1000
#$AUX@_TCDO_PARENT_ID
1070
           3
1071
       99
1000
#$AUX@_TCDO_GTYPE
1070
           3
1071
        0
1000
#$AUX@_TCDO_VISIBILITY
1070
           3
1071
        0
1002
}
  0
ARC
  5
1D6
100
AcDbEntity
  8
図
370
         100
  6
Continuous
 62
           7
100
AcDbCircle
 10
194.15
 20
147.6
 30
0.0
 40
1.0
100
AcDbArc
 50
0.0
 51
90.0
1001
ACAD
1000
TCW40_DEV_WIDTH
1002
{
1040
0.039370078593
1002
}
1001
TCAD
1000
TCW_CUSTOM_DATA
1002
{
1000
#$AUX@_TCDO_SOURCE_COLOR
1070
           3
1071
        0
1000
#$AUX@_TCDO_PARENT_ID
1070
           3
1071
       99
1000
#$AUX@_TCDO_GTYPE
1070
           3
1071
        0
1000
#$AUX@_TCDO_VISIBILITY
1070
           3
1071
        0
1002
}
  0
LINE
  5
1D7
100
AcDbEntity
  8
図
370
         100
  6
Continuous
 62
           7
100
AcDbLine
 10
194.15
 20
148.6
 30
0.0
 11
194.15
 21
149.1
 31
0.0
1001
ACAD
1000
TCW40_DEV_WIDTH
1002
{
1040
0.039370078593
1002
}
1001
TCAD
1000
TCW_CUSTOM_DATA
1002
{
1000
#$AUX@_TCDO_SOURCE_COLOR
1070
           3
1071
        0
1000
#$AUX@_TCDO_PARENT_ID
1070
           3
1071
       99
1000
#$AUX@_TCDO_GTYPE
1070
           3
1071
        0
1000
#$AUX@_TCDO_VISIBILITY
1070
           3
1071
        0
1002
}
  0
LINE
  5
1D8
100
AcDbEntity
  8
図
370
         100
  6
Continuous
 62
           7
100
AcDbLine
 10
195.15
 20
129.7
 30
0.0
 11
195.15
 21
125.0
 31
0.0
1001
ACAD
1000
TCW40_DEV_WIDTH
1002
{
1040
0.039370078593
1002
}
1001
TCAD
1000
TCW_CUSTOM_DATA
1002
{
1000
#$AUX@_TCDO_SOURCE_COLOR
1070
           3
1071
        0
1000
#$AUX@_TCDO_PARENT_ID
1070
           3
1071
       99
1000
#$AUX@_TCDO_GTYPE
1070
           3
1071
        0
1000
#$AUX@_TCDO_VISIBILITY
1070
           3
1071
        0
1002
}
  0
ARC
  5
1D9
100
AcDbEntity
  8
図
370
         100
  6
Continuous
 62
           7
100
AcDbCircle
 10
194.15
 20
125.0
 30
0.0
 40
1.5
100
AcDbArc
 50
-90.0
 51
0.0
1001
ACAD
1000
TCW40_DEV_WIDTH
1002
{
1040
0.039370078593
1002
}
1001
TCAD
1000
TCW_CUSTOM_DATA
1002
{
1000
#$AUX@_TCDO_SOURCE_COLOR
1070
           3
1071
        0
1000
#$AUX@_TCDO_PARENT_ID
1070
           3
1071
       99
1000
#$AUX@_TCDO_GTYPE
1070
           3
1071
        1
1000
#$AUX@_TCDO_VISIBILITY
1070
           3
1071
        0
1002
}
  0
ARC
  5
1DA
100
AcDbEntity
  8
図
370
         100
  6
Continuous
 62
           7
100
AcDbCircle
 10
194.15
 20
125.0
 30
0.0
 40
1.0
100
AcDbArc
 50
-90.0
 51
0.0
1001
ACAD
1000
TCW40_DEV_WIDTH
1002
{
1040
0.039370078593
1002
}
1001
TCAD
1000
TCW_CUSTOM_DATA
1002
{
1000
#$AUX@_TCDO_SOURCE_COLOR
1070
           3
1071
        0
1000
#$AUX@_TCDO_PARENT_ID
1070
           3
1071
       99
1000
#$AUX@_TCDO_GTYPE
1070
           3
1071
        0
1000
#$AUX@_TCDO_VISIBILITY
1070
           3
1071
        0
1002
}
  0
LINE
  5
1DB
100
AcDbEntity
  8
図
370
         100
  6
Continuous
 62
           7
100
AcDbLine
 10
195.15
 20
125.0
 30
0.0
 11
195.65
 21
125.0
 31
0.0
1001
ACAD
1000
TCW40_DEV_WIDTH
1002
{
1040
0.039370078593
1002
}
1001
TCAD
1000
TCW_CUSTOM_DATA
1002
{
1000
#$AUX@_TCDO_SOURCE_COLOR
1070
           3
1071
        0
1000
#$AUX@_TCDO_PARENT_ID
1070
           3
1071
       99
1000
#$AUX@_TCDO_GTYPE
1070
           3
1071
        0
1000
#$AUX@_TCDO_VISIBILITY
1070
           3
1071
        0
1002
}
  0
LINE
  5
1DC
100
AcDbEntity
  8
図
370
         100
  6
Continuous
 62
           7
100
AcDbLine
 10
173.15
 20
125.0
 30
0.0
 11
173.15
 21
129.7
 31
0.0
1001
ACAD
1000
TCW40_DEV_WIDTH
1002
{
1040
0.039370078593
1002
}
1001
TCAD
1000
TCW_CUSTOM_DATA
1002
{
1000
#$AUX@_TCDO_SOURCE_COLOR
1070
           3
1071
        0
1000
#$AUX@_TCDO_PARENT_ID
1070
           3
1071
       99
1000
#$AUX@_TCDO_GTYPE
1070
           3
1071
        0
1000
#$AUX@_TCDO_VISIBILITY
1070
           3
1071
        0
1002
}
  0
LINE
  5
1DD
100
AcDbEntity
  8
図
370
         100
  6
Continuous
 62
           7
100
AcDbLine
 10
194.15
 20
124.0
 30
0.0
 11
174.15
 21
124.0
 31
0.0
1001
ACAD
1000
TCW40_DEV_WIDTH
1002
{
1040
0.039370078593
1002
}
1001
TCAD
1000
TCW_CUSTOM_DATA
1002
{
1000
#$AUX@_TCDO_SOURCE_COLOR
1070
           3
1071
        0
1000
#$AUX@_TCDO_PARENT_ID
1070
           3
1071
       99
1000
#$AUX@_TCDO_GTYPE
1070
           3
1071
        0
1000
#$AUX@_TCDO_VISIBILITY
1070
           3
1071
        0
1002
}
  0
LINE
  5
1DE
100
AcDbEntity
  8
図
370
         100
  6
Continuous
 62
           7
100
AcDbLine
 10
194.15
 20
124.0
 30
0.0
 11
194.15
 21
123.5
 31
0.0
1001
ACAD
1000
TCW40_DEV_WIDTH
1002
{
1040
0.039370078593
1002
}
1001
TCAD
1000
TCW_CUSTOM_DATA
1002
{
1000
#$AUX@_TCDO_SOURCE_COLOR
1070
           3
1071
        0
1000
#$AUX@_TCDO_PARENT_ID
1070
           3
1071
       99
1000
#$AUX@_TCDO_GTYPE
1070
           3
1071
        0
1000
#$AUX@_TCDO_VISIBILITY
1070
           3
1071
        0
1002
}
  0
LINE
  5
1DF
100
AcDbEntity
  8
図
370
         100
  6
Continuous
 62
           7
100
AcDbLine
 10
172.65
 20
125.0
 30
0.0
 11
173.15
 21
125.0
 31
0.0
1001
ACAD
1000
TCW40_DEV_WIDTH
1002
{
1040
0.039370078593
1002
}
1001
TCAD
1000
TCW_CUSTOM_DATA
1002
{
1000
#$AUX@_TCDO_SOURCE_COLOR
1070
           3
1071
        0
1000
#$AUX@_TCDO_PARENT_ID
1070
           3
1071
       99
1000
#$AUX@_TCDO_GTYPE
1070
           3
1071
        0
1000
#$AUX@_TCDO_VISIBILITY
1070
           3
1071
        0
1002
}
  0
ARC
  5
1E0
100
AcDbEntity
  8
図
370
         100
  6
Continuous
 62
           7
100
AcDbCircle
 10
174.15
 20
125.0
 30
0.0
 40
1.0
100
AcDbArc
 50
180.0
 51
270.0
1001
ACAD
1000
TCW40_DEV_WIDTH
1002
{
1040
0.039370078593
1002
}
1001
TCAD
1000
TCW_CUSTOM_DATA
1002
{
1000
#$AUX@_TCDO_SOURCE_COLOR
1070
           3
1071
        0
1000
#$AUX@_TCDO_PARENT_ID
1070
           3
1071
       99
1000
#$AUX@_TCDO_GTYPE
1070
           3
1071
        0
1000
#$AUX@_TCDO_VISIBILITY
1070
           3
1071
        0
1002
}
  0
LINE
  5
1E1
100
AcDbEntity
  8
図
370
         100
  6
Continuous
 62
           7
100
AcDbLine
 10
174.15
 20
124.0
 30
0.0
 11
174.15
 21
123.5
 31
0.0
1001
ACAD
1000
TCW40_DEV_WIDTH
1002
{
1040
0.039370078593
1002
}
1001
TCAD
1000
TCW_CUSTOM_DATA
1002
{
1000
#$AUX@_TCDO_SOURCE_COLOR
1070
           3
1071
        0
1000
#$AUX@_TCDO_PARENT_ID
1070
           3
1071
       99
1000
#$AUX@_TCDO_GTYPE
1070
           3
1071
        0
1000
#$AUX@_TCDO_VISIBILITY
1070
           3
1071
        0
1002
}
  0
LINE
  5
1E2
100
AcDbEntity
  8
図
370
         100
  6
Continuous
 62
           7
100
AcDbLine
 10
167.15
 20
129.7
 30
0.0
 11
173.15
 21
129.7
 31
0.0
1001
ACAD
1000
TCW40_DEV_WIDTH
1002
{
1040
0.039370078593
1002
}
1001
TCAD
1000
TCW_CUSTOM_DATA
1002
{
1000
#$AUX@_TCDO_SOURCE_COLOR
1070
           3
1071
        0
1000
#$AUX@_TCDO_PARENT_ID
1070
           3
1071
       99
1000
#$AUX@_TCDO_GTYPE
1070
           3
1071
        1
1000
#$AUX@_TCDO_VISIBILITY
1070
           3
1071
        0
1002
}
  0
LINE
  5
1E3
100
AcDbEntity
  8
図
370
         100
  6
Continuous
 62
           7
100
AcDbLine
 10
169.45
 20
141.4
 30
0.0
 11
172.65
 21
141.4
 31
0.0
1001
ACAD
1000
TCW40_DEV_WIDTH
1002
{
1040
0.039370078593
1002
}
1001
TCAD
1000
TCW_CUSTOM_DATA
1002
{
1000
#$AUX@_TCDO_SOURCE_COLOR
1070
           3
1071
        0
1000
#$AUX@_TCDO_PARENT_ID
1070
           3
1071
       99
1000
#$AUX@_TCDO_GTYPE
1070
           3
1071
        1
1000
#$AUX@_TCDO_VISIBILITY
1070
           3
1071
        0
1002
}
  0
LINE
  5
1E4
100
AcDbEntity
  8
図
370
         100
  6
Continuous
 62
           7
100
AcDbLine
 10
172.65
 20
131.2
 30
0.0
 11
169.45
 21
131.2
 31
0.0
1001
ACAD
1000
TCW40_DEV_WIDTH
1002
{
1040
0.039370078593
1002
}
1001
TCAD
1000
TCW_CUSTOM_DATA
1002
{
1000
#$AUX@_TCDO_SOURCE_COLOR
1070
           3
1071
        0
1000
#$AUX@_TCDO_PARENT_ID
1070
           3
1071
       99
1000
#$AUX@_TCDO_GTYPE
1070
           3
1071
        1
1000
#$AUX@_TCDO_VISIBILITY
1070
           3
1071
        0
1002
}
  0
LINE
  5
1E5
100
AcDbEntity
  8
図
370
         100
  6
Continuous
 62
           7
100
AcDbLine
 10
169.45
 20
131.2
 30
0.0
 11
169.45
 21
141.4
 31
0.0
1001
ACAD
1000
TCW40_DEV_WIDTH
1002
{
1040
0.039370078593
1002
}
1001
TCAD
1000
TCW_CUSTOM_DATA
1002
{
1000
#$AUX@_TCDO_SOURCE_COLOR
1070
           3
1071
        0
1000
#$AUX@_TCDO_PARENT_ID
1070
           3
1071
       99
1000
#$AUX@_TCDO_GTYPE
1070
           3
1071
        1
1000
#$AUX@_TCDO_VISIBILITY
1070
           3
1071
        0
1002
}
  0
LINE
  5
1E6
100
AcDbEntity
  8
図
370
         100
  6
Continuous
 62
           7
100
AcDbLine
 10
166.65
 20
142.9
 30
0.0
 11
166.65
 21
129.7
 31
0.0
1001
ACAD
1000
TCW40_DEV_WIDTH
1002
{
1040
0.039370078593
1002
}
1001
TCAD
1000
TCW_CUSTOM_DATA
1002
{
1000
#$AUX@_TCDO_SOURCE_COLOR
1070
           3
1071
        0
1000
#$AUX@_TCDO_PARENT_ID
1070
           3
1071
       99
1000
#$AUX@_TCDO_GTYPE
1070
           3
1071
        1
1000
#$AUX@_TCDO_VISIBILITY
1070
           3
1071
        0
1002
}
  0
LINE
  5
1E7
100
AcDbEntity
  8
図
370
         100
  6
Continuous
 62
           7
100
AcDbLine
 10
167.15
 20
129.7
 30
0.0
 11
167.15
 21
142.9
 31
0.0
1001
ACAD
1000
TCW40_DEV_WIDTH
1002
{
1040
0.039370078593
1002
}
1001
TCAD
1000
TCW_CUSTOM_DATA
1002
{
1000
#$AUX@_TCDO_SOURCE_COLOR
1070
           3
1071
        0
1000
#$AUX@_TCDO_PARENT_ID
1070
           3
1071
       99
1000
#$AUX@_TCDO_GTYPE
1070
           3
1071
        0
1000
#$AUX@_TCDO_VISIBILITY
1070
           3
1071
        0
1002
}
  0
LINE
  5
1E8
100
AcDbEntity
  8
図
370
         100
  6
Continuous
 62
           7
100
AcDbLine
 10
167.15
 20
129.7
 30
0.0
 11
166.65
 21
129.7
 31
0.0
1001
ACAD
1000
TCW40_DEV_WIDTH
1002
{
1040
0.039370078593
1002
}
1001
TCAD
1000
TCW_CUSTOM_DATA
1002
{
1000
#$AUX@_TCDO_SOURCE_COLOR
1070
           3
1071
        0
1000
#$AUX@_TCDO_PARENT_ID
1070
           3
1071
       99
1000
#$AUX@_TCDO_GTYPE
1070
           3
1071
        1
1000
#$AUX@_TCDO_VISIBILITY
1070
           3
1071
        0
1002
}
  0
LINE
  5
1E9
100
AcDbEntity
  8
図
370
         100
  6
Continuous
 62
           7
100
AcDbLine
 10
172.65
 20
131.2
 30
0.0
 11
172.65
 21
130.2
 31
0.0
1001
ACAD
1000
TCW40_DEV_WIDTH
1002
{
1040
0.039370078593
1002
}
1001
TCAD
1000
TCW_CUSTOM_DATA
1002
{
1000
#$AUX@_TCDO_SOURCE_COLOR
1070
           3
1071
        0
1000
#$AUX@_TCDO_PARENT_ID
1070
           3
1071
       99
1000
#$AUX@_TCDO_GTYPE
1070
           3
1071
        0
1000
#$AUX@_TCDO_VISIBILITY
1070
           3
1071
        0
1002
}
  0
LINE
  5
1EA
100
AcDbEntity
  8
図
370
         100
  6
Continuous
 62
           7
100
AcDbLine
 10
172.65
 20
142.4
 30
0.0
 11
172.65
 21
141.4
 31
0.0
1001
ACAD
1000
TCW40_DEV_WIDTH
1002
{
1040
0.039370078593
1002
}
1001
TCAD
1000
TCW_CUSTOM_DATA
1002
{
1000
#$AUX@_TCDO_SOURCE_COLOR
1070
           3
1071
        0
1000
#$AUX@_TCDO_PARENT_ID
1070
           3
1071
       99
1000
#$AUX@_TCDO_GTYPE
1070
           3
1071
        0
1000
#$AUX@_TCDO_VISIBILITY
1070
           3
1071
        0
1002
}
  0
LINE
  5
1EB
100
AcDbEntity
  8
図
370
         100
  6
Continuous
 62
           7
100
AcDbLine
 10
173.15
 20
142.9
 30
0.0
 11
167.15
 21
142.9
 31
0.0
1001
ACAD
1000
TCW40_DEV_WIDTH
1002
{
1040
0.039370078593
1002
}
1001
TCAD
1000
TCW_CUSTOM_DATA
1002
{
1000
#$AUX@_TCDO_SOURCE_COLOR
1070
           3
1071
        0
1000
#$AUX@_TCDO_PARENT_ID
1070
           3
1071
       99
1000
#$AUX@_TCDO_GTYPE
1070
           3
1071
        1
1000
#$AUX@_TCDO_VISIBILITY
1070
           3
1071
        0
1002
}
  0
LINE
  5
1EC
100
AcDbEntity
  8
図
370
         100
  6
Continuous
 62
           7
100
AcDbLine
 10
166.65
 20
142.9
 30
0.0
 11
167.15
 21
142.9
 31
0.0
1001
ACAD
1000
TCW40_DEV_WIDTH
1002
{
1040
0.039370078593
1002
}
1001
TCAD
1000
TCW_CUSTOM_DATA
1002
{
1000
#$AUX@_TCDO_SOURCE_COLOR
1070
           3
1071
        0
1000
#$AUX@_TCDO_PARENT_ID
1070
           3
1071
       99
1000
#$AUX@_TCDO_GTYPE
1070
           3
1071
        1
1000
#$AUX@_TCDO_VISIBILITY
1070
           3
1071
        0
1002
}
  0
LINE
  5
1ED
100
AcDbEntity
  8
図
370
         100
  6
Continuous
 62
           7
100
AcDbLine
 10
173.15
 20
142.9
 30
0.0
 11
173.65
 21
142.9
 31
0.0
1001
ACAD
1000
TCW40_DEV_WIDTH
1002
{
1040
0.039370078593
1002
}
1001
TCAD
1000
TCW_CUSTOM_DATA
1002
{
1000
#$AUX@_TCDO_SOURCE_COLOR
1070
           3
1071
        0
1000
#$AUX@_TCDO_PARENT_ID
1070
           3
1071
       99
1000
#$AUX@_TCDO_GTYPE
1070
           3
1071
        1
1000
#$AUX@_TCDO_VISIBILITY
1070
           3
1071
        0
1002
}
  0
LINE
  5
1EE
100
AcDbEntity
  8
図
370
         100
  6
Continuous
 62
           7
100
AcDbLine
 10
173.65
 20
142.4
 30
0.0
 11
172.65
 21
142.4
 31
0.0
1001
ACAD
1000
TCW40_DEV_WIDTH
1002
{
1040
0.039370078593
1002
}
1001
TCAD
1000
TCW_CUSTOM_DATA
1002
{
1000
#$AUX@_TCDO_SOURCE_COLOR
1070
           3
1071
        0
1000
#$AUX@_TCDO_PARENT_ID
1070
           3
1071
       99
1000
#$AUX@_TCDO_GTYPE
1070
           3
1071
        0
1000
#$AUX@_TCDO_VISIBILITY
1070
           3
1071
        0
1002
}
  0
ARC
  5
1EF
100
AcDbEntity
  8
図
370
         100
  6
Continuous
 62
           7
100
AcDbCircle
 10
173.15
 20
142.4
 30
0.0
 40
0.5
100
AcDbArc
 50
90.0
 51
180.0
1001
ACAD
1000
TCW40_DEV_WIDTH
1002
{
1040
0.039370078593
1002
}
1001
TCAD
1000
TCW_CUSTOM_DATA
1002
{
1000
#$AUX@_TCDO_SOURCE_COLOR
1070
           3
1071
        0
1000
#$AUX@_TCDO_PARENT_ID
1070
           3
1071
       99
1000
#$AUX@_TCDO_GTYPE
1070
           3
1071
        0
1000
#$AUX@_TCDO_VISIBILITY
1070
           3
1071
        0
1002
}
  0
LINE
  5
1F0
100
AcDbEntity
  8
図
370
         100
  6
Continuous
 62
           7
100
AcDbLine
 10
194.65
 20
142.9
 30
0.0
 11
173.65
 21
142.9
 31
0.0
1001
ACAD
1000
TCW40_DEV_WIDTH
1002
{
1040
0.039370078593
1002
}
1001
TCAD
1000
TCW_CUSTOM_DATA
1002
{
1000
#$AUX@_TCDO_SOURCE_COLOR
1070
           3
1071
        0
1000
#$AUX@_TCDO_PARENT_ID
1070
           3
1071
       99
1000
#$AUX@_TCDO_GTYPE
1070
           3
1071
        1
1000
#$AUX@_TCDO_VISIBILITY
1070
           3
1071
        0
1002
}
  0
LINE
  5
1F1
100
AcDbEntity
  8
図
370
         100
  6
Continuous
 62
           7
100
AcDbLine
 10
173.65
 20
142.4
 30
0.0
 11
173.65
 21
142.9
 31
0.0
1001
ACAD
1000
TCW40_DEV_WIDTH
1002
{
1040
0.039370078593
1002
}
1001
TCAD
1000
TCW_CUSTOM_DATA
1002
{
1000
#$AUX@_TCDO_SOURCE_COLOR
1070
           3
1071
        0
1000
#$AUX@_TCDO_PARENT_ID
1070
           3
1071
       99
1000
#$AUX@_TCDO_GTYPE
1070
           3
1071
        0
1000
#$AUX@_TCDO_VISIBILITY
1070
           3
1071
        0
1002
}
  0
LINE
  5
1F2
100
AcDbEntity
  8
図
370
         100
  6
Continuous
 62
           7
100
AcDbLine
 10
195.65
 20
142.4
 30
0.0
 11
194.65
 21
142.4
 31
0.0
1001
ACAD
1000
TCW40_DEV_WIDTH
1002
{
1040
0.039370078593
1002
}
1001
TCAD
1000
TCW_CUSTOM_DATA
1002
{
1000
#$AUX@_TCDO_SOURCE_COLOR
1070
           3
1071
        0
1000
#$AUX@_TCDO_PARENT_ID
1070
           3
1071
       99
1000
#$AUX@_TCDO_GTYPE
1070
           3
1071
        0
1000
#$AUX@_TCDO_VISIBILITY
1070
           3
1071
        0
1002
}
  0
LINE
  5
1F3
100
AcDbEntity
  8
図
370
         100
  6
Continuous
 62
           7
100
AcDbLine
 10
194.65
 20
142.4
 30
0.0
 11
194.65
 21
142.9
 31
0.0
1001
ACAD
1000
TCW40_DEV_WIDTH
1002
{
1040
0.039370078593
1002
}
1001
TCAD
1000
TCW_CUSTOM_DATA
1002
{
1000
#$AUX@_TCDO_SOURCE_COLOR
1070
           3
1071
        0
1000
#$AUX@_TCDO_PARENT_ID
1070
           3
1071
       99
1000
#$AUX@_TCDO_GTYPE
1070
           3
1071
        0
1000
#$AUX@_TCDO_VISIBILITY
1070
           3
1071
        0
1002
}
  0
LINE
  5
1F4
100
AcDbEntity
  8
図
370
         100
  6
Continuous
 62
           7
100
AcDbLine
 10
194.65
 20
142.9
 30
0.0
 11
195.15
 21
142.9
 31
0.0
1001
ACAD
1000
TCW40_DEV_WIDTH
1002
{
1040
0.039370078593
1002
}
1001
TCAD
1000
TCW_CUSTOM_DATA
1002
{
1000
#$AUX@_TCDO_SOURCE_COLOR
1070
           3
1071
        0
1000
#$AUX@_TCDO_PARENT_ID
1070
           3
1071
       99
1000
#$AUX@_TCDO_GTYPE
1070
           3
1071
        1
1000
#$AUX@_TCDO_VISIBILITY
1070
           3
1071
        0
1002
}
  0
ARC
  5
1F5
100
AcDbEntity
  8
図
370
         100
  6
Continuous
 62
           7
100
AcDbCircle
 10
195.15
 20
142.4
 30
0.0
 40
0.5
100
AcDbArc
 50
0.0
 51
90.0
1001
ACAD
1000
TCW40_DEV_WIDTH
1002
{
1040
0.039370078593
1002
}
1001
TCAD
1000
TCW_CUSTOM_DATA
1002
{
1000
#$AUX@_TCDO_SOURCE_COLOR
1070
           3
1071
        0
1000
#$AUX@_TCDO_PARENT_ID
1070
           3
1071
       99
1000
#$AUX@_TCDO_GTYPE
1070
           3
1071
        1
1000
#$AUX@_TCDO_VISIBILITY
1070
           3
1071
        0
1002
}
  0
LINE
  5
1F6
100
AcDbEntity
  8
図
370
         100
  6
Continuous
 62
           7
100
AcDbLine
 10
172.65
 20
130.2
 30
0.0
 11
173.65
 21
130.2
 31
0.0
1001
ACAD
1000
TCW40_DEV_WIDTH
1002
{
1040
0.039370078593
1002
}
1001
TCAD
1000
TCW_CUSTOM_DATA
1002
{
1000
#$AUX@_TCDO_SOURCE_COLOR
1070
           3
1071
        0
1000
#$AUX@_TCDO_PARENT_ID
1070
           3
1071
       99
1000
#$AUX@_TCDO_GTYPE
1070
           3
1071
        0
1000
#$AUX@_TCDO_VISIBILITY
1070
           3
1071
        0
1002
}
  0
LINE
  5
1F7
100
AcDbEntity
  8
図
370
         100
  6
Continuous
 62
           7
100
AcDbLine
 10
173.65
 20
129.7
 30
0.0
 11
173.15
 21
129.7
 31
0.0
1001
ACAD
1000
TCW40_DEV_WIDTH
1002
{
1040
0.039370078593
1002
}
1001
TCAD
1000
TCW_CUSTOM_DATA
1002
{
1000
#$AUX@_TCDO_SOURCE_COLOR
1070
           3
1071
        0
1000
#$AUX@_TCDO_PARENT_ID
1070
           3
1071
       99
1000
#$AUX@_TCDO_GTYPE
1070
           3
1071
        1
1000
#$AUX@_TCDO_VISIBILITY
1070
           3
1071
        0
1002
}
  0
ARC
  5
1F8
100
AcDbEntity
  8
図
370
         100
  6
Continuous
 62
           7
100
AcDbCircle
 10
173.15
 20
130.2
 30
0.0
 40
0.5
100
AcDbArc
 50
180.0
 51
270.0
1001
ACAD
1000
TCW40_DEV_WIDTH
1002
{
1040
0.039370078593
1002
}
1001
TCAD
1000
TCW_CUSTOM_DATA
1002
{
1000
#$AUX@_TCDO_SOURCE_COLOR
1070
           3
1071
        0
1000
#$AUX@_TCDO_PARENT_ID
1070
           3
1071
       99
1000
#$AUX@_TCDO_GTYPE
1070
           3
1071
        0
1000
#$AUX@_TCDO_VISIBILITY
1070
           3
1071
        0
1002
}
  0
LINE
  5
1F9
100
AcDbEntity
  8
図
370
         100
  6
Continuous
 62
           7
100
AcDbLine
 10
173.65
 20
129.7
 30
0.0
 11
194.65
 21
129.7
 31
0.0
1001
ACAD
1000
TCW40_DEV_WIDTH
1002
{
1040
0.039370078593
1002
}
1001
TCAD
1000
TCW_CUSTOM_DATA
1002
{
1000
#$AUX@_TCDO_SOURCE_COLOR
1070
           3
1071
        0
1000
#$AUX@_TCDO_PARENT_ID
1070
           3
1071
       99
1000
#$AUX@_TCDO_GTYPE
1070
           3
1071
        1
1000
#$AUX@_TCDO_VISIBILITY
1070
           3
1071
        0
1002
}
  0
LINE
  5
1FA
100
AcDbEntity
  8
図
370
         100
  6
Continuous
 62
           7
100
AcDbLine
 10
173.65
 20
129.7
 30
0.0
 11
173.65
 21
130.2
 31
0.0
1001
ACAD
1000
TCW40_DEV_WIDTH
1002
{
1040
0.039370078593
1002
}
1001
TCAD
1000
TCW_CUSTOM_DATA
1002
{
1000
#$AUX@_TCDO_SOURCE_COLOR
1070
           3
1071
        0
1000
#$AUX@_TCDO_PARENT_ID
1070
           3
1071
       99
1000
#$AUX@_TCDO_GTYPE
1070
           3
1071
        0
1000
#$AUX@_TCDO_VISIBILITY
1070
           3
1071
        0
1002
}
  0
LINE
  5
1FB
100
AcDbEntity
  8
図
370
         100
  6
Continuous
 62
           7
100
AcDbLine
 10
194.65
 20
130.2
 30
0.0
 11
195.65
 21
130.2
 31
0.0
1001
ACAD
1000
TCW40_DEV_WIDTH
1002
{
1040
0.039370078593
1002
}
1001
TCAD
1000
TCW_CUSTOM_DATA
1002
{
1000
#$AUX@_TCDO_SOURCE_COLOR
1070
           3
1071
        0
1000
#$AUX@_TCDO_PARENT_ID
1070
           3
1071
       99
1000
#$AUX@_TCDO_GTYPE
1070
           3
1071
        0
1000
#$AUX@_TCDO_VISIBILITY
1070
           3
1071
        0
1002
}
  0
ARC
  5
1FC
100
AcDbEntity
  8
図
370
         100
  6
Continuous
 62
           7
100
AcDbCircle
 10
195.15
 20
130.2
 30
0.0
 40
0.5
100
AcDbArc
 50
-90.0
 51
0.0
1001
ACAD
1000
TCW40_DEV_WIDTH
1002
{
1040
0.039370078593
1002
}
1001
TCAD
1000
TCW_CUSTOM_DATA
1002
{
1000
#$AUX@_TCDO_SOURCE_COLOR
1070
           3
1071
        0
1000
#$AUX@_TCDO_PARENT_ID
1070
           3
1071
       99
1000
#$AUX@_TCDO_GTYPE
1070
           3
1071
        1
1000
#$AUX@_TCDO_VISIBILITY
1070
           3
1071
        0
1002
}
  0
LINE
  5
1FD
100
AcDbEntity
  8
図
370
         100
  6
Continuous
 62
           7
100
AcDbLine
 10
195.15
 20
129.7
 30
0.0
 11
194.65
 21
129.7
 31
0.0
1001
ACAD
1000
TCW40_DEV_WIDTH
1002
{
1040
0.039370078593
1002
}
1001
TCAD
1000
TCW_CUSTOM_DATA
1002
{
1000
#$AUX@_TCDO_SOURCE_COLOR
1070
           3
1071
        0
1000
#$AUX@_TCDO_PARENT_ID
1070
           3
1071
       99
1000
#$AUX@_TCDO_GTYPE
1070
           3
1071
        1
1000
#$AUX@_TCDO_VISIBILITY
1070
           3
1071
        0
1002
}
  0
LINE
  5
1FE
100
AcDbEntity
  8
図
370
         100
  6
Continuous
 62
           7
100
AcDbLine
 10
194.65
 20
129.7
 30
0.0
 11
194.65
 21
130.2
 31
0.0
1001
ACAD
1000
TCW40_DEV_WIDTH
1002
{
1040
0.039370078593
1002
}
1001
TCAD
1000
TCW_CUSTOM_DATA
1002
{
1000
#$AUX@_TCDO_SOURCE_COLOR
1070
           3
1071
        0
1000
#$AUX@_TCDO_PARENT_ID
1070
           3
1071
       99
1000
#$AUX@_TCDO_GTYPE
1070
           3
1071
        0
1000
#$AUX@_TCDO_VISIBILITY
1070
           3
1071
        0
1002
}
  0
LINE
  5
1FF
100
AcDbEntity
  8
図
370
         100
  6
Continuous
 62
           7
100
AcDbLine
 10
173.65
 20
131.699999999997
 30
0.0
 11
173.65
 21
140.9
 31
0.0
1001
ACAD
1000
TCW40_DEV_WIDTH
1002
{
1040
0.039370078593
1002
}
1001
TCAD
1000
TCW_CUSTOM_DATA
1002
{
1000
#$AUX@_TCDO_SOURCE_COLOR
1070
           3
1071
        0
1000
#$AUX@_TCDO_PARENT_ID
1070
           3
1071
       99
1000
#$AUX@_TCDO_GTYPE
1070
           3
1071
        0
1000
#$AUX@_TCDO_VISIBILITY
1070
           3
1071
        0
1002
}
  0
LINE
  5
200
100
AcDbEntity
  8
図
370
         100
  6
Continuous
 62
           7
100
AcDbLine
 10
194.65
 20
130.700000000005
 30
0.0
 11
194.65
 21
130.2
 31
0.0
1001
ACAD
1000
TCW40_DEV_WIDTH
1002
{
1040
0.039370078593
1002
}
1001
TCAD
1000
TCW_CUSTOM_DATA
1002
{
1000
#$AUX@_TCDO_SOURCE_COLOR
1070
           3
1071
        0
1000
#$AUX@_TCDO_PARENT_ID
1070
           3
1071
       99
1000
#$AUX@_TCDO_GTYPE
1070
           3
1071
        0
1000
#$AUX@_TCDO_VISIBILITY
1070
           3
1071
        0
1002
}
  0
LINE
  5
201
100
AcDbEntity
  8
図
370
         100
  6
Continuous
 62
           7
100
AcDbLine
 10
194.65
 20
130.2
 30
0.0
 11
173.65
 21
130.2
 31
0.0
1001
ACAD
1000
TCW40_DEV_WIDTH
1002
{
1040
0.039370078593
1002
}
1001
TCAD
1000
TCW_CUSTOM_DATA
1002
{
1000
#$AUX@_TCDO_SOURCE_COLOR
1070
           3
1071
        0
1000
#$AUX@_TCDO_PARENT_ID
1070
           3
1071
       99
1000
#$AUX@_TCDO_GTYPE
1070
           3
1071
        0
1000
#$AUX@_TCDO_VISIBILITY
1070
           3
1071
        0
1002
}
  0
LINE
  5
202
100
AcDbEntity
  8
図
370
         100
  6
Continuous
 62
           7
100
AcDbLine
 10
173.65
 20
130.2
 30
0.0
 11
173.65
 21
130.699999999996
 31
0.0
1001
ACAD
1000
TCW40_DEV_WIDTH
1002
{
1040
0.039370078593
1002
}
1001
TCAD
1000
TCW_CUSTOM_DATA
1002
{
1000
#$AUX@_TCDO_SOURCE_COLOR
1070
           3
1071
        0
1000
#$AUX@_TCDO_PARENT_ID
1070
           3
1071
       99
1000
#$AUX@_TCDO_GTYPE
1070
           3
1071
        0
1000
#$AUX@_TCDO_VISIBILITY
1070
           3
1071
        0
1002
}
  0
LINE
  5
203
100
AcDbEntity
  8
図
370
         100
  6
Continuous
 62
           7
100
AcDbLine
 10
194.65
 20
140.9
 30
0.0
 11
194.65
 21
131.700000000006
 31
0.0
1001
ACAD
1000
TCW40_DEV_WIDTH
1002
{
1040
0.039370078593
1002
}
1001
TCAD
1000
TCW_CUSTOM_DATA
1002
{
1000
#$AUX@_TCDO_SOURCE_COLOR
1070
           3
1071
        0
1000
#$AUX@_TCDO_PARENT_ID
1070
           3
1071
       99
1000
#$AUX@_TCDO_GTYPE
1070
           3
1071
        0
1000
#$AUX@_TCDO_VISIBILITY
1070
           3
1071
        0
1002
}
  0
LINE
  5
204
100
AcDbEntity
  8
図
370
         100
  6
Continuous
 62
           7
100
AcDbLine
 10
173.65
 20
141.9
 30
0.0
 11
173.65
 21
142.4
 31
0.0
1001
ACAD
1000
TCW40_DEV_WIDTH
1002
{
1040
0.039370078593
1002
}
1001
TCAD
1000
TCW_CUSTOM_DATA
1002
{
1000
#$AUX@_TCDO_SOURCE_COLOR
1070
           3
1071
        0
1000
#$AUX@_TCDO_PARENT_ID
1070
           3
1071
       99
1000
#$AUX@_TCDO_GTYPE
1070
           3
1071
        0
1000
#$AUX@_TCDO_VISIBILITY
1070
           3
1071
        0
1002
}
  0
LINE
  5
205
100
AcDbEntity
  8
図
370
         100
  6
Continuous
 62
           7
100
AcDbLine
 10
173.65
 20
142.4
 30
0.0
 11
194.65
 21
142.4
 31
0.0
1001
ACAD
1000
TCW40_DEV_WIDTH
1002
{
1040
0.039370078593
1002
}
1001
TCAD
1000
TCW_CUSTOM_DATA
1002
{
1000
#$AUX@_TCDO_SOURCE_COLOR
1070
           3
1071
        0
1000
#$AUX@_TCDO_PARENT_ID
1070
           3
1071
       99
1000
#$AUX@_TCDO_GTYPE
1070
           3
1071
        0
1000
#$AUX@_TCDO_VISIBILITY
1070
           3
1071
        0
1002
}
  0
LINE
  5
206
100
AcDbEntity
  8
図
370
         100
  6
Continuous
 62
           7
100
AcDbLine
 10
194.65
 20
142.4
 30
0.0
 11
194.65
 21
141.9
 31
0.0
1001
ACAD
1000
TCW40_DEV_WIDTH
1002
{
1040
0.039370078593
1002
}
1001
TCAD
1000
TCW_CUSTOM_DATA
1002
{
1000
#$AUX@_TCDO_SOURCE_COLOR
1070
           3
1071
        0
1000
#$AUX@_TCDO_PARENT_ID
1070
           3
1071
       99
1000
#$AUX@_TCDO_GTYPE
1070
           3
1071
        0
1000
#$AUX@_TCDO_VISIBILITY
1070
           3
1071
        0
1002
}
  0
LINE
  5
207
100
AcDbEntity
  8
図
370
         100
  6
Continuous
 62
           7
100
AcDbLine
 10
184.65
 20
140.9
 30
0.0
 11
184.65
 21
131.700000000002
 31
0.0
1001
ACAD
1000
TCW40_DEV_WIDTH
1002
{
1040
0.039370078593
1002
}
1001
TCAD
1000
TCW_CUSTOM_DATA
1002
{
1000
#$AUX@_TCDO_SOURCE_COLOR
1070
           3
1071
        0
1000
#$AUX@_TCDO_PARENT_ID
1070
           3
1071
       99
1000
#$AUX@_TCDO_GTYPE
1070
           3
1071
        1
1000
#$AUX@_TCDO_VISIBILITY
1070
           3
1071
        0
1002
}
  0
LINE
  5
208
100
AcDbEntity
  8
図
370
         100
  6
Continuous
 62
           7
100
AcDbLine
 10
194.65
 20
140.9
 30
0.0
 11
184.65
 21
140.9
 31
0.0
1001
ACAD
1000
TCW40_DEV_WIDTH
1002
{
1040
0.039370078593
1002
}
1001
TCAD
1000
TCW_CUSTOM_DATA
1002
{
1000
#$AUX@_TCDO_SOURCE_COLOR
1070
           3
1071
        0
1000
#$AUX@_TCDO_PARENT_ID
1070
           3
1071
       99
1000
#$AUX@_TCDO_GTYPE
1070
           3
1071
        1
1000
#$AUX@_TCDO_VISIBILITY
1070
           3
1071
        0
1002
}
  0
LINE
  5
209
100
AcDbEntity
  8
図
370
         100
  6
Continuous
 62
           7
100
AcDbLine
 10
194.65
 20
131.700000000006
 30
0.0
 11
194.65
 21
130.700000000005
 31
0.0
1001
ACAD
1000
TCW40_DEV_WIDTH
1002
{
1040
0.039370078593
1002
}
1001
TCAD
1000
TCW_CUSTOM_DATA
1002
{
1000
#$AUX@_TCDO_SOURCE_COLOR
1070
           3
1071
        0
1000
#$AUX@_TCDO_PARENT_ID
1070
           3
1071
       99
1000
#$AUX@_TCDO_GTYPE
1070
           3
1071
        1
1000
#$AUX@_TCDO_VISIBILITY
1070
           3
1071
        0
1002
}
  0
LINE
  5
20A
100
AcDbEntity
  8
図
370
         100
  6
Continuous
 62
           7
100
AcDbLine
 10
194.650000000005
 20
130.700000000005
 30
0.0
 11
173.650000000005
 21
130.699999999996
 31
0.0
1001
ACAD
1000
TCW40_DEV_WIDTH
1002
{
1040
0.039370078593
1002
}
1001
TCAD
1000
TCW_CUSTOM_DATA
1002
{
1000
#$AUX@_TCDO_SOURCE_COLOR
1070
           3
1071
        0
1000
#$AUX@_TCDO_PARENT_ID
1070
           3
1071
       99
1000
#$AUX@_TCDO_GTYPE
1070
           3
1071
        1
1000
#$AUX@_TCDO_VISIBILITY
1070
           3
1071
        0
1002
}
  0
LINE
  5
20B
100
AcDbEntity
  8
図
370
         100
  6
Continuous
 62
           7
100
AcDbLine
 10
173.65
 20
130.699999999996
 30
0.0
 11
173.65
 21
131.699999999997
 31
0.0
1001
ACAD
1000
TCW40_DEV_WIDTH
1002
{
1040
0.039370078593
1002
}
1001
TCAD
1000
TCW_CUSTOM_DATA
1002
{
1000
#$AUX@_TCDO_SOURCE_COLOR
1070
           3
1071
        0
1000
#$AUX@_TCDO_PARENT_ID
1070
           3
1071
       99
1000
#$AUX@_TCDO_GTYPE
1070
           3
1071
        1
1000
#$AUX@_TCDO_VISIBILITY
1070
           3
1071
        0
1002
}
  0
LINE
  5
20C
100
AcDbEntity
  8
図
370
         100
  6
Continuous
 62
           7
100
AcDbLine
 10
184.65
 20
131.700000000002
 30
0.0
 11
194.650000000005
 21
131.700000000006
 31
0.0
1001
ACAD
1000
TCW40_DEV_WIDTH
1002
{
1040
0.039370078593
1002
}
1001
TCAD
1000
TCW_CUSTOM_DATA
1002
{
1000
#$AUX@_TCDO_SOURCE_COLOR
1070
           3
1071
        0
1000
#$AUX@_TCDO_PARENT_ID
1070
           3
1071
       99
1000
#$AUX@_TCDO_GTYPE
1070
           3
1071
        1
1000
#$AUX@_TCDO_VISIBILITY
1070
           3
1071
        0
1002
}
  0
LINE
  5
20D
100
AcDbEntity
  8
図
370
         100
  6
Continuous
 62
           7
100
AcDbLine
 10
194.65
 20
141.9
 30
0.0
 11
194.65
 21
140.9
 31
0.0
1001
ACAD
1000
TCW40_DEV_WIDTH
1002
{
1040
0.039370078593
1002
}
1001
TCAD
1000
TCW_CUSTOM_DATA
1002
{
1000
#$AUX@_TCDO_SOURCE_COLOR
1070
           3
1071
        0
1000
#$AUX@_TCDO_PARENT_ID
1070
           3
1071
       99
1000
#$AUX@_TCDO_GTYPE
1070
           3
1071
        1
1000
#$AUX@_TCDO_VISIBILITY
1070
           3
1071
        0
1002
}
  0
LINE
  5
20E
100
AcDbEntity
  8
図
370
         100
  6
Continuous
 62
           7
100
AcDbLine
 10
173.65
 20
141.9
 30
0.0
 11
194.65
 21
141.9
 31
0.0
1001
ACAD
1000
TCW40_DEV_WIDTH
1002
{
1040
0.039370078593
1002
}
1001
TCAD
1000
TCW_CUSTOM_DATA
1002
{
1000
#$AUX@_TCDO_SOURCE_COLOR
1070
           3
1071
        0
1000
#$AUX@_TCDO_PARENT_ID
1070
           3
1071
       99
1000
#$AUX@_TCDO_GTYPE
1070
           3
1071
        1
1000
#$AUX@_TCDO_VISIBILITY
1070
           3
1071
        0
1002
}
  0
LINE
  5
20F
100
AcDbEntity
  8
図
370
         100
  6
Continuous
 62
           7
100
AcDbLine
 10
173.65
 20
140.9
 30
0.0
 11
173.65
 21
141.9
 31
0.0
1001
ACAD
1000
TCW40_DEV_WIDTH
1002
{
1040
0.039370078593
1002
}
1001
TCAD
1000
TCW_CUSTOM_DATA
1002
{
1000
#$AUX@_TCDO_SOURCE_COLOR
1070
           3
1071
        0
1000
#$AUX@_TCDO_PARENT_ID
1070
           3
1071
       99
1000
#$AUX@_TCDO_GTYPE
1070
           3
1071
        1
1000
#$AUX@_TCDO_VISIBILITY
1070
           3
1071
        0
1002
}
  0
LINE
  5
210
100
AcDbEntity
  8
図
370
         100
  6
Continuous
 62
           7
100
AcDbLine
 10
183.65
 20
140.9
 30
0.0
 11
173.65
 21
140.9
 31
0.0
1001
ACAD
1000
TCW40_DEV_WIDTH
1002
{
1040
0.039370078593
1002
}
1001
TCAD
1000
TCW_CUSTOM_DATA
1002
{
1000
#$AUX@_TCDO_SOURCE_COLOR
1070
           3
1071
        0
1000
#$AUX@_TCDO_PARENT_ID
1070
           3
1071
       99
1000
#$AUX@_TCDO_GTYPE
1070
           3
1071
        1
1000
#$AUX@_TCDO_VISIBILITY
1070
           3
1071
        0
1002
}
  0
LINE
  5
211
100
AcDbEntity
  8
図
370
         100
  6
Continuous
 62
           7
100
AcDbLine
 10
183.65
 20
131.700000000001
 30
0.0
 11
183.65
 21
140.9
 31
0.0
1001
ACAD
1000
TCW40_DEV_WIDTH
1002
{
1040
0.039370078593
1002
}
1001
TCAD
1000
TCW_CUSTOM_DATA
1002
{
1000
#$AUX@_TCDO_SOURCE_COLOR
1070
           3
1071
        0
1000
#$AUX@_TCDO_PARENT_ID
1070
           3
1071
       99
1000
#$AUX@_TCDO_GTYPE
1070
           3
1071
        1
1000
#$AUX@_TCDO_VISIBILITY
1070
           3
1071
        0
1002
}
  0
LINE
  5
212
100
AcDbEntity
  8
図
370
         100
  6
Continuous
 62
           7
100
AcDbLine
 10
173.650000000005
 20
131.699999999997
 30
0.0
 11
183.65
 21
131.700000000001
 31
0.0
1001
ACAD
1000
TCW40_DEV_WIDTH
1002
{
1040
0.039370078593
1002
}
1001
TCAD
1000
TCW_CUSTOM_DATA
1002
{
1000
#$AUX@_TCDO_SOURCE_COLOR
1070
           3
1071
        0
1000
#$AUX@_TCDO_PARENT_ID
1070
           3
1071
       99
1000
#$AUX@_TCDO_GTYPE
1070
           3
1071
        1
1000
#$AUX@_TCDO_VISIBILITY
1070
           3
1071
        0
1002
}
  0
LINE
  5
213
100
AcDbEntity
  8
図
370
         100
  6
Continuous
 62
           7
100
AcDbLine
 10
194.650000000003
 20
129.700000000003
 30
0.0
 11
194.650000000005
 21
125.000000000003
 31
0.0
1001
ACAD
1000
TCW40_DEV_WIDTH
1002
{
1040
0.039370078593
1002
}
1001
TCAD
1000
TCW_CUSTOM_DATA
1002
{
1000
#$AUX@_TCDO_SOURCE_COLOR
1070
           3
1071
        0
1000
#$AUX@_TCDO_PARENT_ID
1070
           3
1071
       99
1000
#$AUX@_TCDO_GTYPE
1070
           3
1071
        1
1000
#$AUX@_TCDO_VISIBILITY
1070
           3
1071
        0
1002
}
  0
LINE
  5
214
100
AcDbEntity
  8
図
370
         100
  6
Continuous
 62
           7
100
AcDbLine
 10
194.150000000005
 20
124.500000000002
 30
0.0
 11
174.150000000005
 21
124.499999999994
 31
0.0
1001
ACAD
1000
TCW40_DEV_WIDTH
1002
{
1040
0.039370078593
1002
}
1001
TCAD
1000
TCW_CUSTOM_DATA
1002
{
1000
#$AUX@_TCDO_SOURCE_COLOR
1070
           3
1071
        0
1000
#$AUX@_TCDO_PARENT_ID
1070
           3
1071
       99
1000
#$AUX@_TCDO_GTYPE
1070
           3
1071
        1
1000
#$AUX@_TCDO_VISIBILITY
1070
           3
1071
        0
1002
}
  0
LINE
  5
215
100
AcDbEntity
  8
図
370
         100
  6
Continuous
 62
           7
100
AcDbLine
 10
174.15
 20
123.5
 30
0.0
 11
194.15
 21
123.5
 31
0.0
1001
ACAD
1000
TCW40_DEV_WIDTH
1002
{
1040
0.039370078593
1002
}
1001
TCAD
1000
TCW_CUSTOM_DATA
1002
{
1000
#$AUX@_TCDO_SOURCE_COLOR
1070
           3
1071
        0
1000
#$AUX@_TCDO_PARENT_ID
1070
           3
1071
       99
1000
#$AUX@_TCDO_GTYPE
1070
           3
1071
        1
1000
#$AUX@_TCDO_VISIBILITY
1070
           3
1071
        0
1002
}
  0
LINE
  5
216
100
AcDbEntity
  8
図
370
         100
  6
Continuous
 62
           7
100
AcDbLine
 10
194.65
 20
147.6
 30
0.0
 11
194.65
 21
142.9
 31
0.0
1001
ACAD
1000
TCW40_DEV_WIDTH
1002
{
1040
0.039370078593
1002
}
1001
TCAD
1000
TCW_CUSTOM_DATA
1002
{
1000
#$AUX@_TCDO_SOURCE_COLOR
1070
           3
1071
        0
1000
#$AUX@_TCDO_PARENT_ID
1070
           3
1071
       99
1000
#$AUX@_TCDO_GTYPE
1070
           3
1071
        1
1000
#$AUX@_TCDO_VISIBILITY
1070
           3
1071
        0
1002
}
  0
ARC
  5
217
100
AcDbEntity
  8
図
370
         100
  6
Continuous
 62
           7
100
AcDbCircle
 10
194.15
 20
147.6
 30
0.0
 40
0.5
100
AcDbArc
 50
0.0
 51
90.0
1001
ACAD
1000
TCW40_DEV_WIDTH
1002
{
1040
0.039370078593
1002
}
1001
TCAD
1000
TCW_CUSTOM_DATA
1002
{
1000
#$AUX@_TCDO_SOURCE_COLOR
1070
           3
1071
        0
1000
#$AUX@_TCDO_PARENT_ID
1070
           3
1071
       99
1000
#$AUX@_TCDO_GTYPE
1070
           3
1071
        1
1000
#$AUX@_TCDO_VISIBILITY
1070
           3
1071
        0
1002
}
  0
LINE
  5
218
100
AcDbEntity
  8
図
370
         100
  6
Continuous
 62
           7
100
AcDbLine
 10
189.049999999997
 20
148.1
 30
0.0
 11
189.049999999997
 21
149.1
 31
0.0
1001
ACAD
1000
TCW40_DEV_WIDTH
1002
{
1040
0.039370078593
1002
}
1001
TCAD
1000
TCW_CUSTOM_DATA
1002
{
1000
#$AUX@_TCDO_SOURCE_COLOR
1070
           3
1071
        0
1000
#$AUX@_TCDO_PARENT_ID
1070
           3
1071
       99
1000
#$AUX@_TCDO_GTYPE
1070
           3
1071
        0
1000
#$AUX@_TCDO_VISIBILITY
1070
           3
1071
        0
1002
}
  0
LINE
  5
219
100
AcDbEntity
  8
図
370
         100
  6
Continuous
 62
           7
100
AcDbLine
 10
173.650000000004
 20
124.999999999994
 30
0.0
 11
173.650000000003
 21
129.699999999994
 31
0.0
1001
ACAD
1000
TCW40_DEV_WIDTH
1002
{
1040
0.039370078593
1002
}
1001
TCAD
1000
TCW_CUSTOM_DATA
1002
{
1000
#$AUX@_TCDO_SOURCE_COLOR
1070
           3
1071
        0
1000
#$AUX@_TCDO_PARENT_ID
1070
           3
1071
       99
1000
#$AUX@_TCDO_GTYPE
1070
           3
1071
        1
1000
#$AUX@_TCDO_VISIBILITY
1070
           3
1071
        0
1002
}
  0
ARC
  5
21A
100
AcDbEntity
  8
図
370
         100
  6
Continuous
 62
           7
100
AcDbCircle
 10
174.150000000004
 20
124.999999999994
 30
0.0
 40
0.5
100
AcDbArc
 50
180.0
 51
270.000000000023
1001
ACAD
1000
TCW40_DEV_WIDTH
1002
{
1040
0.039370078593
1002
}
1001
TCAD
1000
TCW_CUSTOM_DATA
1002
{
1000
#$AUX@_TCDO_SOURCE_COLOR
1070
           3
1071
        0
1000
#$AUX@_TCDO_PARENT_ID
1070
           3
1071
       99
1000
#$AUX@_TCDO_GTYPE
1070
           3
1071
        1
1000
#$AUX@_TCDO_VISIBILITY
1070
           3
1071
        0
1002
}
  0
LINE
  5
21B
100
AcDbEntity
  8
図
370
         100
  6
Continuous
 62
           7
100
AcDbLine
 10
179.249999999997
 20
124.499999999996
 30
0.0
 11
179.249999999997
 21
123.5
 31
0.0
1001
ACAD
1000
TCW40_DEV_WIDTH
1002
{
1040
0.039370078593
1002
}
1001
TCAD
1000
TCW_CUSTOM_DATA
1002
{
1000
#$AUX@_TCDO_SOURCE_COLOR
1070
           3
1071
        0
1000
#$AUX@_TCDO_PARENT_ID
1070
           3
1071
       99
1000
#$AUX@_TCDO_GTYPE
1070
           3
1071
        0
1000
#$AUX@_TCDO_VISIBILITY
1070
           3
1071
        0
1002
}
  0
ARC
  5
21C
100
AcDbEntity
  8
図
370
         100
  6
Continuous
 62
           7
100
AcDbCircle
 10
174.15
 20
125.0
 30
0.0
 40
1.5
100
AcDbArc
 50
180.0
 51
270.0
1001
ACAD
1000
TCW40_DEV_WIDTH
1002
{
1040
0.039370078593
1002
}
1001
TCAD
1000
TCW_CUSTOM_DATA
1002
{
1000
#$AUX@_TCDO_SOURCE_COLOR
1070
           3
1071
        0
1000
#$AUX@_TCDO_PARENT_ID
1070
           3
1071
       99
1000
#$AUX@_TCDO_GTYPE
1070
           3
1071
        1
1000
#$AUX@_TCDO_VISIBILITY
1070
           3
1071
        0
1002
}
  0
LINE
  5
21D
100
AcDbEntity
  8
図
370
         100
  6
Continuous
 62
           7
100
AcDbLine
 10
172.65
 20
147.6
 30
0.0
 11
172.65
 21
142.9
 31
0.0
1001
ACAD
1000
TCW40_DEV_WIDTH
1002
{
1040
0.039370078593
1002
}
1001
TCAD
1000
TCW_CUSTOM_DATA
1002
{
1000
#$AUX@_TCDO_SOURCE_COLOR
1070
           3
1071
        0
1000
#$AUX@_TCDO_PARENT_ID
1070
           3
1071
       99
1000
#$AUX@_TCDO_GTYPE
1070
           3
1071
        1
1000
#$AUX@_TCDO_VISIBILITY
1070
           3
1071
        0
1002
}
  0
LINE
  5
21E
100
AcDbEntity
  8
図
370
         100
  6
Continuous
 62
           7
100
AcDbLine
 10
172.65
 20
141.4
 30
0.0
 11
172.65
 21
131.2
 31
0.0
1001
ACAD
1000
TCW40_DEV_WIDTH
1002
{
1040
0.039370078593
1002
}
1001
TCAD
1000
TCW_CUSTOM_DATA
1002
{
1000
#$AUX@_TCDO_SOURCE_COLOR
1070
           3
1071
        0
1000
#$AUX@_TCDO_PARENT_ID
1070
           3
1071
       99
1000
#$AUX@_TCDO_GTYPE
1070
           3
1071
        1
1000
#$AUX@_TCDO_VISIBILITY
1070
           3
1071
        0
1002
}
  0
LINE
  5
21F
100
AcDbEntity
  8
図
370
         100
  6
Continuous
 62
           7
100
AcDbLine
 10
172.65
 20
129.7
 30
0.0
 11
172.65
 21
125.0
 31
0.0
1001
ACAD
1000
TCW40_DEV_WIDTH
1002
{
1040
0.039370078593
1002
}
1001
TCAD
1000
TCW_CUSTOM_DATA
1002
{
1000
#$AUX@_TCDO_SOURCE_COLOR
1070
           3
1071
        0
1000
#$AUX@_TCDO_PARENT_ID
1070
           3
1071
       99
1000
#$AUX@_TCDO_GTYPE
1070
           3
1071
        1
1000
#$AUX@_TCDO_VISIBILITY
1070
           3
1071
        0
1002
}
  0
ARC
  5
220
100
AcDbEntity
  8
図
370
         100
  6
Continuous
 62
           7
100
AcDbCircle
 10
174.15
 20
147.6
 30
0.0
 40
1.5
100
AcDbArc
 50
90.0
 51
180.0
1001
ACAD
1000
TCW40_DEV_WIDTH
1002
{
1040
0.039370078593
1002
}
1001
TCAD
1000
TCW_CUSTOM_DATA
1002
{
1000
#$AUX@_TCDO_SOURCE_COLOR
1070
           3
1071
        0
1000
#$AUX@_TCDO_PARENT_ID
1070
           3
1071
       99
1000
#$AUX@_TCDO_GTYPE
1070
           3
1071
        1
1000
#$AUX@_TCDO_VISIBILITY
1070
           3
1071
        0
1002
}
  0
LINE
  5
221
100
AcDbEntity
  8
図
370
         100
  6
Continuous
 62
           7
100
AcDbLine
 10
195.65
 20
130.2
 30
0.0
 11
195.65
 21
125.0
 31
0.0
1001
ACAD
1000
TCW40_DEV_WIDTH
1002
{
1040
0.039370078593
1002
}
1001
TCAD
1000
TCW_CUSTOM_DATA
1002
{
1000
#$AUX@_TCDO_SOURCE_COLOR
1070
           3
1071
        0
1000
#$AUX@_TCDO_PARENT_ID
1070
           3
1071
       99
1000
#$AUX@_TCDO_GTYPE
1070
           3
1071
        1
1000
#$AUX@_TCDO_VISIBILITY
1070
           3
1071
        0
1002
}
  0
LINE
  5
222
100
AcDbEntity
  8
図
370
         100
  6
Continuous
 62
           7
100
AcDbLine
 10
195.65
 20
130.2
 30
0.0
 11
195.65
 21
142.4
 31
0.0
1001
ACAD
1000
TCW40_DEV_WIDTH
1002
{
1040
0.039370078593
1002
}
1001
TCAD
1000
TCW_CUSTOM_DATA
1002
{
1000
#$AUX@_TCDO_SOURCE_COLOR
1070
           3
1071
        0
1000
#$AUX@_TCDO_PARENT_ID
1070
           3
1071
       99
1000
#$AUX@_TCDO_GTYPE
1070
           3
1071
        1
1000
#$AUX@_TCDO_VISIBILITY
1070
           3
1071
        0
1002
}
  0
LINE
  5
223
100
AcDbEntity
  8
図
370
         100
  6
Continuous
 62
           7
100
AcDbLine
 10
195.65
 20
147.6
 30
0.0
 11
195.65
 21
142.4
 31
0.0
1001
ACAD
1000
TCW40_DEV_WIDTH
1002
{
1040
0.039370078593
1002
}
1001
TCAD
1000
TCW_CUSTOM_DATA
1002
{
1000
#$AUX@_TCDO_SOURCE_COLOR
1070
           3
1071
        0
1000
#$AUX@_TCDO_PARENT_ID
1070
           3
1071
       99
1000
#$AUX@_TCDO_GTYPE
1070
           3
1071
        1
1000
#$AUX@_TCDO_VISIBILITY
1070
           3
1071
        0
1002
}
  0
LINE
  5
224
100
AcDbEntity
  8
図
370
         100
  6
Continuous
 62
           7
100
AcDbLine
 10
189.049999999997
 20
129.7
 30
0.0
 11
189.049999999997
 21
130.700000000003
 31
0.0
1001
ACAD
1000
TCW40_DEV_WIDTH
1002
{
1040
0.039370078593
1002
}
1001
TCAD
1000
TCW_CUSTOM_DATA
1002
{
1000
#$AUX@_TCDO_SOURCE_COLOR
1070
           3
1071
        0
1000
#$AUX@_TCDO_PARENT_ID
1070
           3
1071
       99
1000
#$AUX@_TCDO_GTYPE
1070
           3
1071
        0
1000
#$AUX@_TCDO_VISIBILITY
1070
           3
1071
        0
1002
}
  0
LINE
  5
225
100
AcDbEntity
  8
図
370
         100
  6
Continuous
 62
           7
100
AcDbLine
 10
189.049999999997
 20
141.9
 30
0.0
 11
189.049999999997
 21
142.9
 31
0.0
1001
ACAD
1000
TCW40_DEV_WIDTH
1002
{
1040
0.039370078593
1002
}
1001
TCAD
1000
TCW_CUSTOM_DATA
1002
{
1000
#$AUX@_TCDO_SOURCE_COLOR
1070
           3
1071
        0
1000
#$AUX@_TCDO_PARENT_ID
1070
           3
1071
       99
1000
#$AUX@_TCDO_GTYPE
1070
           3
1071
        0
1000
#$AUX@_TCDO_VISIBILITY
1070
           3
1071
        0
1002
}
  0
LINE
  5
226
100
AcDbEntity
  8
図
370
         100
  6
Continuous
 62
           7
100
AcDbLine
 10
179.249999999997
 20
130.699999999999
 30
0.0
 11
179.249999999997
 21
129.699999999997
 31
0.0
1001
ACAD
1000
TCW40_DEV_WIDTH
1002
{
1040
0.039370078593
1002
}
1001
TCAD
1000
TCW_CUSTOM_DATA
1002
{
1000
#$AUX@_TCDO_SOURCE_COLOR
1070
           3
1071
        0
1000
#$AUX@_TCDO_PARENT_ID
1070
           3
1071
       99
1000
#$AUX@_TCDO_GTYPE
1070
           3
1071
        0
1000
#$AUX@_TCDO_VISIBILITY
1070
           3
1071
        0
1002
}
  0
LINE
  5
227
100
AcDbEntity
  8
図
370
         100
  6
Continuous
 62
           7
100
AcDbLine
 10
179.249999999997
 20
142.9
 30
0.0
 11
179.249999999997
 21
141.9
 31
0.0
1001
ACAD
1000
TCW40_DEV_WIDTH
1002
{
1040
0.039370078593
1002
}
1001
TCAD
1000
TCW_CUSTOM_DATA
1002
{
1000
#$AUX@_TCDO_SOURCE_COLOR
1070
           3
1071
        0
1000
#$AUX@_TCDO_PARENT_ID
1070
           3
1071
       99
1000
#$AUX@_TCDO_GTYPE
1070
           3
1071
        0
1000
#$AUX@_TCDO_VISIBILITY
1070
           3
1071
        0
1002
}
  0
ENDSEC
  0
SECTION
  2
OBJECTS
  0
DICTIONARY
  5
19
100
AcDbDictionary
280
           0
281
           1
  3
ACAD_GROUP
350
1A
  3
ACAD_MLINESTYLE
350
1B
  3
ACAD_LAYOUT
350
1E
  3
ACAD_PLOTSETTINGS
350
22
  3
ACAD_PLOTSTYLENAME
350
1F
  0
DICTIONARY
  5
1A
102
{ACAD_REACTORS
330
19
102
}
100
AcDbDictionary
280
           0
281
           1
  0
DICTIONARY
  5
1B
102
{ACAD_REACTORS
330
19
102
}
100
AcDbDictionary
280
           0
281
           1
  3
Standard
350
1C
  0
MLINESTYLE
  5
1C
100
AcDbMlineStyle
  2
STANDARD
 70
           0
  3

 62
         256
 51
90.0
 52
90.0
 71
           3
 49
5.0
 62
           7
  6
ByLayer
 49
0.0
 62
           7
  6
ByLayer
 49
-5.0
 62
           7
  6
ByLayer
  0
ACDBDICTIONARYWDFLT
  5
1F
102
{ACAD_REACTORS
330
19
102
}
100
AcDbDictionary
281
           1
  3
Normal
350
1D
100
AcDbDictionaryWithDefault
340
1D
  0
ACDBPLACEHOLDER
  5
1D
102
{ACAD_REACTORS
330
1F
102
}
  0
LAYOUT
  5
21
102
{ACAD_REACTORS
330
1E
102
}
100
AcDbPlotSettings
  1

  2

  4

  6

 40
0.0
 41
0.0
 42
0.0
 43
0.0
 44
0.0
 45
0.0
 46
0.0
 47
0.0
 48
0.0
 49
0.0
140
0.0
141
0.0
142
1.0
143
1.0
 70
           0
 72
           0
 73
           0
 74
           0
  7

 75
           0
147
1.0
148
0.0
149
0.0
100
AcDbLayout
  1
Layout1
 70
           0
 71
           0
 10
0.0
 20
0.0
 11
0.0
 21
0.0
 12
0.0
 22
0.0
 32
0.0
 14
0.0
 24
0.0
 34
0.0
 15
0.0
 25
0.0
 35
0.0
146
0.0
 13
0.0
 23
0.0
 33
0.0
 16
0.0
 26
0.0
 36
0.0
 17
0.0
 27
0.0
 37
0.0
 76
           0
330
B
331
0
345
0
346
0
  0
DICTIONARY
  5
1E
102
{ACAD_REACTORS
330
19
102
}
100
AcDbDictionary
280
           0
281
           1
  3
Model
350
228
  3
ペーパー 1
350
229
  0
DICTIONARY
  5
22
102
{ACAD_REACTORS
330
19
102
}
100
AcDbDictionary
280
           0
281
           1
  0
LAYOUT
  5
228
100
AcDbPlotSettings
  1

  2

  4

  6

 40
0.0
 41
0.0
 42
0.0
 43
0.0
 44
0.0
 45
0.0
 46
0.0
 47
0.0
 48
0.0
 49
0.0
140
0.0
141
0.0
142
1.0
143
1.0
 70
           0
 72
           1
 73
           0
 74
           0
  7

 75
           0
147
1.0
148
0.0
149
0.0
100
AcDbLayout
  1
Model
 70
           0
 71
           0
 10
0.0
 20
0.0
 11
0.0
 21
0.0
 12
0.0
 22
0.0
 32
0.0
 14
0.0
 24
0.0
 34
0.0
 15
0.0
 25
0.0
 35
0.0
146
0.0
 13
0.0
 23
0.0
 33
0.0
 16
0.0
 26
0.0
 36
0.0
 17
0.0
 27
0.0
 37
0.0
 76
           0
330
A
331
0
345
0
346
0
  0
LAYOUT
  5
229
100
AcDbPlotSettings
  1

  2
none_device
  4

  6

 40
0.0
 41
0.0
 42
0.0
 43
0.0
 44
0.0
 45
0.0
 46
0.0
 47
0.0
 48
0.0
 49
0.0
140
0.0
141
0.0
142
1.0
143
1.0
 70
           0
 72
           1
 73
           0
 74
           0
  7

 75
           0
147
1.0
148
0.0
149
0.0
100
AcDbLayout
  1
ペーパー 1
 70
           1
 71
           1
 10
0.0
 20
0.0
 11
0.0
 21
0.0
 12
0.0
 22
0.0
 32
0.0
 14
0.0
 24
0.0
 34
0.0
 15
0.0
 25
0.0
 35
0.0
146
0.0
 13
0.0
 23
0.0
 33
0.0
 16
0.0
 26
0.0
 36
0.0
 17
0.0
 27
0.0
 37
0.0
 76
           0
330
B
331
0
345
0
346
0
  0
ENDSEC
  0
EOF
