  0
SECTION
  2
HEADER
  9
$ACADVER
  1
AC1015
  9
$ACADMAINTVER
 70
           6
  9
$DWGCODEPAGE
  3
ANSI_932
  9
$INSBASE
 10
0.0
 20
0.0
 30
0.0
  9
$EXTMIN
 10
97.099002993107
 20
55.749002993107
 30
0.0
  9
$EXTMAX
 10
199.900997006893
 20
154.250997006893
 30
0.0
  9
$LIMMIN
 10
0.0
 20
0.0
  9
$LIMMAX
 10
297.0
 20
210.0
  9
$ORTHOMODE
 70
           0
  9
$REGENMODE
 70
           1
  9
$FILLMODE
 70
           1
  9
$QTEXTMODE
 70
           0
  9
$MIRRTEXT
 70
           1
  9
$LTSCALE
 40
1.0
  9
$ATTMODE
 70
           1
  9
$TEXTSIZE
 40
5.0
  9
$TRACEWID
 40
1.0
  9
$TEXTSTYLE
  7
STANDARD
  9
$CLAYER
  8
0
  9
$CELTYPE
  6
Continuous
  9
$CECOLOR
 62
           7
  9
$CELTSCALE
 40
1.0
  9
$DISPSILH
 70
           0
  9
$DIMSCALE
 40
1.0
  9
$DIMASZ
 40
3.0
  9
$DIMEXO
 40
1.0
  9
$DIMDLI
 40
7.5
  9
$DIMRND
 40
0.01
  9
$DIMDLE
 40
0.0
  9
$DIMEXE
 40
2.0
  9
$DIMTP
 40
0.0
  9
$DIMTM
 40
0.0
  9
$DIMTXT
 40
4.0625
  9
$DIMCEN
 40
0.09
  9
$DIMTSZ
 40
0.0
  9
$DIMTOL
 70
           0
  9
$DIMLIM
 70
           0
  9
$DIMTIH
 70
           0
  9
$DIMTOH
 70
           0
  9
$DIMSE1
 70
           0
  9
$DIMSE2
 70
           0
  9
$DIMTAD
 70
           1
  9
$DIMZIN
 70
           8
  9
$DIMBLK
  1

  9
$DIMASO
 70
           0
  9
$DIMSHO
 70
           1
  9
$DIMPOST
  1

  9
$DIMAPOST
  1

  9
$DIMALT
 70
           0
  9
$DIMALTD
 70
           2
  9
$DIMALTF
 40
1.0
  9
$DIMLFAC
 40
1.0
  9
$DIMTOFL
 70
           1
  9
$DIMTVP
 40
0.0
  9
$DIMTIX
 70
           0
  9
$DIMSOXD
 70
           0
  9
$DIMSAH
 70
           0
  9
$DIMBLK1
  1

  9
$DIMBLK2
  1

  9
$DIMSTYLE
  2
STANDARD
  9
$DIMCLRD
 70
           7
  9
$DIMCLRE
 70
           7
  9
$DIMCLRT
 70
           7
  9
$DIMTFAC
 40
1.0
  9
$DIMGAP
 40
2.0
  9
$DIMJUST
 70
           0
  9
$DIMSD1
 70
           0
  9
$DIMSD2
 70
           0
  9
$DIMTOLJ
 70
           1
  9
$DIMTZIN
 70
           0
  9
$DIMALTZ
 70
           0
  9
$DIMALTTZ
 70
           0
  9
$DIMUPT
 70
           0
  9
$DIMDEC
 70
           2
  9
$DIMTDEC
 70
           8
  9
$DIMALTU
 70
           2
  9
$DIMALTTD
 70
           2
  9
$DIMTXSTY
  7
STANDARD
  9
$DIMAUNIT
 70
           0
  9
$DIMADEC
 70
           2
  9
$DIMALTRND
 40
0.0
  9
$DIMAZIN
 70
           0
  9
$DIMDSEP
 70
           0
  9
$DIMATFIT
 70
           0
  9
$DIMFRAC
 70
           0
  9
$DIMLDRBLK
  1

  9
$DIMLUNIT
 70
           2
  9
$DIMLWD
 70
           0
  9
$DIMLWE
 70
           0
  9
$DIMTMOVE
 70
           0
  9
$LUNITS
 70
           2
  9
$LUPREC
 70
           2
  9
$SKETCHINC
 40
1.0
  9
$FILLETRAD
 40
1.0
  9
$AUNITS
 70
           0
  9
$AUPREC
 70
           2
  9
$MENU
  1
acad
  9
$ELEVATION
 40
0.0
  9
$PELEVATION
 40
0.0
  9
$THICKNESS
 40
0.0
  9
$LIMCHECK
 70
           0
  9
$CHAMFERA
 40
0.0
  9
$CHAMFERB
 40
0.0
  9
$CHAMFERC
 40
0.0
  9
$CHAMFERD
 40
0.0
  9
$SKPOLY
 70
           0
  9
$TDCREATE
 40
0.000000000
  9
$TDUCREATE
 40
0.000000000
  9
$TDUPDATE
 40
2449702.667959363
  9
$TDUUPDATE
 40
0.000000000
  9
$TDINDWG
 40
0.0000000000
  9
$TDUSRTIMER
 40
0.0000000000
  9
$USRTIMER
 70
           1
  9
$ANGBASE
 50
0.0
  9
$ANGDIR
 70
           0
  9
$PDMODE
 70
           0
  9
$PDSIZE
 40
0.0
  9
$PLINEWID
 40
0.0
  9
$SPLFRAME
 70
           0
  9
$SPLINETYPE
 70
           5
  9
$SPLINESEGS
 70
          20
  9
$HANDSEED
  5
23D
  9
$SURFTAB1
 70
           6
  9
$SURFTAB2
 70
           6
  9
$SURFTYPE
 70
           6
  9
$SURFU
 70
           6
  9
$SURFV
 70
           6
  9
$UCSBASE
  2

  9
$UCSNAME
  2

  9
$UCSORG
 10
0.0
 20
0.0
 30
0.0
  9
$UCSXDIR
 10
1.0
 20
0.0
 30
0.0
  9
$UCSYDIR
 10
0.0
 20
1.0
 30
0.0
  9
$UCSORTHOREF
  2

  9
$UCSORTHOVIEW
 70
           0
  9
$UCSORGTOP
 10
0.0
 20
0.0
 30
0.0
  9
$UCSORGBOTTOM
 10
0.0
 20
0.0
 30
0.0
  9
$UCSORGLEFT
 10
0.0
 20
0.0
 30
0.0
  9
$UCSORGRIGHT
 10
0.0
 20
0.0
 30
0.0
  9
$UCSORGFRONT
 10
0.0
 20
0.0
 30
0.0
  9
$UCSORGBACK
 10
0.0
 20
0.0
 30
0.0
  9
$PUCSBASE
  2

  9
$PUCSNAME
  2

  9
$PUCSORG
 10
0.0
 20
0.0
 30
0.0
  9
$PUCSXDIR
 10
1.0
 20
0.0
 30
0.0
  9
$PUCSYDIR
 10
0.0
 20
1.0
 30
0.0
  9
$PUCSORTHOREF
  2

  9
$PUCSORTHOVIEW
 70
           0
  9
$PUCSORGTOP
 10
0.0
 20
0.0
 30
0.0
  9
$PUCSORGBOTTOM
 10
0.0
 20
0.0
 30
0.0
  9
$PUCSORGLEFT
 10
0.0
 20
0.0
 30
0.0
  9
$PUCSORGRIGHT
 10
0.0
 20
0.0
 30
0.0
  9
$PUCSORGFRONT
 10
0.0
 20
0.0
 30
0.0
  9
$PUCSORGBACK
 10
0.0
 20
0.0
 30
0.0
  9
$USERI1
 70
           0
  9
$USERI2
 70
           0
  9
$USERI3
 70
           0
  9
$USERI4
 70
           0
  9
$USERI5
 70
           0
  9
$USERR1
 40
0.0
  9
$USERR2
 40
0.0
  9
$USERR3
 40
0.0
  9
$USERR4
 40
0.0
  9
$USERR5
 40
0.0
  9
$WORLDVIEW
 70
           1
  9
$SHADEDGE
 70
           3
  9
$SHADEDIF
 70
          70
  9
$TILEMODE
 70
           1
  9
$MAXACTVP
 70
          16
  9
$PINSBASE
 10
0.0
 20
0.0
 30
0.0
  9
$PLIMCHECK
 70
           0
  9
$PEXTMIN
 10
0.0
 20
0.0
 30
0.0
  9
$PEXTMAX
 10
0.0
 20
0.0
 30
0.0
  9
$PLIMMIN
 10
0.0
 20
0.0
  9
$PLIMMAX
 10
0.0
 20
0.0
  9
$UNITMODE
 70
           0
  9
$VISRETAIN
 70
           0
  9
$PLINEGEN
 70
           1
  9
$PSLTSCALE
 70
           1
  9
$TREEDEPTH
 70
        3020
  9
$CMLSTYLE
  2
STANDARD
  9
$CMLJUST
 70
           0
  9
$CMLSCALE
 40
1.0
  9
$PROXYGRAPHICS
 70
           0
  9
$MEASUREMENT
 70
           0
  9
$CELWEIGHT
370
           0
  9
$ENDCAPS
280
           0
  9
$JOINSTYLE
280
           0
  9
$LWDISPLAY
290
           0
  9
$INSUNITS
 70
           0
  9
$HYPERLINKBASE
  1

  9
$STYLESHEET
  1

  9
$XEDIT
290
           1
  9
$CEPSNTYPE
380
           0
  9
$PSTYLEMODE
290
           1
  9
$FINGERPRINTGUID
  2

  9
$VERSIONGUID
  2

  9
$EXTNAMES
290
           1
  9
$PSVPSCALE
 40
0.0
  0
ENDSEC
  0
SECTION
  2
CLASSES
  0
CLASS
  1
LWPOLYLINE
  2
AcDbPolyline
  3
AutoCAD 2000
 90
    32768
280
           0
281
           1
  0
CLASS
  1
IMAGE
  2
AcDbRasterImage
  3
ISM
 90
    32895
280
           0
281
           1
  0
CLASS
  1
OLE2FRAME
  2
AcDbOle2Frame
  3
AutoCAD 2000
 90
    32768
280
           0
281
           1
  0
CLASS
  1
HATCH
  2
AcDbHatch
  3
AutoCAD 2000
 90
    32768
280
           0
281
           1
  0
CLASS
  1
DICTIONARYVAR
  2
AcDbDictionaryVar
  3
AutoCAD 2000
 90
    32768
280
           0
281
           0
  0
CLASS
  1
RASTERVARIABLES
  2
AcDbRasterVariables
  3
ISM
 90
    32768
280
           0
281
           0
  0
CLASS
  1
IMAGEDEF
  2
AcDbRasterImageDef
  3
ISM
 90
    32768
280
           0
281
           0
  0
CLASS
  1
IMAGEDEF_REACTOR
  2
AcDbRasterImageDefReactor
  3
ISM
 90
    32769
280
           0
281
           0
  0
CLASS
  1
IDBUFFER
  2
AcDbIdBuffer
  3
AutoCAD 2000
 90
    32768
280
           0
281
           0
  0
CLASS
  1
SPATIAL_FILTER
  2
AcDbSpatialFilter
  3
AutoCAD 2000
 90
    32768
280
           0
281
           0
  0
CLASS
  1
XRECORD
  2
AcDbXrecord
  3
AutoCAD 2000
 90
    32768
280
           0
281
           0
  0
CLASS
  1
SORTENTSTABLE
  2
AcDbSortentsTable
  3
AutoCAD 2000
 90
    32768
280
           0
281
           0
  0
CLASS
  1
LAYER_INDEX
  2
AcDbLayerIndex
  3
AutoCAD 2000
 90
    32768
280
           0
281
           0
  0
CLASS
  1
SPATIAL_INDEX
  2
AcDbSpatialIndex
  3
AutoCAD 2000
 90
    32768
280
           0
281
           0
  0
CLASS
  1
OBJECT_PTR
  2
CAseDLPNTableRecord
  3
"ASE-LPNTableRecord"
 90
    32769
280
           0
281
           0
  0
CLASS
  1
LAYOUT
  2
AcDbLayout
  3
AutoCAD 2000
 90
        0
280
           0
281
           0
  0
CLASS
  1
PLOTSETTINGS
  2
AcDbPlotSettings
  3
AutoCAD 2000
 90
    32768
280
           0
281
           0
  0
CLASS
  1
ACDBDICTIONARYWDFLT
  2
AcDbDictionaryWithDefault
  3
AutoCAD 2000
 90
        0
280
           0
281
           0
  0
CLASS
  1
ACDBPLACEHOLDER
  2
AcDbPlaceHolder
  3
AutoCAD 2000
 90
        0
280
           0
281
           0
  0
ENDSEC
  0
SECTION
  2
TABLES
  0
TABLE
  2
VPORT
  5
7
100
AcDbSymbolTable
 70
           1
  0
VPORT
  5
15
100
AcDbSymbolTableRecord
100
AcDbViewportTableRecord
  2
*ACTIVE
 70
           0
 10
0.0
 20
0.0
 11
1.0
 21
1.0
 12
0.0
 22
0.0
 13
0.0
 23
0.0
 14
5.0
 24
5.0
 15
5.0
 25
5.0
 16
0.0
 26
0.0
 36
1.0
 17
148.5
 27
105.0
 37
0.0
 40
214.2
 41
1.892393320965
 42
50.0
 43
0.0
 44
0.0
 50
0.0
 51
0.0
 71
           0
 72
         100
 73
           1
 74
           1
 75
           0
 76
           0
 77
           0
 78
           0
281
           0
 65
           0
110
0.0
120
0.0
130
0.0
111
1.0
121
0.0
131
0.0
112
0.0
122
1.0
132
0.0
345
0
346
0
 79
           0
146
0.0
  0
ENDTAB
  0
TABLE
  2
LTYPE
  5
4
100
AcDbSymbolTable
 70
          14
  0
LTYPE
  5
11
100
AcDbSymbolTableRecord
100
AcDbLinetypeTableRecord
  2
ByBlock
 70
          64
  3

 72
          65
 73
           0
 40
0.0
  0
LTYPE
  5
12
100
AcDbSymbolTableRecord
100
AcDbLinetypeTableRecord
  2
ByLayer
 70
          64
  3

 72
          65
 73
           0
 40
0.0
  0
LTYPE
  5
13
100
AcDbSymbolTableRecord
100
AcDbLinetypeTableRecord
  2
Continuous
 70
          64
  3
Solid line
 72
          65
 73
           0
 40
0.0
  0
LTYPE
  5
24
100
AcDbSymbolTableRecord
100
AcDbLinetypeTableRecord
  2
BORDER
 70
           0
  3
BORDER
 72
          65
 73
           6
 40
1.75
 49
0.5
 74
           0
 49
-0.25
 74
           0
 49
0.5
 74
           0
 49
-0.25
 74
           0
 49
0.0
 74
           0
 49
-0.25
 74
           0
  0
LTYPE
  5
25
100
AcDbSymbolTableRecord
100
AcDbLinetypeTableRecord
  2
CENTER
 70
           0
  3
CENTER
 72
          65
 73
           4
 40
2.0
 49
1.25
 74
           0
 49
-0.25
 74
           0
 49
0.25
 74
           0
 49
-0.25
 74
           0
  0
LTYPE
  5
26
100
AcDbSymbolTableRecord
100
AcDbLinetypeTableRecord
  2
DASHDOT
 70
           0
  3
DASHDOT
 72
          65
 73
           4
 40
1.0
 49
0.5
 74
           0
 49
-0.25
 74
           0
 49
0.0
 74
           0
 49
-0.25
 74
           0
  0
LTYPE
  5
27
100
AcDbSymbolTableRecord
100
AcDbLinetypeTableRecord
  2
DASHED
 70
           0
  3
DASHED
 72
          65
 73
           2
 40
0.75
 49
0.5
 74
           0
 49
-0.25
 74
           0
  0
LTYPE
  5
28
100
AcDbSymbolTableRecord
100
AcDbLinetypeTableRecord
  2
DIVIDE
 70
           0
  3
DIVIDE
 72
          65
 73
           6
 40
1.25
 49
0.5
 74
           0
 49
-0.25
 74
           0
 49
0.0
 74
           0
 49
-0.25
 74
           0
 49
0.0
 74
           0
 49
-0.25
 74
           0
  0
LTYPE
  5
29
100
AcDbSymbolTableRecord
100
AcDbLinetypeTableRecord
  2
DOT
 70
           0
  3
DOT
 72
          65
 73
           2
 40
0.25
 49
0.0
 74
           0
 49
-0.25
 74
           0
  0
LTYPE
  5
2A
100
AcDbSymbolTableRecord
100
AcDbLinetypeTableRecord
  2
HIDDEN
 70
           0
  3
HIDDEN
 72
          65
 73
           2
 40
0.375
 49
0.25
 74
           0
 49
-0.125
 74
           0
  0
LTYPE
  5
2B
100
AcDbSymbolTableRecord
100
AcDbLinetypeTableRecord
  2
PHANTOM
 70
           0
  3
PHANTOM
 72
          65
 73
           6
 40
2.5
 49
1.25
 74
           0
 49
-0.25
 74
           0
 49
0.25
 74
           0
 49
-0.25
 74
           0
 49
0.25
 74
           0
 49
-0.25
 74
           0
  0
LTYPE
  5
2C
100
AcDbSymbolTableRecord
100
AcDbLinetypeTableRecord
  2
$INVISIBLE
 70
           0
  3
$INVISIBLE
 72
          65
 73
           2
 40
200.0
 49
-100.0
 74
           0
 49
-100.0
 74
           0
  0
LTYPE
  5
2D
100
AcDbSymbolTableRecord
100
AcDbLinetypeTableRecord
  2
$SNAPEXT
 70
           0
  3
$SNAPEXT
 72
          65
 73
           2
 40
0.04
 49
0.02
 74
           0
 49
-0.02
 74
           0
  0
LTYPE
  5
2E
100
AcDbSymbolTableRecord
100
AcDbLinetypeTableRecord
  2
$AUXILIARY
 70
           0
  3
$AUXILIARY
 72
          65
 73
           2
 40
0.1
 49
0.05
 74
           0
 49
-0.05
 74
           0
  0
ENDTAB
  0
TABLE
  2
LAYER
  5
2
100
AcDbSymbolTable
 70
           2
  0
LAYER
  5
14
100
AcDbSymbolTableRecord
100
AcDbLayerTableRecord
  2
0
 70
           0
 62
           7
  6
Continuous
290
           1
370
           0
390
0
1001
TCAD
1000
TCW_LAYER_ORDER
1002
{
1071
        0
1002
}
  0
LAYER
  5
2F
100
AcDbSymbolTableRecord
100
AcDbLayerTableRecord
  2
図
 70
           0
 62
           7
  6
Continuous
290
           1
370
           0
390
0
1001
TCAD
1000
TCW_LAYER_ORDER
1002
{
1071
        0
1002
}
  0
ENDTAB
  0
TABLE
  2
STYLE
  5
3
100
AcDbSymbolTable
 70
           1
  0
STYLE
  5
17
100
AcDbSymbolTableRecord
100
AcDbTextStyleTableRecord
  2
STANDARD
 70
           0
 40
0.0
 41
1.0
 50
0.0
 71
           0
 42
4.0625
  3

  4

1001
ACAD
1000
ＭＳ ゴシック
1071
    32802
  0
ENDTAB
  0
TABLE
  2
VIEW
  5
5
100
AcDbSymbolTable
 70
           1
  0
VIEW
  5
30
100
AcDbSymbolTableRecord
100
AcDbViewTableRecord
  2
表示_0
 70
           0
 40
210.0
 10
148.5
 20
105.0
 41
297.0
 11
0.0
 21
0.0
 31
1.0
 12
0.0
 22
0.0
 32
0.0
 42
45.247172312671
 43
0.0
 44
0.0
 50
0.0
 71
           0
281
           0
 72
           0
110
0.0
120
0.0
130
0.0
111
1.0
121
0.0
131
0.0
112
0.0
122
1.0
132
0.0
  0
ENDTAB
  0
TABLE
  2
UCS
  5
6
100
AcDbSymbolTable
 70
           0
  0
ENDTAB
  0
TABLE
  2
APPID
  5
8
100
AcDbSymbolTable
 70
           2
  0
APPID
  5
16
100
AcDbSymbolTableRecord
100
AcDbRegAppTableRecord
  2
ACAD
 70
           0
  0
APPID
  5
23
100
AcDbSymbolTableRecord
100
AcDbRegAppTableRecord
  2
TCAD
 70
           0
  0
ENDTAB
  0
TABLE
  2
DIMSTYLE
  5
9
100
AcDbSymbolTable
 70
           1
100
AcDbDimStyleTable
 71
           0
  0
DIMSTYLE
105
18
100
AcDbSymbolTableRecord
100
AcDbDimStyleTableRecord
  2
STANDARD
 70
           0
  3

  4

 40
1.0
 41
3.0
 42
1.0
 43
7.5
 44
2.0
 45
0.01
 46
0.0
 47
0.0
 48
0.0
 71
           0
 72
           0
 73
           0
 74
           0
 75
           0
 76
           0
 77
           1
 78
           8
 79
           0
140
4.0625
141
0.09
142
0.0
143
1.0
144
1.0
145
0.0
146
1.0
147
2.0
148
0.01
170
           0
171
           2
172
           1
173
           0
174
           0
175
           0
176
           7
177
           7
178
           7
179
           2
271
           2
272
           8
273
           2
274
           2
275
           0
276
           0
277
           2
278
          46
279
           0
280
           0
281
           0
282
           0
283
           1
284
           0
285
           0
286
           0
288
           0
340
17
341
0
342
0
343
0
344
0
371
          -2
372
          -2
  0
ENDTAB
  0
TABLE
  2
BLOCK_RECORD
  5
1
100
AcDbSymbolTable
 70
           0
  0
BLOCK_RECORD
  5
A
100
AcDbSymbolTableRecord
100
AcDbBlockTableRecord
  2
*MODEL_SPACE
340
23B
  0
BLOCK_RECORD
  5
B
100
AcDbSymbolTableRecord
100
AcDbBlockTableRecord
  2
*PAPER_SPACE
340
23C
  0
ENDTAB
  0
ENDSEC
  0
SECTION
  2
BLOCKS
  0
BLOCK
  5
D
100
AcDbEntity
  8
0
100
AcDbBlockBegin
  2
*MODEL_SPACE
 70
           0
 10
0.0
 20
0.0
 30
0.0
  3
*MODEL_SPACE
  1

  0
ENDBLK
  5
E
100
AcDbEntity
  8
0
100
AcDbBlockEnd
  0
BLOCK
  5
F
100
AcDbEntity
 67
           1
  8
0
100
AcDbBlockBegin
  2
*PAPER_SPACE
 70
           0
 10
0.0
 20
0.0
 30
0.0
  3
*PAPER_SPACE
  1

  0
ENDBLK
  5
10
100
AcDbEntity
 67
           1
  8
0
100
AcDbBlockEnd
  0
ENDSEC
  0
SECTION
  2
ENTITIES
  0
LINE
  5
31
100
AcDbEntity
  8
図
370
         100
  6
Continuous
 62
           7
100
AcDbLine
 10
97.85
 20
79.0
 30
0.0
 11
97.85
 21
78.0
 31
0.0
1001
ACAD
1000
TCW40_DEV_WIDTH
1002
{
1040
0.039370078593
1002
}
1001
TCAD
1000
TCW_CUSTOM_DATA
1002
{
1000
#$AUX@_TCDO_SOURCE_COLOR
1070
           3
1071
        0
1000
#$AUX@_TCDO_PARENT_ID
1070
           3
1071
    10283
1000
#$AUX@_TCDO_GTYPE
1070
           3
1071
        0
1000
#$AUX@_TCDO_VISIBILITY
1070
           3
1071
        0
1002
}
  0
LINE
  5
32
100
AcDbEntity
  8
図
370
         100
  6
Continuous
 62
           7
100
AcDbLine
 10
140.45
 20
78.0
 30
0.0
 11
140.45
 21
79.0
 31
0.0
1001
ACAD
1000
TCW40_DEV_WIDTH
1002
{
1040
0.039370078593
1002
}
1001
TCAD
1000
TCW_CUSTOM_DATA
1002
{
1000
#$AUX@_TCDO_SOURCE_COLOR
1070
           3
1071
        0
1000
#$AUX@_TCDO_PARENT_ID
1070
           3
1071
    10283
1000
#$AUX@_TCDO_GTYPE
1070
           3
1071
        0
1000
#$AUX@_TCDO_VISIBILITY
1070
           3
1071
        0
1002
}
  0
LINE
  5
33
100
AcDbEntity
  8
図
370
         100
  6
Continuous
 62
           7
100
AcDbLine
 10
106.35
 20
62.6
 30
0.0
 11
107.85
 21
62.6
 31
0.0
1001
ACAD
1000
TCW40_DEV_WIDTH
1002
{
1040
0.039370078593
1002
}
1001
TCAD
1000
TCW_CUSTOM_DATA
1002
{
1000
#$AUX@_TCDO_SOURCE_COLOR
1070
           3
1071
        0
1000
#$AUX@_TCDO_PARENT_ID
1070
           3
1071
    10283
1000
#$AUX@_TCDO_GTYPE
1070
           3
1071
        1
1000
#$AUX@_TCDO_VISIBILITY
1070
           3
1071
        0
1002
}
  0
LINE
  5
34
100
AcDbEntity
  8
図
370
         100
  6
Continuous
 62
           7
100
AcDbLine
 10
106.35
 20
83.3
 30
0.0
 11
106.35
 21
62.6
 31
0.0
1001
ACAD
1000
TCW40_DEV_WIDTH
1002
{
1040
0.039370078593
1002
}
1001
TCAD
1000
TCW_CUSTOM_DATA
1002
{
1000
#$AUX@_TCDO_SOURCE_COLOR
1070
           3
1071
        0
1000
#$AUX@_TCDO_PARENT_ID
1070
           3
1071
    10283
1000
#$AUX@_TCDO_GTYPE
1070
           3
1071
        1
1000
#$AUX@_TCDO_VISIBILITY
1070
           3
1071
        0
1002
}
  0
LINE
  5
35
100
AcDbEntity
  8
図
370
         100
  6
Continuous
 62
           7
100
AcDbLine
 10
130.45
 20
62.6
 30
0.0
 11
122.15
 21
62.6
 31
0.0
1001
ACAD
1000
TCW40_DEV_WIDTH
1002
{
1040
0.039370078593
1002
}
1001
TCAD
1000
TCW_CUSTOM_DATA
1002
{
1000
#$AUX@_TCDO_SOURCE_COLOR
1070
           3
1071
        0
1000
#$AUX@_TCDO_PARENT_ID
1070
           3
1071
    10283
1000
#$AUX@_TCDO_GTYPE
1070
           3
1071
        1
1000
#$AUX@_TCDO_VISIBILITY
1070
           3
1071
        0
1002
}
  0
LINE
  5
36
100
AcDbEntity
  8
図
370
         100
  6
Continuous
 62
           7
100
AcDbLine
 10
122.15
 20
61.1
 30
0.0
 11
122.15
 21
62.6
 31
0.0
1001
ACAD
1000
TCW40_DEV_WIDTH
1002
{
1040
0.039370078593
1002
}
1001
TCAD
1000
TCW_CUSTOM_DATA
1002
{
1000
#$AUX@_TCDO_SOURCE_COLOR
1070
           3
1071
        0
1000
#$AUX@_TCDO_PARENT_ID
1070
           3
1071
    10283
1000
#$AUX@_TCDO_GTYPE
1070
           3
1071
        1
1000
#$AUX@_TCDO_VISIBILITY
1070
           3
1071
        0
1002
}
  0
LINE
  5
37
100
AcDbEntity
  8
図
370
         100
  6
Continuous
 62
           7
100
AcDbLine
 10
116.15
 20
61.1
 30
0.0
 11
122.15
 21
61.1
 31
0.0
1001
ACAD
1000
TCW40_DEV_WIDTH
1002
{
1040
0.039370078593
1002
}
1001
TCAD
1000
TCW_CUSTOM_DATA
1002
{
1000
#$AUX@_TCDO_SOURCE_COLOR
1070
           3
1071
        0
1000
#$AUX@_TCDO_PARENT_ID
1070
           3
1071
    10283
1000
#$AUX@_TCDO_GTYPE
1070
           3
1071
        1
1000
#$AUX@_TCDO_VISIBILITY
1070
           3
1071
        0
1002
}
  0
LINE
  5
38
100
AcDbEntity
  8
図
370
         100
  6
Continuous
 62
           7
100
AcDbLine
 10
116.15
 20
62.6
 30
0.0
 11
116.15
 21
61.1
 31
0.0
1001
ACAD
1000
TCW40_DEV_WIDTH
1002
{
1040
0.039370078593
1002
}
1001
TCAD
1000
TCW_CUSTOM_DATA
1002
{
1000
#$AUX@_TCDO_SOURCE_COLOR
1070
           3
1071
        0
1000
#$AUX@_TCDO_PARENT_ID
1070
           3
1071
    10283
1000
#$AUX@_TCDO_GTYPE
1070
           3
1071
        1
1000
#$AUX@_TCDO_VISIBILITY
1070
           3
1071
        0
1002
}
  0
LINE
  5
39
100
AcDbEntity
  8
図
370
         100
  6
Continuous
 62
           7
100
AcDbLine
 10
116.15
 20
62.6
 30
0.0
 11
107.85
 21
62.6
 31
0.0
1001
ACAD
1000
TCW40_DEV_WIDTH
1002
{
1040
0.039370078593
1002
}
1001
TCAD
1000
TCW_CUSTOM_DATA
1002
{
1000
#$AUX@_TCDO_SOURCE_COLOR
1070
           3
1071
        0
1000
#$AUX@_TCDO_PARENT_ID
1070
           3
1071
    10283
1000
#$AUX@_TCDO_GTYPE
1070
           3
1071
        1
1000
#$AUX@_TCDO_VISIBILITY
1070
           3
1071
        0
1002
}
  0
LINE
  5
3A
100
AcDbEntity
  8
図
370
         100
  6
Continuous
 62
           7
100
AcDbLine
 10
107.85
 20
62.6
 30
0.0
 11
107.85
 21
83.3
 31
0.0
1001
ACAD
1000
TCW40_DEV_WIDTH
1002
{
1040
0.039370078593
1002
}
1001
TCAD
1000
TCW_CUSTOM_DATA
1002
{
1000
#$AUX@_TCDO_SOURCE_COLOR
1070
           3
1071
        0
1000
#$AUX@_TCDO_PARENT_ID
1070
           3
1071
    10283
1000
#$AUX@_TCDO_GTYPE
1070
           3
1071
        0
1000
#$AUX@_TCDO_VISIBILITY
1070
           3
1071
        0
1002
}
  0
LINE
  5
3B
100
AcDbEntity
  8
図
370
         100
  6
Continuous
 62
           7
100
AcDbLine
 10
130.45
 20
62.6
 30
0.0
 11
131.95
 21
62.6
 31
0.0
1001
ACAD
1000
TCW40_DEV_WIDTH
1002
{
1040
0.039370078593
1002
}
1001
TCAD
1000
TCW_CUSTOM_DATA
1002
{
1000
#$AUX@_TCDO_SOURCE_COLOR
1070
           3
1071
        0
1000
#$AUX@_TCDO_PARENT_ID
1070
           3
1071
    10283
1000
#$AUX@_TCDO_GTYPE
1070
           3
1071
        1
1000
#$AUX@_TCDO_VISIBILITY
1070
           3
1071
        0
1002
}
  0
LINE
  5
3C
100
AcDbEntity
  8
図
370
         100
  6
Continuous
 62
           7
100
AcDbLine
 10
130.45
 20
83.3
 30
0.0
 11
130.45
 21
62.6
 31
0.0
1001
ACAD
1000
TCW40_DEV_WIDTH
1002
{
1040
0.039370078593
1002
}
1001
TCAD
1000
TCW_CUSTOM_DATA
1002
{
1000
#$AUX@_TCDO_SOURCE_COLOR
1070
           3
1071
        0
1000
#$AUX@_TCDO_PARENT_ID
1070
           3
1071
    10283
1000
#$AUX@_TCDO_GTYPE
1070
           3
1071
        0
1000
#$AUX@_TCDO_VISIBILITY
1070
           3
1071
        0
1002
}
  0
LINE
  5
3D
100
AcDbEntity
  8
図
370
         100
  6
Continuous
 62
           7
100
AcDbLine
 10
131.95
 20
62.6
 30
0.0
 11
131.95
 21
83.3
 31
0.0
1001
ACAD
1000
TCW40_DEV_WIDTH
1002
{
1040
0.039370078593
1002
}
1001
TCAD
1000
TCW_CUSTOM_DATA
1002
{
1000
#$AUX@_TCDO_SOURCE_COLOR
1070
           3
1071
        0
1000
#$AUX@_TCDO_PARENT_ID
1070
           3
1071
    10283
1000
#$AUX@_TCDO_GTYPE
1070
           3
1071
        1
1000
#$AUX@_TCDO_VISIBILITY
1070
           3
1071
        0
1002
}
  0
LINE
  5
3E
100
AcDbEntity
  8
図
370
         100
  6
Continuous
 62
           7
100
AcDbLine
 10
111.65
 20
83.5
 30
0.0
 11
111.65
 21
83.3
 31
0.0
1001
ACAD
1000
TCW40_DEV_WIDTH
1002
{
1040
0.039370078593
1002
}
1001
TCAD
1000
TCW_CUSTOM_DATA
1002
{
1000
#$AUX@_TCDO_SOURCE_COLOR
1070
           3
1071
        0
1000
#$AUX@_TCDO_PARENT_ID
1070
           3
1071
    10283
1000
#$AUX@_TCDO_GTYPE
1070
           3
1071
        1
1000
#$AUX@_TCDO_VISIBILITY
1070
           3
1071
        0
1002
}
  0
LINE
  5
3F
100
AcDbEntity
  8
図
370
         100
  6
Continuous
 62
           7
100
AcDbLine
 10
126.65
 20
83.3
 30
0.0
 11
126.65
 21
83.5
 31
0.0
1001
ACAD
1000
TCW40_DEV_WIDTH
1002
{
1040
0.039370078593
1002
}
1001
TCAD
1000
TCW_CUSTOM_DATA
1002
{
1000
#$AUX@_TCDO_SOURCE_COLOR
1070
           3
1071
        0
1000
#$AUX@_TCDO_PARENT_ID
1070
           3
1071
    10283
1000
#$AUX@_TCDO_GTYPE
1070
           3
1071
        1
1000
#$AUX@_TCDO_VISIBILITY
1070
           3
1071
        0
1002
}
  0
LINE
  5
40
100
AcDbEntity
  8
図
370
         100
  6
Continuous
 62
           7
100
AcDbLine
 10
121.45
 20
77.9
 30
0.0
 11
116.85
 21
77.9
 31
0.0
1001
ACAD
1000
TCW40_DEV_WIDTH
1002
{
1040
0.039370078593
1002
}
1001
TCAD
1000
TCW_CUSTOM_DATA
1002
{
1000
#$AUX@_TCDO_SOURCE_COLOR
1070
           3
1071
        0
1000
#$AUX@_TCDO_PARENT_ID
1070
           3
1071
    10283
1000
#$AUX@_TCDO_GTYPE
1070
           3
1071
        1
1000
#$AUX@_TCDO_VISIBILITY
1070
           3
1071
        0
1002
}
  0
LINE
  5
41
100
AcDbEntity
  8
図
370
         100
  6
Continuous
 62
           7
100
AcDbLine
 10
116.85
 20
77.9
 30
0.0
 11
116.85
 21
81.8
 31
0.0
1001
ACAD
1000
TCW40_DEV_WIDTH
1002
{
1040
0.039370078593
1002
}
1001
TCAD
1000
TCW_CUSTOM_DATA
1002
{
1000
#$AUX@_TCDO_SOURCE_COLOR
1070
           3
1071
        0
1000
#$AUX@_TCDO_PARENT_ID
1070
           3
1071
    10283
1000
#$AUX@_TCDO_GTYPE
1070
           3
1071
        1
1000
#$AUX@_TCDO_VISIBILITY
1070
           3
1071
        0
1002
}
  0
LINE
  5
42
100
AcDbEntity
  8
図
370
         100
  6
Continuous
 62
           7
100
AcDbLine
 10
121.45
 20
81.8
 30
0.0
 11
121.45
 21
77.9
 31
0.0
1001
ACAD
1000
TCW40_DEV_WIDTH
1002
{
1040
0.039370078593
1002
}
1001
TCAD
1000
TCW_CUSTOM_DATA
1002
{
1000
#$AUX@_TCDO_SOURCE_COLOR
1070
           3
1071
        0
1000
#$AUX@_TCDO_PARENT_ID
1070
           3
1071
    10283
1000
#$AUX@_TCDO_GTYPE
1070
           3
1071
        1
1000
#$AUX@_TCDO_VISIBILITY
1070
           3
1071
        0
1002
}
  0
LINE
  5
43
100
AcDbEntity
  8
図
370
         100
  6
Continuous
 62
           7
100
AcDbLine
 10
121.45
 20
83.3
 30
0.0
 11
121.45
 21
81.8
 31
0.0
1001
ACAD
1000
TCW40_DEV_WIDTH
1002
{
1040
0.039370078593
1002
}
1001
TCAD
1000
TCW_CUSTOM_DATA
1002
{
1000
#$AUX@_TCDO_SOURCE_COLOR
1070
           3
1071
        0
1000
#$AUX@_TCDO_PARENT_ID
1070
           3
1071
    10283
1000
#$AUX@_TCDO_GTYPE
1070
           3
1071
        1
1000
#$AUX@_TCDO_VISIBILITY
1070
           3
1071
        0
1002
}
  0
LINE
  5
44
100
AcDbEntity
  8
図
370
         100
  6
Continuous
 62
           7
100
AcDbLine
 10
116.85
 20
81.8
 30
0.0
 11
121.45
 21
81.8
 31
0.0
1001
ACAD
1000
TCW40_DEV_WIDTH
1002
{
1040
0.039370078593
1002
}
1001
TCAD
1000
TCW_CUSTOM_DATA
1002
{
1000
#$AUX@_TCDO_SOURCE_COLOR
1070
           3
1071
        0
1000
#$AUX@_TCDO_PARENT_ID
1070
           3
1071
    10283
1000
#$AUX@_TCDO_GTYPE
1070
           3
1071
        0
1000
#$AUX@_TCDO_VISIBILITY
1070
           3
1071
        0
1002
}
  0
LINE
  5
45
100
AcDbEntity
  8
図
370
         100
  6
Continuous
 62
           7
100
AcDbLine
 10
116.85
 20
81.8
 30
0.0
 11
116.85
 21
83.3
 31
0.0
1001
ACAD
1000
TCW40_DEV_WIDTH
1002
{
1040
0.039370078593
1002
}
1001
TCAD
1000
TCW_CUSTOM_DATA
1002
{
1000
#$AUX@_TCDO_SOURCE_COLOR
1070
           3
1071
        0
1000
#$AUX@_TCDO_PARENT_ID
1070
           3
1071
    10283
1000
#$AUX@_TCDO_GTYPE
1070
           3
1071
        1
1000
#$AUX@_TCDO_VISIBILITY
1070
           3
1071
        0
1002
}
  0
LINE
  5
46
100
AcDbEntity
  8
図
370
         100
  6
Continuous
 62
           7
100
AcDbLine
 10
131.95
 20
83.3
 30
0.0
 11
130.45
 21
83.3
 31
0.0
1001
ACAD
1000
TCW40_DEV_WIDTH
1002
{
1040
0.039370078593
1002
}
1001
TCAD
1000
TCW_CUSTOM_DATA
1002
{
1000
#$AUX@_TCDO_SOURCE_COLOR
1070
           3
1071
        0
1000
#$AUX@_TCDO_PARENT_ID
1070
           3
1071
    10283
1000
#$AUX@_TCDO_GTYPE
1070
           3
1071
        1
1000
#$AUX@_TCDO_VISIBILITY
1070
           3
1071
        0
1002
}
  0
LINE
  5
47
100
AcDbEntity
  8
図
370
         100
  6
Continuous
 62
           7
100
AcDbLine
 10
121.45
 20
83.3
 30
0.0
 11
121.65
 21
83.3
 31
0.0
1001
ACAD
1000
TCW40_DEV_WIDTH
1002
{
1040
0.039370078593
1002
}
1001
TCAD
1000
TCW_CUSTOM_DATA
1002
{
1000
#$AUX@_TCDO_SOURCE_COLOR
1070
           3
1071
        0
1000
#$AUX@_TCDO_PARENT_ID
1070
           3
1071
    10283
1000
#$AUX@_TCDO_GTYPE
1070
           3
1071
        1
1000
#$AUX@_TCDO_VISIBILITY
1070
           3
1071
        0
1002
}
  0
LINE
  5
48
100
AcDbEntity
  8
図
370
         100
  6
Continuous
 62
           7
100
AcDbLine
 10
124.075581395349
 20
83.3
 30
0.0
 11
130.45
 21
83.3
 31
0.0
1001
ACAD
1000
TCW40_DEV_WIDTH
1002
{
1040
0.039370078593
1002
}
1001
TCAD
1000
TCW_CUSTOM_DATA
1002
{
1000
#$AUX@_TCDO_SOURCE_COLOR
1070
           3
1071
        0
1000
#$AUX@_TCDO_PARENT_ID
1070
           3
1071
    10283
1000
#$AUX@_TCDO_GTYPE
1070
           3
1071
        1
1000
#$AUX@_TCDO_VISIBILITY
1070
           3
1071
        0
1002
}
  0
LINE
  5
49
100
AcDbEntity
  8
図
370
         100
  6
Continuous
 62
           7
100
AcDbLine
 10
116.85
 20
83.3
 30
0.0
 11
121.45
 21
83.3
 31
0.0
1001
ACAD
1000
TCW40_DEV_WIDTH
1002
{
1040
0.039370078593
1002
}
1001
TCAD
1000
TCW_CUSTOM_DATA
1002
{
1000
#$AUX@_TCDO_SOURCE_COLOR
1070
           3
1071
        0
1000
#$AUX@_TCDO_PARENT_ID
1070
           3
1071
    10283
1000
#$AUX@_TCDO_GTYPE
1070
           3
1071
        1
1000
#$AUX@_TCDO_VISIBILITY
1070
           3
1071
        0
1002
}
  0
LINE
  5
4A
100
AcDbEntity
  8
図
370
         100
  6
Continuous
 62
           7
100
AcDbLine
 10
107.85
 20
83.3
 30
0.0
 11
114.225384615385
 21
83.3
 31
0.0
1001
ACAD
1000
TCW40_DEV_WIDTH
1002
{
1040
0.039370078593
1002
}
1001
TCAD
1000
TCW_CUSTOM_DATA
1002
{
1000
#$AUX@_TCDO_SOURCE_COLOR
1070
           3
1071
        0
1000
#$AUX@_TCDO_PARENT_ID
1070
           3
1071
    10283
1000
#$AUX@_TCDO_GTYPE
1070
           3
1071
        1
1000
#$AUX@_TCDO_VISIBILITY
1070
           3
1071
        0
1002
}
  0
LINE
  5
4B
100
AcDbEntity
  8
図
370
         100
  6
Continuous
 62
           7
100
AcDbLine
 10
116.65
 20
83.3
 30
0.0
 11
116.85
 21
83.3
 31
0.0
1001
ACAD
1000
TCW40_DEV_WIDTH
1002
{
1040
0.039370078593
1002
}
1001
TCAD
1000
TCW_CUSTOM_DATA
1002
{
1000
#$AUX@_TCDO_SOURCE_COLOR
1070
           3
1071
        0
1000
#$AUX@_TCDO_PARENT_ID
1070
           3
1071
    10283
1000
#$AUX@_TCDO_GTYPE
1070
           3
1071
        1
1000
#$AUX@_TCDO_VISIBILITY
1070
           3
1071
        0
1002
}
  0
LINE
  5
4C
100
AcDbEntity
  8
図
370
         100
  6
Continuous
 62
           7
100
AcDbLine
 10
107.85
 20
83.3
 30
0.0
 11
106.35
 21
83.3
 31
0.0
1001
ACAD
1000
TCW40_DEV_WIDTH
1002
{
1040
0.039370078593
1002
}
1001
TCAD
1000
TCW_CUSTOM_DATA
1002
{
1000
#$AUX@_TCDO_SOURCE_COLOR
1070
           3
1071
        0
1000
#$AUX@_TCDO_PARENT_ID
1070
           3
1071
    10283
1000
#$AUX@_TCDO_GTYPE
1070
           3
1071
        1
1000
#$AUX@_TCDO_VISIBILITY
1070
           3
1071
        0
1002
}
  0
LINE
  5
4D
100
AcDbEntity
  8
図
370
         100
  6
Continuous
 62
           7
100
AcDbLine
 10
103.35
 20
82.4
 30
0.0
 11
106.35
 21
82.4
 31
0.0
1001
ACAD
1000
TCW40_DEV_WIDTH
1002
{
1040
0.039370078593
1002
}
1001
TCAD
1000
TCW_CUSTOM_DATA
1002
{
1000
#$AUX@_TCDO_SOURCE_COLOR
1070
           3
1071
        0
1000
#$AUX@_TCDO_PARENT_ID
1070
           3
1071
    10283
1000
#$AUX@_TCDO_GTYPE
1070
           3
1071
        1
1000
#$AUX@_TCDO_VISIBILITY
1070
           3
1071
        0
1002
}
  0
LINE
  5
4E
100
AcDbEntity
  8
図
370
         100
  6
Continuous
 62
           7
100
AcDbLine
 10
99.35
 20
78.0
 30
0.0
 11
106.35
 21
78.0
 31
0.0
1001
ACAD
1000
TCW40_DEV_WIDTH
1002
{
1040
0.039370078593
1002
}
1001
TCAD
1000
TCW_CUSTOM_DATA
1002
{
1000
#$AUX@_TCDO_SOURCE_COLOR
1070
           3
1071
        0
1000
#$AUX@_TCDO_PARENT_ID
1070
           3
1071
    10283
1000
#$AUX@_TCDO_GTYPE
1070
           3
1071
        1
1000
#$AUX@_TCDO_VISIBILITY
1070
           3
1071
        0
1002
}
  0
LINE
  5
4F
100
AcDbEntity
  8
図
370
         100
  6
Continuous
 62
           7
100
AcDbLine
 10
103.35
 20
79.0
 30
0.0
 11
103.35
 21
82.4
 31
0.0
1001
ACAD
1000
TCW40_DEV_WIDTH
1002
{
1040
0.039370078593
1002
}
1001
TCAD
1000
TCW_CUSTOM_DATA
1002
{
1000
#$AUX@_TCDO_SOURCE_COLOR
1070
           3
1071
        0
1000
#$AUX@_TCDO_PARENT_ID
1070
           3
1071
    10283
1000
#$AUX@_TCDO_GTYPE
1070
           3
1071
        1
1000
#$AUX@_TCDO_VISIBILITY
1070
           3
1071
        0
1002
}
  0
LINE
  5
50
100
AcDbEntity
  8
図
370
         100
  6
Continuous
 62
           7
100
AcDbLine
 10
99.35
 20
79.0
 30
0.0
 11
103.35
 21
79.0
 31
0.0
1001
ACAD
1000
TCW40_DEV_WIDTH
1002
{
1040
0.039370078593
1002
}
1001
TCAD
1000
TCW_CUSTOM_DATA
1002
{
1000
#$AUX@_TCDO_SOURCE_COLOR
1070
           3
1071
        0
1000
#$AUX@_TCDO_PARENT_ID
1070
           3
1071
    10283
1000
#$AUX@_TCDO_GTYPE
1070
           3
1071
        1
1000
#$AUX@_TCDO_VISIBILITY
1070
           3
1071
        0
1002
}
  0
LINE
  5
51
100
AcDbEntity
  8
図
370
         100
  6
Continuous
 62
           7
100
AcDbLine
 10
97.85
 20
79.0
 30
0.0
 11
97.85
 21
82.4
 31
0.0
1001
ACAD
1000
TCW40_DEV_WIDTH
1002
{
1040
0.039370078593
1002
}
1001
TCAD
1000
TCW_CUSTOM_DATA
1002
{
1000
#$AUX@_TCDO_SOURCE_COLOR
1070
           3
1071
        0
1000
#$AUX@_TCDO_PARENT_ID
1070
           3
1071
    10283
1000
#$AUX@_TCDO_GTYPE
1070
           3
1071
        1
1000
#$AUX@_TCDO_VISIBILITY
1070
           3
1071
        0
1002
}
  0
LINE
  5
52
100
AcDbEntity
  8
図
370
         100
  6
Continuous
 62
           7
100
AcDbLine
 10
97.85
 20
82.4
 30
0.0
 11
103.35
 21
82.4
 31
0.0
1001
ACAD
1000
TCW40_DEV_WIDTH
1002
{
1040
0.039370078593
1002
}
1001
TCAD
1000
TCW_CUSTOM_DATA
1002
{
1000
#$AUX@_TCDO_SOURCE_COLOR
1070
           3
1071
        0
1000
#$AUX@_TCDO_PARENT_ID
1070
           3
1071
    10283
1000
#$AUX@_TCDO_GTYPE
1070
           3
1071
        1
1000
#$AUX@_TCDO_VISIBILITY
1070
           3
1071
        0
1002
}
  0
LINE
  5
53
100
AcDbEntity
  8
図
370
         100
  6
Continuous
 62
           7
100
AcDbLine
 10
98.85
 20
81.4
 30
0.0
 11
103.35
 21
81.4
 31
0.0
1001
ACAD
1000
TCW40_DEV_WIDTH
1002
{
1040
0.039370078593
1002
}
1001
TCAD
1000
TCW_CUSTOM_DATA
1002
{
1000
#$AUX@_TCDO_SOURCE_COLOR
1070
           3
1071
        0
1000
#$AUX@_TCDO_PARENT_ID
1070
           3
1071
    10283
1000
#$AUX@_TCDO_GTYPE
1070
           3
1071
        1
1000
#$AUX@_TCDO_VISIBILITY
1070
           3
1071
        0
1002
}
  0
LINE
  5
54
100
AcDbEntity
  8
図
370
         100
  6
Continuous
 62
           7
100
AcDbLine
 10
98.85
 20
81.4
 30
0.0
 11
98.85
 21
79.0
 31
0.0
1001
ACAD
1000
TCW40_DEV_WIDTH
1002
{
1040
0.039370078593
1002
}
1001
TCAD
1000
TCW_CUSTOM_DATA
1002
{
1000
#$AUX@_TCDO_SOURCE_COLOR
1070
           3
1071
        0
1000
#$AUX@_TCDO_PARENT_ID
1070
           3
1071
    10283
1000
#$AUX@_TCDO_GTYPE
1070
           3
1071
        1
1000
#$AUX@_TCDO_VISIBILITY
1070
           3
1071
        0
1002
}
  0
LINE
  5
55
100
AcDbEntity
  8
図
370
         100
  6
Continuous
 62
           7
100
AcDbLine
 10
99.35
 20
78.0
 30
0.0
 11
99.35
 21
79.0
 31
0.0
1001
ACAD
1000
TCW40_DEV_WIDTH
1002
{
1040
0.039370078593
1002
}
1001
TCAD
1000
TCW_CUSTOM_DATA
1002
{
1000
#$AUX@_TCDO_SOURCE_COLOR
1070
           3
1071
        0
1000
#$AUX@_TCDO_PARENT_ID
1070
           3
1071
    10283
1000
#$AUX@_TCDO_GTYPE
1070
           3
1071
        0
1000
#$AUX@_TCDO_VISIBILITY
1070
           3
1071
        0
1002
}
  0
LINE
  5
56
100
AcDbEntity
  8
図
370
         100
  6
Continuous
 62
           7
100
AcDbLine
 10
99.35
 20
78.0
 30
0.0
 11
97.85
 21
78.0
 31
0.0
1001
ACAD
1000
TCW40_DEV_WIDTH
1002
{
1040
0.039370078593
1002
}
1001
TCAD
1000
TCW_CUSTOM_DATA
1002
{
1000
#$AUX@_TCDO_SOURCE_COLOR
1070
           3
1071
        0
1000
#$AUX@_TCDO_PARENT_ID
1070
           3
1071
    10283
1000
#$AUX@_TCDO_GTYPE
1070
           3
1071
        1
1000
#$AUX@_TCDO_VISIBILITY
1070
           3
1071
        0
1002
}
  0
LINE
  5
57
100
AcDbEntity
  8
図
370
         100
  6
Continuous
 62
           7
100
AcDbLine
 10
97.85
 20
79.0
 30
0.0
 11
99.35
 21
79.0
 31
0.0
1001
ACAD
1000
TCW40_DEV_WIDTH
1002
{
1040
0.039370078593
1002
}
1001
TCAD
1000
TCW_CUSTOM_DATA
1002
{
1000
#$AUX@_TCDO_SOURCE_COLOR
1070
           3
1071
        0
1000
#$AUX@_TCDO_PARENT_ID
1070
           3
1071
    10283
1000
#$AUX@_TCDO_GTYPE
1070
           3
1071
        1
1000
#$AUX@_TCDO_VISIBILITY
1070
           3
1071
        0
1002
}
  0
LINE
  5
58
100
AcDbEntity
  8
図
370
         100
  6
Continuous
 62
           7
100
AcDbLine
 10
134.95
 20
82.4
 30
0.0
 11
131.95
 21
82.4
 31
0.0
1001
ACAD
1000
TCW40_DEV_WIDTH
1002
{
1040
0.039370078593
1002
}
1001
TCAD
1000
TCW_CUSTOM_DATA
1002
{
1000
#$AUX@_TCDO_SOURCE_COLOR
1070
           3
1071
        0
1000
#$AUX@_TCDO_PARENT_ID
1070
           3
1071
    10283
1000
#$AUX@_TCDO_GTYPE
1070
           3
1071
        1
1000
#$AUX@_TCDO_VISIBILITY
1070
           3
1071
        0
1002
}
  0
LINE
  5
59
100
AcDbEntity
  8
図
370
         100
  6
Continuous
 62
           7
100
AcDbLine
 10
138.95
 20
78.0
 30
0.0
 11
131.95
 21
78.0
 31
0.0
1001
ACAD
1000
TCW40_DEV_WIDTH
1002
{
1040
0.039370078593
1002
}
1001
TCAD
1000
TCW_CUSTOM_DATA
1002
{
1000
#$AUX@_TCDO_SOURCE_COLOR
1070
           3
1071
        0
1000
#$AUX@_TCDO_PARENT_ID
1070
           3
1071
    10283
1000
#$AUX@_TCDO_GTYPE
1070
           3
1071
        1
1000
#$AUX@_TCDO_VISIBILITY
1070
           3
1071
        0
1002
}
  0
LINE
  5
5A
100
AcDbEntity
  8
図
370
         100
  6
Continuous
 62
           7
100
AcDbLine
 10
134.95
 20
79.0
 30
0.0
 11
134.95
 21
82.4
 31
0.0
1001
ACAD
1000
TCW40_DEV_WIDTH
1002
{
1040
0.039370078593
1002
}
1001
TCAD
1000
TCW_CUSTOM_DATA
1002
{
1000
#$AUX@_TCDO_SOURCE_COLOR
1070
           3
1071
        0
1000
#$AUX@_TCDO_PARENT_ID
1070
           3
1071
    10283
1000
#$AUX@_TCDO_GTYPE
1070
           3
1071
        1
1000
#$AUX@_TCDO_VISIBILITY
1070
           3
1071
        0
1002
}
  0
LINE
  5
5B
100
AcDbEntity
  8
図
370
         100
  6
Continuous
 62
           7
100
AcDbLine
 10
138.95
 20
79.0
 30
0.0
 11
134.95
 21
79.0
 31
0.0
1001
ACAD
1000
TCW40_DEV_WIDTH
1002
{
1040
0.039370078593
1002
}
1001
TCAD
1000
TCW_CUSTOM_DATA
1002
{
1000
#$AUX@_TCDO_SOURCE_COLOR
1070
           3
1071
        0
1000
#$AUX@_TCDO_PARENT_ID
1070
           3
1071
    10283
1000
#$AUX@_TCDO_GTYPE
1070
           3
1071
        1
1000
#$AUX@_TCDO_VISIBILITY
1070
           3
1071
        0
1002
}
  0
LINE
  5
5C
100
AcDbEntity
  8
図
370
         100
  6
Continuous
 62
           7
100
AcDbLine
 10
139.45
 20
81.4
 30
0.0
 11
134.95
 21
81.4
 31
0.0
1001
ACAD
1000
TCW40_DEV_WIDTH
1002
{
1040
0.039370078593
1002
}
1001
TCAD
1000
TCW_CUSTOM_DATA
1002
{
1000
#$AUX@_TCDO_SOURCE_COLOR
1070
           3
1071
        0
1000
#$AUX@_TCDO_PARENT_ID
1070
           3
1071
    10283
1000
#$AUX@_TCDO_GTYPE
1070
           3
1071
        1
1000
#$AUX@_TCDO_VISIBILITY
1070
           3
1071
        0
1002
}
  0
LINE
  5
5D
100
AcDbEntity
  8
図
370
         100
  6
Continuous
 62
           7
100
AcDbLine
 10
140.45
 20
82.4
 30
0.0
 11
134.95
 21
82.4
 31
0.0
1001
ACAD
1000
TCW40_DEV_WIDTH
1002
{
1040
0.039370078593
1002
}
1001
TCAD
1000
TCW_CUSTOM_DATA
1002
{
1000
#$AUX@_TCDO_SOURCE_COLOR
1070
           3
1071
        0
1000
#$AUX@_TCDO_PARENT_ID
1070
           3
1071
    10283
1000
#$AUX@_TCDO_GTYPE
1070
           3
1071
        1
1000
#$AUX@_TCDO_VISIBILITY
1070
           3
1071
        0
1002
}
  0
LINE
  5
5E
100
AcDbEntity
  8
図
370
         100
  6
Continuous
 62
           7
100
AcDbLine
 10
140.45
 20
79.0
 30
0.0
 11
140.45
 21
82.4
 31
0.0
1001
ACAD
1000
TCW40_DEV_WIDTH
1002
{
1040
0.039370078593
1002
}
1001
TCAD
1000
TCW_CUSTOM_DATA
1002
{
1000
#$AUX@_TCDO_SOURCE_COLOR
1070
           3
1071
        0
1000
#$AUX@_TCDO_PARENT_ID
1070
           3
1071
    10283
1000
#$AUX@_TCDO_GTYPE
1070
           3
1071
        1
1000
#$AUX@_TCDO_VISIBILITY
1070
           3
1071
        0
1002
}
  0
LINE
  5
5F
100
AcDbEntity
  8
図
370
         100
  6
Continuous
 62
           7
100
AcDbLine
 10
139.45
 20
81.4
 30
0.0
 11
139.45
 21
79.0
 31
0.0
1001
ACAD
1000
TCW40_DEV_WIDTH
1002
{
1040
0.039370078593
1002
}
1001
TCAD
1000
TCW_CUSTOM_DATA
1002
{
1000
#$AUX@_TCDO_SOURCE_COLOR
1070
           3
1071
        0
1000
#$AUX@_TCDO_PARENT_ID
1070
           3
1071
    10283
1000
#$AUX@_TCDO_GTYPE
1070
           3
1071
        1
1000
#$AUX@_TCDO_VISIBILITY
1070
           3
1071
        0
1002
}
  0
LINE
  5
60
100
AcDbEntity
  8
図
370
         100
  6
Continuous
 62
           7
100
AcDbLine
 10
138.95
 20
78.0
 30
0.0
 11
140.45
 21
78.0
 31
0.0
1001
ACAD
1000
TCW40_DEV_WIDTH
1002
{
1040
0.039370078593
1002
}
1001
TCAD
1000
TCW_CUSTOM_DATA
1002
{
1000
#$AUX@_TCDO_SOURCE_COLOR
1070
           3
1071
        0
1000
#$AUX@_TCDO_PARENT_ID
1070
           3
1071
    10283
1000
#$AUX@_TCDO_GTYPE
1070
           3
1071
        1
1000
#$AUX@_TCDO_VISIBILITY
1070
           3
1071
        0
1002
}
  0
LINE
  5
61
100
AcDbEntity
  8
図
370
         100
  6
Continuous
 62
           7
100
AcDbLine
 10
138.95
 20
78.0
 30
0.0
 11
138.95
 21
79.0
 31
0.0
1001
ACAD
1000
TCW40_DEV_WIDTH
1002
{
1040
0.039370078593
1002
}
1001
TCAD
1000
TCW_CUSTOM_DATA
1002
{
1000
#$AUX@_TCDO_SOURCE_COLOR
1070
           3
1071
        0
1000
#$AUX@_TCDO_PARENT_ID
1070
           3
1071
    10283
1000
#$AUX@_TCDO_GTYPE
1070
           3
1071
        0
1000
#$AUX@_TCDO_VISIBILITY
1070
           3
1071
        0
1002
}
  0
LINE
  5
62
100
AcDbEntity
  8
図
370
         100
  6
Continuous
 62
           7
100
AcDbLine
 10
140.45
 20
79.0
 30
0.0
 11
138.95
 21
79.0
 31
0.0
1001
ACAD
1000
TCW40_DEV_WIDTH
1002
{
1040
0.039370078593
1002
}
1001
TCAD
1000
TCW_CUSTOM_DATA
1002
{
1000
#$AUX@_TCDO_SOURCE_COLOR
1070
           3
1071
        0
1000
#$AUX@_TCDO_PARENT_ID
1070
           3
1071
    10283
1000
#$AUX@_TCDO_GTYPE
1070
           3
1071
        1
1000
#$AUX@_TCDO_VISIBILITY
1070
           3
1071
        0
1002
}
  0
ARC
  5
63
100
AcDbEntity
  8
図
370
         100
  6
Continuous
 62
           7
100
AcDbCircle
 10
113.05
 20
97.4
 30
0.0
 40
0.5
100
AcDbArc
 50
90.0
 51
180.0
1001
ACAD
1000
TCW40_DEV_WIDTH
1002
{
1040
0.039370078593
1002
}
1001
TCAD
1000
TCW_CUSTOM_DATA
1002
{
1000
#$AUX@_TCDO_SOURCE_COLOR
1070
           3
1071
        0
1000
#$AUX@_TCDO_PARENT_ID
1070
           3
1071
      219
1000
#$AUX@_TCDO_GTYPE
1070
           3
1071
        0
1000
#$AUX@_TCDO_VISIBILITY
1070
           3
1071
        0
1002
}
  0
ARC
  5
64
100
AcDbEntity
  8
図
370
         100
  6
Continuous
 62
           7
100
AcDbCircle
 10
131.45
 20
94.2
 30
0.0
 40
0.5
100
AcDbArc
 50
0.0
 51
90.0
1001
ACAD
1000
TCW40_DEV_WIDTH
1002
{
1040
0.039370078593
1002
}
1001
TCAD
1000
TCW_CUSTOM_DATA
1002
{
1000
#$AUX@_TCDO_SOURCE_COLOR
1070
           3
1071
        0
1000
#$AUX@_TCDO_PARENT_ID
1070
           3
1071
      219
1000
#$AUX@_TCDO_GTYPE
1070
           3
1071
        0
1000
#$AUX@_TCDO_VISIBILITY
1070
           3
1071
        0
1002
}
  0
LINE
  5
65
100
AcDbEntity
  8
図
370
         100
  6
Continuous
 62
           7
100
AcDbLine
 10
126.65
 20
83.5
 30
0.0
 11
126.65
 21
83.3
 31
0.0
1001
ACAD
1000
TCW40_DEV_WIDTH
1002
{
1040
0.039370078593
1002
}
1001
TCAD
1000
TCW_CUSTOM_DATA
1002
{
1000
#$AUX@_TCDO_SOURCE_COLOR
1070
           3
1071
        0
1000
#$AUX@_TCDO_PARENT_ID
1070
           3
1071
      219
1000
#$AUX@_TCDO_GTYPE
1070
           3
1071
        1
1000
#$AUX@_TCDO_VISIBILITY
1070
           3
1071
        0
1002
}
  0
LINE
  5
66
100
AcDbEntity
  8
図
370
         100
  6
Continuous
 62
           7
100
AcDbLine
 10
111.65
 20
83.3
 30
0.0
 11
111.65
 21
83.5
 31
0.0
1001
ACAD
1000
TCW40_DEV_WIDTH
1002
{
1040
0.039370078593
1002
}
1001
TCAD
1000
TCW_CUSTOM_DATA
1002
{
1000
#$AUX@_TCDO_SOURCE_COLOR
1070
           3
1071
        0
1000
#$AUX@_TCDO_PARENT_ID
1070
           3
1071
      219
1000
#$AUX@_TCDO_GTYPE
1070
           3
1071
        1
1000
#$AUX@_TCDO_VISIBILITY
1070
           3
1071
        0
1002
}
  0
LINE
  5
67
100
AcDbEntity
  8
図
370
         100
  6
Continuous
 62
           7
100
AcDbLine
 10
112.55
 20
96.9
 30
0.0
 11
112.55
 21
97.4
 31
0.0
1001
ACAD
1000
TCW40_DEV_WIDTH
1002
{
1040
0.039370078593
1002
}
1001
TCAD
1000
TCW_CUSTOM_DATA
1002
{
1000
#$AUX@_TCDO_SOURCE_COLOR
1070
           3
1071
        0
1000
#$AUX@_TCDO_PARENT_ID
1070
           3
1071
      219
1000
#$AUX@_TCDO_GTYPE
1070
           3
1071
        0
1000
#$AUX@_TCDO_VISIBILITY
1070
           3
1071
        0
1002
}
  0
LINE
  5
68
100
AcDbEntity
  8
図
370
         100
  6
Continuous
 62
           7
100
AcDbLine
 10
113.05
 20
97.9
 30
0.0
 11
113.05
 21
96.9
 31
0.0
1001
ACAD
1000
TCW40_DEV_WIDTH
1002
{
1040
0.039370078593
1002
}
1001
TCAD
1000
TCW_CUSTOM_DATA
1002
{
1000
#$AUX@_TCDO_SOURCE_COLOR
1070
           3
1071
        0
1000
#$AUX@_TCDO_PARENT_ID
1070
           3
1071
      219
1000
#$AUX@_TCDO_GTYPE
1070
           3
1071
        1
1000
#$AUX@_TCDO_VISIBILITY
1070
           3
1071
        0
1002
}
  0
ARC
  5
69
100
AcDbEntity
  8
図
370
         100
  6
Continuous
 62
           7
100
AcDbCircle
 10
113.05
 20
97.4
 30
0.0
 40
0.5
100
AcDbArc
 50
90.0
 51
180.0
1001
ACAD
1000
TCW40_DEV_WIDTH
1002
{
1040
0.039370078593
1002
}
1001
TCAD
1000
TCW_CUSTOM_DATA
1002
{
1000
#$AUX@_TCDO_SOURCE_COLOR
1070
           3
1071
        0
1000
#$AUX@_TCDO_PARENT_ID
1070
           3
1071
      219
1000
#$AUX@_TCDO_GTYPE
1070
           3
1071
        0
1000
#$AUX@_TCDO_VISIBILITY
1070
           3
1071
        0
1002
}
  0
LINE
  5
6A
100
AcDbEntity
  8
図
370
         100
  6
Continuous
 62
           7
100
AcDbLine
 10
125.25
 20
96.9
 30
0.0
 11
125.25
 21
97.9
 31
0.0
1001
ACAD
1000
TCW40_DEV_WIDTH
1002
{
1040
0.039370078593
1002
}
1001
TCAD
1000
TCW_CUSTOM_DATA
1002
{
1000
#$AUX@_TCDO_SOURCE_COLOR
1070
           3
1071
        0
1000
#$AUX@_TCDO_PARENT_ID
1070
           3
1071
      219
1000
#$AUX@_TCDO_GTYPE
1070
           3
1071
        0
1000
#$AUX@_TCDO_VISIBILITY
1070
           3
1071
        0
1002
}
  0
ARC
  5
6B
100
AcDbEntity
  8
図
370
         100
  6
Continuous
 62
           7
100
AcDbCircle
 10
125.25
 20
97.4
 30
0.0
 40
0.5
100
AcDbArc
 50
0.0
 51
90.0
1001
ACAD
1000
TCW40_DEV_WIDTH
1002
{
1040
0.039370078593
1002
}
1001
TCAD
1000
TCW_CUSTOM_DATA
1002
{
1000
#$AUX@_TCDO_SOURCE_COLOR
1070
           3
1071
        0
1000
#$AUX@_TCDO_PARENT_ID
1070
           3
1071
      219
1000
#$AUX@_TCDO_GTYPE
1070
           3
1071
        1
1000
#$AUX@_TCDO_VISIBILITY
1070
           3
1071
        0
1002
}
  0
LINE
  5
6C
100
AcDbEntity
  8
図
370
         100
  6
Continuous
 62
           7
100
AcDbLine
 10
123.750000000003
 20
97.9
 30
0.0
 11
114.55
 21
97.9
 31
0.0
1001
ACAD
1000
TCW40_DEV_WIDTH
1002
{
1040
0.039370078593
1002
}
1001
TCAD
1000
TCW_CUSTOM_DATA
1002
{
1000
#$AUX@_TCDO_SOURCE_COLOR
1070
           3
1071
        0
1000
#$AUX@_TCDO_PARENT_ID
1070
           3
1071
      219
1000
#$AUX@_TCDO_GTYPE
1070
           3
1071
        1
1000
#$AUX@_TCDO_VISIBILITY
1070
           3
1071
        0
1002
}
  0
LINE
  5
6D
100
AcDbEntity
  8
図
370
         100
  6
Continuous
 62
           7
100
AcDbLine
 10
125.25
 20
97.9
 30
0.0
 11
124.750000000004
 21
97.9
 31
0.0
1001
ACAD
1000
TCW40_DEV_WIDTH
1002
{
1040
0.039370078593
1002
}
1001
TCAD
1000
TCW_CUSTOM_DATA
1002
{
1000
#$AUX@_TCDO_SOURCE_COLOR
1070
           3
1071
        0
1000
#$AUX@_TCDO_PARENT_ID
1070
           3
1071
      219
1000
#$AUX@_TCDO_GTYPE
1070
           3
1071
        1
1000
#$AUX@_TCDO_VISIBILITY
1070
           3
1071
        0
1002
}
  0
LINE
  5
6E
100
AcDbEntity
  8
図
370
         100
  6
Continuous
 62
           7
100
AcDbLine
 10
113.55
 20
97.9
 30
0.0
 11
113.05
 21
97.9
 31
0.0
1001
ACAD
1000
TCW40_DEV_WIDTH
1002
{
1040
0.039370078593
1002
}
1001
TCAD
1000
TCW_CUSTOM_DATA
1002
{
1000
#$AUX@_TCDO_SOURCE_COLOR
1070
           3
1071
        0
1000
#$AUX@_TCDO_PARENT_ID
1070
           3
1071
      219
1000
#$AUX@_TCDO_GTYPE
1070
           3
1071
        1
1000
#$AUX@_TCDO_VISIBILITY
1070
           3
1071
        0
1002
}
  0
LINE
  5
6F
100
AcDbEntity
  8
図
370
         100
  6
Continuous
 62
           7
100
AcDbLine
 10
124.750000000004
 20
97.9
 30
0.0
 11
123.750000000003
 21
97.9
 31
0.0
1001
ACAD
1000
TCW40_DEV_WIDTH
1002
{
1040
0.039370078593
1002
}
1001
TCAD
1000
TCW_CUSTOM_DATA
1002
{
1000
#$AUX@_TCDO_SOURCE_COLOR
1070
           3
1071
        0
1000
#$AUX@_TCDO_PARENT_ID
1070
           3
1071
      219
1000
#$AUX@_TCDO_GTYPE
1070
           3
1071
        1
1000
#$AUX@_TCDO_VISIBILITY
1070
           3
1071
        0
1002
}
  0
LINE
  5
70
100
AcDbEntity
  8
図
370
         100
  6
Continuous
 62
           7
100
AcDbLine
 10
114.55
 20
97.9
 30
0.0
 11
113.55
 21
97.9
 31
0.0
1001
ACAD
1000
TCW40_DEV_WIDTH
1002
{
1040
0.039370078593
1002
}
1001
TCAD
1000
TCW_CUSTOM_DATA
1002
{
1000
#$AUX@_TCDO_SOURCE_COLOR
1070
           3
1071
        0
1000
#$AUX@_TCDO_PARENT_ID
1070
           3
1071
      219
1000
#$AUX@_TCDO_GTYPE
1070
           3
1071
        1
1000
#$AUX@_TCDO_VISIBILITY
1070
           3
1071
        0
1002
}
  0
LINE
  5
71
100
AcDbEntity
  8
図
370
         100
  6
Continuous
 62
           7
100
AcDbLine
 10
112.55
 20
96.9
 30
0.0
 11
112.55
 21
94.7
 31
0.0
1001
ACAD
1000
TCW40_DEV_WIDTH
1002
{
1040
0.039370078593
1002
}
1001
TCAD
1000
TCW_CUSTOM_DATA
1002
{
1000
#$AUX@_TCDO_SOURCE_COLOR
1070
           3
1071
        0
1000
#$AUX@_TCDO_PARENT_ID
1070
           3
1071
      219
1000
#$AUX@_TCDO_GTYPE
1070
           3
1071
        1
1000
#$AUX@_TCDO_VISIBILITY
1070
           3
1071
        0
1002
}
  0
LINE
  5
72
100
AcDbEntity
  8
図
370
         100
  6
Continuous
 62
           7
100
AcDbLine
 10
113.05
 20
96.9
 30
0.0
 11
112.55
 21
96.9
 31
0.0
1001
ACAD
1000
TCW40_DEV_WIDTH
1002
{
1040
0.039370078593
1002
}
1001
TCAD
1000
TCW_CUSTOM_DATA
1002
{
1000
#$AUX@_TCDO_SOURCE_COLOR
1070
           3
1071
        0
1000
#$AUX@_TCDO_PARENT_ID
1070
           3
1071
      219
1000
#$AUX@_TCDO_GTYPE
1070
           3
1071
        1
1000
#$AUX@_TCDO_VISIBILITY
1070
           3
1071
        0
1002
}
  0
LINE
  5
73
100
AcDbEntity
  8
図
370
         100
  6
Continuous
 62
           7
100
AcDbLine
 10
113.05
 20
96.9
 30
0.0
 11
125.25
 21
96.9
 31
0.0
1001
ACAD
1000
TCW40_DEV_WIDTH
1002
{
1040
0.039370078593
1002
}
1001
TCAD
1000
TCW_CUSTOM_DATA
1002
{
1000
#$AUX@_TCDO_SOURCE_COLOR
1070
           3
1071
        0
1000
#$AUX@_TCDO_PARENT_ID
1070
           3
1071
      219
1000
#$AUX@_TCDO_GTYPE
1070
           3
1071
        0
1000
#$AUX@_TCDO_VISIBILITY
1070
           3
1071
        0
1002
}
  0
LINE
  5
74
100
AcDbEntity
  8
図
370
         100
  6
Continuous
 62
           7
100
AcDbLine
 10
125.75
 20
96.9
 30
0.0
 11
125.25
 21
96.9
 31
0.0
1001
ACAD
1000
TCW40_DEV_WIDTH
1002
{
1040
0.039370078593
1002
}
1001
TCAD
1000
TCW_CUSTOM_DATA
1002
{
1000
#$AUX@_TCDO_SOURCE_COLOR
1070
           3
1071
        0
1000
#$AUX@_TCDO_PARENT_ID
1070
           3
1071
      219
1000
#$AUX@_TCDO_GTYPE
1070
           3
1071
        1
1000
#$AUX@_TCDO_VISIBILITY
1070
           3
1071
        0
1002
}
  0
LINE
  5
75
100
AcDbEntity
  8
図
370
         100
  6
Continuous
 62
           7
100
AcDbLine
 10
107.85
 20
94.2
 30
0.0
 11
107.85
 21
94.7
 31
0.0
1001
ACAD
1000
TCW40_DEV_WIDTH
1002
{
1040
0.039370078593
1002
}
1001
TCAD
1000
TCW_CUSTOM_DATA
1002
{
1000
#$AUX@_TCDO_SOURCE_COLOR
1070
           3
1071
        0
1000
#$AUX@_TCDO_PARENT_ID
1070
           3
1071
      219
1000
#$AUX@_TCDO_GTYPE
1070
           3
1071
        0
1000
#$AUX@_TCDO_VISIBILITY
1070
           3
1071
        0
1002
}
  0
ARC
  5
76
100
AcDbEntity
  8
図
370
         100
  6
Continuous
 62
           7
100
AcDbCircle
 10
106.85
 20
94.2
 30
0.0
 40
0.5
100
AcDbArc
 50
90.0
 51
180.0
1001
ACAD
1000
TCW40_DEV_WIDTH
1002
{
1040
0.039370078593
1002
}
1001
TCAD
1000
TCW_CUSTOM_DATA
1002
{
1000
#$AUX@_TCDO_SOURCE_COLOR
1070
           3
1071
        0
1000
#$AUX@_TCDO_PARENT_ID
1070
           3
1071
      219
1000
#$AUX@_TCDO_GTYPE
1070
           3
1071
        1
1000
#$AUX@_TCDO_VISIBILITY
1070
           3
1071
        0
1002
}
  0
ARC
  5
77
100
AcDbEntity
  8
図
370
         100
  6
Continuous
 62
           7
100
AcDbCircle
 10
131.45
 20
94.2
 30
0.0
 40
0.5
100
AcDbArc
 50
0.0
 51
90.0
1001
ACAD
1000
TCW40_DEV_WIDTH
1002
{
1040
0.039370078593
1002
}
1001
TCAD
1000
TCW_CUSTOM_DATA
1002
{
1000
#$AUX@_TCDO_SOURCE_COLOR
1070
           3
1071
        0
1000
#$AUX@_TCDO_PARENT_ID
1070
           3
1071
      219
1000
#$AUX@_TCDO_GTYPE
1070
           3
1071
        1
1000
#$AUX@_TCDO_VISIBILITY
1070
           3
1071
        0
1002
}
  0
LINE
  5
78
100
AcDbEntity
  8
図
370
         100
  6
Continuous
 62
           7
100
AcDbLine
 10
130.45
 20
94.2
 30
0.0
 11
131.95
 21
94.2
 31
0.0
1001
ACAD
1000
TCW40_DEV_WIDTH
1002
{
1040
0.039370078593
1002
}
1001
TCAD
1000
TCW_CUSTOM_DATA
1002
{
1000
#$AUX@_TCDO_SOURCE_COLOR
1070
           3
1071
        0
1000
#$AUX@_TCDO_PARENT_ID
1070
           3
1071
      219
1000
#$AUX@_TCDO_GTYPE
1070
           3
1071
        0
1000
#$AUX@_TCDO_VISIBILITY
1070
           3
1071
        0
1002
}
  0
LINE
  5
79
100
AcDbEntity
  8
図
370
         100
  6
Continuous
 62
           7
100
AcDbLine
 10
131.95
 20
94.2
 30
0.0
 11
131.95
 21
83.5
 31
0.0
1001
ACAD
1000
TCW40_DEV_WIDTH
1002
{
1040
0.039370078593
1002
}
1001
TCAD
1000
TCW_CUSTOM_DATA
1002
{
1000
#$AUX@_TCDO_SOURCE_COLOR
1070
           3
1071
        0
1000
#$AUX@_TCDO_PARENT_ID
1070
           3
1071
      219
1000
#$AUX@_TCDO_GTYPE
1070
           3
1071
        1
1000
#$AUX@_TCDO_VISIBILITY
1070
           3
1071
        0
1002
}
  0
LINE
  5
7A
100
AcDbEntity
  8
図
370
         100
  6
Continuous
 62
           7
100
AcDbLine
 10
130.45
 20
83.5
 30
0.0
 11
131.95
 21
83.5
 31
0.0
1001
ACAD
1000
TCW40_DEV_WIDTH
1002
{
1040
0.039370078593
1002
}
1001
TCAD
1000
TCW_CUSTOM_DATA
1002
{
1000
#$AUX@_TCDO_SOURCE_COLOR
1070
           3
1071
        0
1000
#$AUX@_TCDO_PARENT_ID
1070
           3
1071
      219
1000
#$AUX@_TCDO_GTYPE
1070
           3
1071
        1
1000
#$AUX@_TCDO_VISIBILITY
1070
           3
1071
        0
1002
}
  0
LINE
  5
7B
100
AcDbEntity
  8
図
370
         100
  6
Continuous
 62
           7
100
AcDbLine
 10
114.222307692308
 20
83.5
 30
0.0
 11
107.85
 21
83.5
 31
0.0
1001
ACAD
1000
TCW40_DEV_WIDTH
1002
{
1040
0.039370078593
1002
}
1001
TCAD
1000
TCW_CUSTOM_DATA
1002
{
1000
#$AUX@_TCDO_SOURCE_COLOR
1070
           3
1071
        0
1000
#$AUX@_TCDO_PARENT_ID
1070
           3
1071
      219
1000
#$AUX@_TCDO_GTYPE
1070
           3
1071
        1
1000
#$AUX@_TCDO_VISIBILITY
1070
           3
1071
        0
1002
}
  0
LINE
  5
7C
100
AcDbEntity
  8
図
370
         100
  6
Continuous
 62
           7
100
AcDbLine
 10
107.85
 20
94.2
 30
0.0
 11
112.55
 21
94.2
 31
0.0
1001
ACAD
1000
TCW40_DEV_WIDTH
1002
{
1040
0.039370078593
1002
}
1001
TCAD
1000
TCW_CUSTOM_DATA
1002
{
1000
#$AUX@_TCDO_SOURCE_COLOR
1070
           3
1071
        0
1000
#$AUX@_TCDO_PARENT_ID
1070
           3
1071
      219
1000
#$AUX@_TCDO_GTYPE
1070
           3
1071
        0
1000
#$AUX@_TCDO_VISIBILITY
1070
           3
1071
        0
1002
}
  0
LINE
  5
7D
100
AcDbEntity
  8
図
370
         100
  6
Continuous
 62
           7
100
AcDbLine
 10
130.45
 20
83.5
 30
0.0
 11
130.45
 21
94.2
 31
0.0
1001
ACAD
1000
TCW40_DEV_WIDTH
1002
{
1040
0.039370078593
1002
}
1001
TCAD
1000
TCW_CUSTOM_DATA
1002
{
1000
#$AUX@_TCDO_SOURCE_COLOR
1070
           3
1071
        0
1000
#$AUX@_TCDO_PARENT_ID
1070
           3
1071
      219
1000
#$AUX@_TCDO_GTYPE
1070
           3
1071
        0
1000
#$AUX@_TCDO_VISIBILITY
1070
           3
1071
        0
1002
}
  0
LINE
  5
7E
100
AcDbEntity
  8
図
370
         100
  6
Continuous
 62
           7
100
AcDbLine
 10
130.45
 20
83.5
 30
0.0
 11
124.078682170543
 21
83.5
 31
0.0
1001
ACAD
1000
TCW40_DEV_WIDTH
1002
{
1040
0.039370078593
1002
}
1001
TCAD
1000
TCW_CUSTOM_DATA
1002
{
1000
#$AUX@_TCDO_SOURCE_COLOR
1070
           3
1071
        0
1000
#$AUX@_TCDO_PARENT_ID
1070
           3
1071
      219
1000
#$AUX@_TCDO_GTYPE
1070
           3
1071
        1
1000
#$AUX@_TCDO_VISIBILITY
1070
           3
1071
        0
1002
}
  0
LINE
  5
7F
100
AcDbEntity
  8
図
370
         100
  6
Continuous
 62
           7
100
AcDbLine
 10
121.65
 20
83.5
 30
0.0
 11
116.65
 21
83.5
 31
0.0
1001
ACAD
1000
TCW40_DEV_WIDTH
1002
{
1040
0.039370078593
1002
}
1001
TCAD
1000
TCW_CUSTOM_DATA
1002
{
1000
#$AUX@_TCDO_SOURCE_COLOR
1070
           3
1071
        0
1000
#$AUX@_TCDO_PARENT_ID
1070
           3
1071
      219
1000
#$AUX@_TCDO_GTYPE
1070
           3
1071
        1
1000
#$AUX@_TCDO_VISIBILITY
1070
           3
1071
        0
1002
}
  0
LINE
  5
80
100
AcDbEntity
  8
図
370
         100
  6
Continuous
 62
           7
100
AcDbLine
 10
106.35
 20
83.5
 30
0.0
 11
106.35
 21
94.2
 31
0.0
1001
ACAD
1000
TCW40_DEV_WIDTH
1002
{
1040
0.039370078593
1002
}
1001
TCAD
1000
TCW_CUSTOM_DATA
1002
{
1000
#$AUX@_TCDO_SOURCE_COLOR
1070
           3
1071
        0
1000
#$AUX@_TCDO_PARENT_ID
1070
           3
1071
      219
1000
#$AUX@_TCDO_GTYPE
1070
           3
1071
        1
1000
#$AUX@_TCDO_VISIBILITY
1070
           3
1071
        0
1002
}
  0
LINE
  5
81
100
AcDbEntity
  8
図
370
         100
  6
Continuous
 62
           7
100
AcDbLine
 10
106.35
 20
94.2
 30
0.0
 11
107.85
 21
94.2
 31
0.0
1001
ACAD
1000
TCW40_DEV_WIDTH
1002
{
1040
0.039370078593
1002
}
1001
TCAD
1000
TCW_CUSTOM_DATA
1002
{
1000
#$AUX@_TCDO_SOURCE_COLOR
1070
           3
1071
        0
1000
#$AUX@_TCDO_PARENT_ID
1070
           3
1071
      219
1000
#$AUX@_TCDO_GTYPE
1070
           3
1071
        0
1000
#$AUX@_TCDO_VISIBILITY
1070
           3
1071
        0
1002
}
  0
LINE
  5
82
100
AcDbEntity
  8
図
370
         100
  6
Continuous
 62
           7
100
AcDbLine
 10
107.85
 20
94.2
 30
0.0
 11
107.85
 21
83.5
 31
0.0
1001
ACAD
1000
TCW40_DEV_WIDTH
1002
{
1040
0.039370078593
1002
}
1001
TCAD
1000
TCW_CUSTOM_DATA
1002
{
1000
#$AUX@_TCDO_SOURCE_COLOR
1070
           3
1071
        0
1000
#$AUX@_TCDO_PARENT_ID
1070
           3
1071
      219
1000
#$AUX@_TCDO_GTYPE
1070
           3
1071
        0
1000
#$AUX@_TCDO_VISIBILITY
1070
           3
1071
        0
1002
}
  0
LINE
  5
83
100
AcDbEntity
  8
図
370
         100
  6
Continuous
 62
           7
100
AcDbLine
 10
106.35
 20
83.5
 30
0.0
 11
107.85
 21
83.5
 31
0.0
1001
ACAD
1000
TCW40_DEV_WIDTH
1002
{
1040
0.039370078593
1002
}
1001
TCAD
1000
TCW_CUSTOM_DATA
1002
{
1000
#$AUX@_TCDO_SOURCE_COLOR
1070
           3
1071
        0
1000
#$AUX@_TCDO_PARENT_ID
1070
           3
1071
      219
1000
#$AUX@_TCDO_GTYPE
1070
           3
1071
        1
1000
#$AUX@_TCDO_VISIBILITY
1070
           3
1071
        0
1002
}
  0
LINE
  5
84
100
AcDbEntity
  8
図
370
         100
  6
Continuous
 62
           7
100
AcDbLine
 10
112.55
 20
94.2
 30
0.0
 11
112.55
 21
94.7
 31
0.0
1001
ACAD
1000
TCW40_DEV_WIDTH
1002
{
1040
0.039370078593
1002
}
1001
TCAD
1000
TCW_CUSTOM_DATA
1002
{
1000
#$AUX@_TCDO_SOURCE_COLOR
1070
           3
1071
        0
1000
#$AUX@_TCDO_PARENT_ID
1070
           3
1071
      219
1000
#$AUX@_TCDO_GTYPE
1070
           3
1071
        1
1000
#$AUX@_TCDO_VISIBILITY
1070
           3
1071
        0
1002
}
  0
LINE
  5
85
100
AcDbEntity
  8
図
370
         100
  6
Continuous
 62
           7
100
AcDbLine
 10
125.75
 20
94.7
 30
0.0
 11
125.75
 21
94.2
 31
0.0
1001
ACAD
1000
TCW40_DEV_WIDTH
1002
{
1040
0.039370078593
1002
}
1001
TCAD
1000
TCW_CUSTOM_DATA
1002
{
1000
#$AUX@_TCDO_SOURCE_COLOR
1070
           3
1071
        0
1000
#$AUX@_TCDO_PARENT_ID
1070
           3
1071
      219
1000
#$AUX@_TCDO_GTYPE
1070
           3
1071
        1
1000
#$AUX@_TCDO_VISIBILITY
1070
           3
1071
        0
1002
}
  0
LINE
  5
86
100
AcDbEntity
  8
図
370
         100
  6
Continuous
 62
           7
100
AcDbLine
 10
125.75
 20
92.7
 30
0.0
 11
125.75
 21
94.2
 31
0.0
1001
ACAD
1000
TCW40_DEV_WIDTH
1002
{
1040
0.039370078593
1002
}
1001
TCAD
1000
TCW_CUSTOM_DATA
1002
{
1000
#$AUX@_TCDO_SOURCE_COLOR
1070
           3
1071
        0
1000
#$AUX@_TCDO_PARENT_ID
1070
           3
1071
      219
1000
#$AUX@_TCDO_GTYPE
1070
           3
1071
        1
1000
#$AUX@_TCDO_VISIBILITY
1070
           3
1071
        0
1002
}
  0
LINE
  5
87
100
AcDbEntity
  8
図
370
         100
  6
Continuous
 62
           7
100
AcDbLine
 10
112.55
 20
92.7
 30
0.0
 11
112.55
 21
94.2
 31
0.0
1001
ACAD
1000
TCW40_DEV_WIDTH
1002
{
1040
0.039370078593
1002
}
1001
TCAD
1000
TCW_CUSTOM_DATA
1002
{
1000
#$AUX@_TCDO_SOURCE_COLOR
1070
           3
1071
        0
1000
#$AUX@_TCDO_PARENT_ID
1070
           3
1071
      219
1000
#$AUX@_TCDO_GTYPE
1070
           3
1071
        1
1000
#$AUX@_TCDO_VISIBILITY
1070
           3
1071
        0
1002
}
  0
LINE
  5
88
100
AcDbEntity
  8
図
370
         100
  6
Continuous
 62
           7
100
AcDbLine
 10
112.55
 20
94.2
 30
0.0
 11
125.75
 21
94.2
 31
0.0
1001
ACAD
1000
TCW40_DEV_WIDTH
1002
{
1040
0.039370078593
1002
}
1001
TCAD
1000
TCW_CUSTOM_DATA
1002
{
1000
#$AUX@_TCDO_SOURCE_COLOR
1070
           3
1071
        0
1000
#$AUX@_TCDO_PARENT_ID
1070
           3
1071
      219
1000
#$AUX@_TCDO_GTYPE
1070
           3
1071
        0
1000
#$AUX@_TCDO_VISIBILITY
1070
           3
1071
        0
1002
}
  0
LINE
  5
89
100
AcDbEntity
  8
図
370
         100
  6
Continuous
 62
           7
100
AcDbLine
 10
114.05
 20
86.7
 30
0.0
 11
112.55
 21
86.7
 31
0.0
1001
ACAD
1000
TCW40_DEV_WIDTH
1002
{
1040
0.039370078593
1002
}
1001
TCAD
1000
TCW_CUSTOM_DATA
1002
{
1000
#$AUX@_TCDO_SOURCE_COLOR
1070
           3
1071
        0
1000
#$AUX@_TCDO_PARENT_ID
1070
           3
1071
      219
1000
#$AUX@_TCDO_GTYPE
1070
           3
1071
        0
1000
#$AUX@_TCDO_VISIBILITY
1070
           3
1071
        0
1002
}
  0
LINE
  5
8A
100
AcDbEntity
  8
図
370
         100
  6
Continuous
 62
           7
100
AcDbLine
 10
112.55
 20
86.7
 30
0.0
 11
112.55
 21
92.7
 31
0.0
1001
ACAD
1000
TCW40_DEV_WIDTH
1002
{
1040
0.039370078593
1002
}
1001
TCAD
1000
TCW_CUSTOM_DATA
1002
{
1000
#$AUX@_TCDO_SOURCE_COLOR
1070
           3
1071
        0
1000
#$AUX@_TCDO_PARENT_ID
1070
           3
1071
      219
1000
#$AUX@_TCDO_GTYPE
1070
           3
1071
        1
1000
#$AUX@_TCDO_VISIBILITY
1070
           3
1071
        0
1002
}
  0
LINE
  5
8B
100
AcDbEntity
  8
図
370
         100
  6
Continuous
 62
           7
100
AcDbLine
 10
112.55
 20
92.7
 30
0.0
 11
125.75
 21
92.7
 31
0.0
1001
ACAD
1000
TCW40_DEV_WIDTH
1002
{
1040
0.039370078593
1002
}
1001
TCAD
1000
TCW_CUSTOM_DATA
1002
{
1000
#$AUX@_TCDO_SOURCE_COLOR
1070
           3
1071
        0
1000
#$AUX@_TCDO_PARENT_ID
1070
           3
1071
      219
1000
#$AUX@_TCDO_GTYPE
1070
           3
1071
        0
1000
#$AUX@_TCDO_VISIBILITY
1070
           3
1071
        0
1002
}
  0
LINE
  5
8C
100
AcDbEntity
  8
図
370
         100
  6
Continuous
 62
           7
100
AcDbLine
 10
125.75
 20
92.7
 30
0.0
 11
125.75
 21
86.7
 31
0.0
1001
ACAD
1000
TCW40_DEV_WIDTH
1002
{
1040
0.039370078593
1002
}
1001
TCAD
1000
TCW_CUSTOM_DATA
1002
{
1000
#$AUX@_TCDO_SOURCE_COLOR
1070
           3
1071
        0
1000
#$AUX@_TCDO_PARENT_ID
1070
           3
1071
      219
1000
#$AUX@_TCDO_GTYPE
1070
           3
1071
        1
1000
#$AUX@_TCDO_VISIBILITY
1070
           3
1071
        0
1002
}
  0
LINE
  5
8D
100
AcDbEntity
  8
図
370
         100
  6
Continuous
 62
           7
100
AcDbLine
 10
125.75
 20
86.7
 30
0.0
 11
124.25
 21
86.7
 31
0.0
1001
ACAD
1000
TCW40_DEV_WIDTH
1002
{
1040
0.039370078593
1002
}
1001
TCAD
1000
TCW_CUSTOM_DATA
1002
{
1000
#$AUX@_TCDO_SOURCE_COLOR
1070
           3
1071
        0
1000
#$AUX@_TCDO_PARENT_ID
1070
           3
1071
      219
1000
#$AUX@_TCDO_GTYPE
1070
           3
1071
        0
1000
#$AUX@_TCDO_VISIBILITY
1070
           3
1071
        0
1002
}
  0
LINE
  5
8E
100
AcDbEntity
  8
図
370
         100
  6
Continuous
 62
           7
100
AcDbLine
 10
124.25
 20
92.006599664569
 30
0.0
 11
124.25
 21
86.7
 31
0.0
1001
ACAD
1000
TCW40_DEV_WIDTH
1002
{
1040
0.039370078593
1002
}
1001
TCAD
1000
TCW_CUSTOM_DATA
1002
{
1000
#$AUX@_TCDO_SOURCE_COLOR
1070
           3
1071
        0
1000
#$AUX@_TCDO_PARENT_ID
1070
           3
1071
      219
1000
#$AUX@_TCDO_GTYPE
1070
           3
1071
        1
1000
#$AUX@_TCDO_VISIBILITY
1070
           3
1071
        0
1002
}
  0
LINE
  5
8F
100
AcDbEntity
  8
図
370
         100
  6
Continuous
 62
           7
100
AcDbLine
 10
114.05
 20
92.006599664569
 30
0.0
 11
124.25
 21
92.006599664569
 31
0.0
1001
ACAD
1000
TCW40_DEV_WIDTH
1002
{
1040
0.039370078593
1002
}
1001
TCAD
1000
TCW_CUSTOM_DATA
1002
{
1000
#$AUX@_TCDO_SOURCE_COLOR
1070
           3
1071
        0
1000
#$AUX@_TCDO_PARENT_ID
1070
           3
1071
      219
1000
#$AUX@_TCDO_GTYPE
1070
           3
1071
        1
1000
#$AUX@_TCDO_VISIBILITY
1070
           3
1071
        0
1002
}
  0
LINE
  5
90
100
AcDbEntity
  8
図
370
         100
  6
Continuous
 62
           7
100
AcDbLine
 10
114.05
 20
86.7
 30
0.0
 11
114.05
 21
92.006599664569
 31
0.0
1001
ACAD
1000
TCW40_DEV_WIDTH
1002
{
1040
0.039370078593
1002
}
1001
TCAD
1000
TCW_CUSTOM_DATA
1002
{
1000
#$AUX@_TCDO_SOURCE_COLOR
1070
           3
1071
        0
1000
#$AUX@_TCDO_PARENT_ID
1070
           3
1071
      219
1000
#$AUX@_TCDO_GTYPE
1070
           3
1071
        1
1000
#$AUX@_TCDO_VISIBILITY
1070
           3
1071
        0
1002
}
  0
LINE
  5
91
100
AcDbEntity
  8
図
370
         100
  6
Continuous
 62
           7
100
AcDbLine
 10
121.65
 20
77.7
 30
0.0
 11
116.65
 21
77.7
 31
0.0
1001
ACAD
1000
TCW40_DEV_WIDTH
1002
{
1040
0.039370078593
1002
}
1001
TCAD
1000
TCW_CUSTOM_DATA
1002
{
1000
#$AUX@_TCDO_SOURCE_COLOR
1070
           3
1071
        0
1000
#$AUX@_TCDO_PARENT_ID
1070
           3
1071
      219
1000
#$AUX@_TCDO_GTYPE
1070
           3
1071
        1
1000
#$AUX@_TCDO_VISIBILITY
1070
           3
1071
        0
1002
}
  0
LINE
  5
92
100
AcDbEntity
  8
図
370
         100
  6
Continuous
 62
           7
100
AcDbLine
 10
123.95
 20
75.2
 30
0.0
 11
123.988759689922
 21
77.7
 31
0.0
1001
ACAD
1000
TCW40_DEV_WIDTH
1002
{
1040
0.039370078593
1002
}
1001
TCAD
1000
TCW_CUSTOM_DATA
1002
{
1000
#$AUX@_TCDO_SOURCE_COLOR
1070
           3
1071
        0
1000
#$AUX@_TCDO_PARENT_ID
1070
           3
1071
      219
1000
#$AUX@_TCDO_GTYPE
1070
           3
1071
        1
1000
#$AUX@_TCDO_VISIBILITY
1070
           3
1071
        0
1002
}
  0
LINE
  5
93
100
AcDbEntity
  8
図
370
         100
  6
Continuous
 62
           7
100
AcDbLine
 10
114.311538461538
 20
77.7
 30
0.0
 11
114.35
 21
75.2
 31
0.0
1001
ACAD
1000
TCW40_DEV_WIDTH
1002
{
1040
0.039370078593
1002
}
1001
TCAD
1000
TCW_CUSTOM_DATA
1002
{
1000
#$AUX@_TCDO_SOURCE_COLOR
1070
           3
1071
        0
1000
#$AUX@_TCDO_PARENT_ID
1070
           3
1071
      219
1000
#$AUX@_TCDO_GTYPE
1070
           3
1071
        1
1000
#$AUX@_TCDO_VISIBILITY
1070
           3
1071
        0
1002
}
  0
LINE
  5
94
100
AcDbEntity
  8
図
370
         100
  6
Continuous
 62
           7
100
AcDbLine
 10
114.35
 20
75.2
 30
0.0
 11
123.95
 21
75.2
 31
0.0
1001
ACAD
1000
TCW40_DEV_WIDTH
1002
{
1040
0.039370078593
1002
}
1001
TCAD
1000
TCW_CUSTOM_DATA
1002
{
1000
#$AUX@_TCDO_SOURCE_COLOR
1070
           3
1071
        0
1000
#$AUX@_TCDO_PARENT_ID
1070
           3
1071
      219
1000
#$AUX@_TCDO_GTYPE
1070
           3
1071
        1
1000
#$AUX@_TCDO_VISIBILITY
1070
           3
1071
        0
1002
}
  0
LINE
  5
95
100
AcDbEntity
  8
図
370
         100
  6
Continuous
 62
           7
100
AcDbLine
 10
124.128294573643
 20
86.7
 30
0.0
 11
123.988759689922
 21
77.7
 31
0.0
1001
ACAD
1000
TCW40_DEV_WIDTH
1002
{
1040
0.039370078593
1002
}
1001
TCAD
1000
TCW_CUSTOM_DATA
1002
{
1000
#$AUX@_TCDO_SOURCE_COLOR
1070
           3
1071
        0
1000
#$AUX@_TCDO_PARENT_ID
1070
           3
1071
      219
1000
#$AUX@_TCDO_GTYPE
1070
           3
1071
        1
1000
#$AUX@_TCDO_VISIBILITY
1070
           3
1071
        0
1002
}
  0
LINE
  5
96
100
AcDbEntity
  8
図
370
         100
  6
Continuous
 62
           7
100
AcDbLine
 10
123.988759689922
 20
77.7
 30
0.0
 11
121.65
 21
77.7
 31
0.0
1001
ACAD
1000
TCW40_DEV_WIDTH
1002
{
1040
0.039370078593
1002
}
1001
TCAD
1000
TCW_CUSTOM_DATA
1002
{
1000
#$AUX@_TCDO_SOURCE_COLOR
1070
           3
1071
        0
1000
#$AUX@_TCDO_PARENT_ID
1070
           3
1071
      219
1000
#$AUX@_TCDO_GTYPE
1070
           3
1071
        0
1000
#$AUX@_TCDO_VISIBILITY
1070
           3
1071
        0
1002
}
  0
LINE
  5
97
100
AcDbEntity
  8
図
370
         100
  6
Continuous
 62
           7
100
AcDbLine
 10
124.15
 20
88.100000000003
 30
0.0
 11
124.128294573643
 21
86.7
 31
0.0
1001
ACAD
1000
TCW40_DEV_WIDTH
1002
{
1040
0.039370078593
1002
}
1001
TCAD
1000
TCW_CUSTOM_DATA
1002
{
1000
#$AUX@_TCDO_SOURCE_COLOR
1070
           3
1071
        0
1000
#$AUX@_TCDO_PARENT_ID
1070
           3
1071
      219
1000
#$AUX@_TCDO_GTYPE
1070
           3
1071
        1
1000
#$AUX@_TCDO_VISIBILITY
1070
           3
1071
        0
1002
}
  0
LINE
  5
98
100
AcDbEntity
  8
図
370
         100
  6
Continuous
 62
           7
100
AcDbLine
 10
121.65
 20
86.7
 30
0.0
 11
124.128294573643
 21
86.7
 31
0.0
1001
ACAD
1000
TCW40_DEV_WIDTH
1002
{
1040
0.039370078593
1002
}
1001
TCAD
1000
TCW_CUSTOM_DATA
1002
{
1000
#$AUX@_TCDO_SOURCE_COLOR
1070
           3
1071
        0
1000
#$AUX@_TCDO_PARENT_ID
1070
           3
1071
      219
1000
#$AUX@_TCDO_GTYPE
1070
           3
1071
        0
1000
#$AUX@_TCDO_VISIBILITY
1070
           3
1071
        0
1002
}
  0
LINE
  5
99
100
AcDbEntity
  8
図
370
         100
  6
Continuous
 62
           7
100
AcDbLine
 10
121.65
 20
88.2
 30
0.0
 11
124.15
 21
88.2
 31
0.0
1001
ACAD
1000
TCW40_DEV_WIDTH
1002
{
1040
0.039370078593
1002
}
1001
TCAD
1000
TCW_CUSTOM_DATA
1002
{
1000
#$AUX@_TCDO_SOURCE_COLOR
1070
           3
1071
        0
1000
#$AUX@_TCDO_PARENT_ID
1070
           3
1071
      219
1000
#$AUX@_TCDO_GTYPE
1070
           3
1071
        0
1000
#$AUX@_TCDO_VISIBILITY
1070
           3
1071
        0
1002
}
  0
LINE
  5
9A
100
AcDbEntity
  8
図
370
         100
  6
Continuous
 62
           7
100
AcDbLine
 10
124.15
 20
88.2
 30
0.0
 11
124.15
 21
88.100000000003
 31
0.0
1001
ACAD
1000
TCW40_DEV_WIDTH
1002
{
1040
0.039370078593
1002
}
1001
TCAD
1000
TCW_CUSTOM_DATA
1002
{
1000
#$AUX@_TCDO_SOURCE_COLOR
1070
           3
1071
        0
1000
#$AUX@_TCDO_PARENT_ID
1070
           3
1071
      219
1000
#$AUX@_TCDO_GTYPE
1070
           3
1071
        1
1000
#$AUX@_TCDO_VISIBILITY
1070
           3
1071
        0
1002
}
  0
LINE
  5
9B
100
AcDbEntity
  8
図
370
         100
  6
Continuous
 62
           7
100
AcDbLine
 10
121.65
 20
77.7
 30
0.0
 11
121.65
 21
86.7
 31
0.0
1001
ACAD
1000
TCW40_DEV_WIDTH
1002
{
1040
0.039370078593
1002
}
1001
TCAD
1000
TCW_CUSTOM_DATA
1002
{
1000
#$AUX@_TCDO_SOURCE_COLOR
1070
           3
1071
        0
1000
#$AUX@_TCDO_PARENT_ID
1070
           3
1071
      219
1000
#$AUX@_TCDO_GTYPE
1070
           3
1071
        1
1000
#$AUX@_TCDO_VISIBILITY
1070
           3
1071
        0
1002
}
  0
LINE
  5
9C
100
AcDbEntity
  8
図
370
         100
  6
Continuous
 62
           7
100
AcDbLine
 10
121.65
 20
86.7
 30
0.0
 11
121.65
 21
88.2
 31
0.0
1001
ACAD
1000
TCW40_DEV_WIDTH
1002
{
1040
0.039370078593
1002
}
1001
TCAD
1000
TCW_CUSTOM_DATA
1002
{
1000
#$AUX@_TCDO_SOURCE_COLOR
1070
           3
1071
        0
1000
#$AUX@_TCDO_PARENT_ID
1070
           3
1071
      219
1000
#$AUX@_TCDO_GTYPE
1070
           3
1071
        1
1000
#$AUX@_TCDO_VISIBILITY
1070
           3
1071
        0
1002
}
  0
LINE
  5
9D
100
AcDbEntity
  8
図
370
         100
  6
Continuous
 62
           7
100
AcDbLine
 10
114.15
 20
88.2
 30
0.0
 11
116.65
 21
88.2
 31
0.0
1001
ACAD
1000
TCW40_DEV_WIDTH
1002
{
1040
0.039370078593
1002
}
1001
TCAD
1000
TCW_CUSTOM_DATA
1002
{
1000
#$AUX@_TCDO_SOURCE_COLOR
1070
           3
1071
        0
1000
#$AUX@_TCDO_PARENT_ID
1070
           3
1071
      219
1000
#$AUX@_TCDO_GTYPE
1070
           3
1071
        0
1000
#$AUX@_TCDO_VISIBILITY
1070
           3
1071
        0
1002
}
  0
LINE
  5
9E
100
AcDbEntity
  8
図
370
         100
  6
Continuous
 62
           7
100
AcDbLine
 10
116.65
 20
88.2
 30
0.0
 11
116.65
 21
86.7
 31
0.0
1001
ACAD
1000
TCW40_DEV_WIDTH
1002
{
1040
0.039370078593
1002
}
1001
TCAD
1000
TCW_CUSTOM_DATA
1002
{
1000
#$AUX@_TCDO_SOURCE_COLOR
1070
           3
1071
        0
1000
#$AUX@_TCDO_PARENT_ID
1070
           3
1071
      219
1000
#$AUX@_TCDO_GTYPE
1070
           3
1071
        1
1000
#$AUX@_TCDO_VISIBILITY
1070
           3
1071
        0
1002
}
  0
LINE
  5
9F
100
AcDbEntity
  8
図
370
         100
  6
Continuous
 62
           7
100
AcDbLine
 10
114.173076923077
 20
86.7
 30
0.0
 11
114.15
 21
88.2
 31
0.0
1001
ACAD
1000
TCW40_DEV_WIDTH
1002
{
1040
0.039370078593
1002
}
1001
TCAD
1000
TCW_CUSTOM_DATA
1002
{
1000
#$AUX@_TCDO_SOURCE_COLOR
1070
           3
1071
        0
1000
#$AUX@_TCDO_PARENT_ID
1070
           3
1071
      219
1000
#$AUX@_TCDO_GTYPE
1070
           3
1071
        1
1000
#$AUX@_TCDO_VISIBILITY
1070
           3
1071
        0
1002
}
  0
LINE
  5
A0
100
AcDbEntity
  8
図
370
         100
  6
Continuous
 62
           7
100
AcDbLine
 10
114.311538461539
 20
77.7
 30
0.0
 11
114.173076923077
 21
86.7
 31
0.0
1001
ACAD
1000
TCW40_DEV_WIDTH
1002
{
1040
0.039370078593
1002
}
1001
TCAD
1000
TCW_CUSTOM_DATA
1002
{
1000
#$AUX@_TCDO_SOURCE_COLOR
1070
           3
1071
        0
1000
#$AUX@_TCDO_PARENT_ID
1070
           3
1071
      219
1000
#$AUX@_TCDO_GTYPE
1070
           3
1071
        1
1000
#$AUX@_TCDO_VISIBILITY
1070
           3
1071
        0
1002
}
  0
LINE
  5
A1
100
AcDbEntity
  8
図
370
         100
  6
Continuous
 62
           7
100
AcDbLine
 10
114.173076923077
 20
86.7
 30
0.0
 11
116.65
 21
86.7
 31
0.0
1001
ACAD
1000
TCW40_DEV_WIDTH
1002
{
1040
0.039370078593
1002
}
1001
TCAD
1000
TCW_CUSTOM_DATA
1002
{
1000
#$AUX@_TCDO_SOURCE_COLOR
1070
           3
1071
        0
1000
#$AUX@_TCDO_PARENT_ID
1070
           3
1071
      219
1000
#$AUX@_TCDO_GTYPE
1070
           3
1071
        0
1000
#$AUX@_TCDO_VISIBILITY
1070
           3
1071
        0
1002
}
  0
LINE
  5
A2
100
AcDbEntity
  8
図
370
         100
  6
Continuous
 62
           7
100
AcDbLine
 10
116.65
 20
86.7
 30
0.0
 11
116.65
 21
77.7
 31
0.0
1001
ACAD
1000
TCW40_DEV_WIDTH
1002
{
1040
0.039370078593
1002
}
1001
TCAD
1000
TCW_CUSTOM_DATA
1002
{
1000
#$AUX@_TCDO_SOURCE_COLOR
1070
           3
1071
        0
1000
#$AUX@_TCDO_PARENT_ID
1070
           3
1071
      219
1000
#$AUX@_TCDO_GTYPE
1070
           3
1071
        1
1000
#$AUX@_TCDO_VISIBILITY
1070
           3
1071
        0
1002
}
  0
LINE
  5
A3
100
AcDbEntity
  8
図
370
         100
  6
Continuous
 62
           7
100
AcDbLine
 10
116.65
 20
77.7
 30
0.0
 11
114.311538461539
 21
77.7
 31
0.0
1001
ACAD
1000
TCW40_DEV_WIDTH
1002
{
1040
0.039370078593
1002
}
1001
TCAD
1000
TCW_CUSTOM_DATA
1002
{
1000
#$AUX@_TCDO_SOURCE_COLOR
1070
           3
1071
        0
1000
#$AUX@_TCDO_PARENT_ID
1070
           3
1071
      219
1000
#$AUX@_TCDO_GTYPE
1070
           3
1071
        0
1000
#$AUX@_TCDO_VISIBILITY
1070
           3
1071
        0
1002
}
  0
LINE
  5
A4
100
AcDbEntity
  8
図
370
         100
  6
Continuous
 62
           7
100
AcDbLine
 10
125.75
 20
94.7
 30
0.0
 11
125.75
 21
96.9
 31
0.0
1001
ACAD
1000
TCW40_DEV_WIDTH
1002
{
1040
0.039370078593
1002
}
1001
TCAD
1000
TCW_CUSTOM_DATA
1002
{
1000
#$AUX@_TCDO_SOURCE_COLOR
1070
           3
1071
        0
1000
#$AUX@_TCDO_PARENT_ID
1070
           3
1071
      219
1000
#$AUX@_TCDO_GTYPE
1070
           3
1071
        1
1000
#$AUX@_TCDO_VISIBILITY
1070
           3
1071
        0
1002
}
  0
LINE
  5
A5
100
AcDbEntity
  8
図
370
         100
  6
Continuous
 62
           7
100
AcDbLine
 10
125.75
 20
97.4
 30
0.0
 11
125.75
 21
96.9
 31
0.0
1001
ACAD
1000
TCW40_DEV_WIDTH
1002
{
1040
0.039370078593
1002
}
1001
TCAD
1000
TCW_CUSTOM_DATA
1002
{
1000
#$AUX@_TCDO_SOURCE_COLOR
1070
           3
1071
        0
1000
#$AUX@_TCDO_PARENT_ID
1070
           3
1071
      219
1000
#$AUX@_TCDO_GTYPE
1070
           3
1071
        1
1000
#$AUX@_TCDO_VISIBILITY
1070
           3
1071
        0
1002
}
  0
LINE
  5
A6
100
AcDbEntity
  8
図
370
         100
  6
Continuous
 62
           7
100
AcDbLine
 10
130.45
 20
94.7
 30
0.0
 11
130.45
 21
94.2
 31
0.0
1001
ACAD
1000
TCW40_DEV_WIDTH
1002
{
1040
0.039370078593
1002
}
1001
TCAD
1000
TCW_CUSTOM_DATA
1002
{
1000
#$AUX@_TCDO_SOURCE_COLOR
1070
           3
1071
        0
1000
#$AUX@_TCDO_PARENT_ID
1070
           3
1071
      219
1000
#$AUX@_TCDO_GTYPE
1070
           3
1071
        0
1000
#$AUX@_TCDO_VISIBILITY
1070
           3
1071
        0
1002
}
  0
LINE
  5
A7
100
AcDbEntity
  8
図
370
         100
  6
Continuous
 62
           7
100
AcDbLine
 10
125.75
 20
94.2
 30
0.0
 11
130.45
 21
94.2
 31
0.0
1001
ACAD
1000
TCW40_DEV_WIDTH
1002
{
1040
0.039370078593
1002
}
1001
TCAD
1000
TCW_CUSTOM_DATA
1002
{
1000
#$AUX@_TCDO_SOURCE_COLOR
1070
           3
1071
        0
1000
#$AUX@_TCDO_PARENT_ID
1070
           3
1071
      219
1000
#$AUX@_TCDO_GTYPE
1070
           3
1071
        0
1000
#$AUX@_TCDO_VISIBILITY
1070
           3
1071
        0
1002
}
  0
LINE
  5
A8
100
AcDbEntity
  8
図
370
         100
  6
Continuous
 62
           7
100
AcDbLine
 10
131.45
 20
94.7
 30
0.0
 11
130.45
 21
94.7
 31
0.0
1001
ACAD
1000
TCW40_DEV_WIDTH
1002
{
1040
0.039370078593
1002
}
1001
TCAD
1000
TCW_CUSTOM_DATA
1002
{
1000
#$AUX@_TCDO_SOURCE_COLOR
1070
           3
1071
        0
1000
#$AUX@_TCDO_PARENT_ID
1070
           3
1071
      219
1000
#$AUX@_TCDO_GTYPE
1070
           3
1071
        1
1000
#$AUX@_TCDO_VISIBILITY
1070
           3
1071
        0
1002
}
  0
LINE
  5
A9
100
AcDbEntity
  8
図
370
         100
  6
Continuous
 62
           7
100
AcDbLine
 10
125.75
 20
94.7
 30
0.0
 11
130.45
 21
94.7
 31
0.0
1001
ACAD
1000
TCW40_DEV_WIDTH
1002
{
1040
0.039370078593
1002
}
1001
TCAD
1000
TCW_CUSTOM_DATA
1002
{
1000
#$AUX@_TCDO_SOURCE_COLOR
1070
           3
1071
        0
1000
#$AUX@_TCDO_PARENT_ID
1070
           3
1071
      219
1000
#$AUX@_TCDO_GTYPE
1070
           3
1071
        1
1000
#$AUX@_TCDO_VISIBILITY
1070
           3
1071
        0
1002
}
  0
LINE
  5
AA
100
AcDbEntity
  8
図
370
         100
  6
Continuous
 62
           7
100
AcDbLine
 10
125.75
 20
94.7
 30
0.0
 11
112.55
 21
94.7
 31
0.0
1001
ACAD
1000
TCW40_DEV_WIDTH
1002
{
1040
0.039370078593
1002
}
1001
TCAD
1000
TCW_CUSTOM_DATA
1002
{
1000
#$AUX@_TCDO_SOURCE_COLOR
1070
           3
1071
        0
1000
#$AUX@_TCDO_PARENT_ID
1070
           3
1071
      219
1000
#$AUX@_TCDO_GTYPE
1070
           3
1071
        1
1000
#$AUX@_TCDO_VISIBILITY
1070
           3
1071
        0
1002
}
  0
LINE
  5
AB
100
AcDbEntity
  8
図
370
         100
  6
Continuous
 62
           7
100
AcDbLine
 10
107.85
 20
94.7
 30
0.0
 11
112.55
 21
94.7
 31
0.0
1001
ACAD
1000
TCW40_DEV_WIDTH
1002
{
1040
0.039370078593
1002
}
1001
TCAD
1000
TCW_CUSTOM_DATA
1002
{
1000
#$AUX@_TCDO_SOURCE_COLOR
1070
           3
1071
        0
1000
#$AUX@_TCDO_PARENT_ID
1070
           3
1071
      219
1000
#$AUX@_TCDO_GTYPE
1070
           3
1071
        1
1000
#$AUX@_TCDO_VISIBILITY
1070
           3
1071
        0
1002
}
  0
LINE
  5
AC
100
AcDbEntity
  8
図
370
         100
  6
Continuous
 62
           7
100
AcDbLine
 10
107.85
 20
94.7
 30
0.0
 11
106.85
 21
94.7
 31
0.0
1001
ACAD
1000
TCW40_DEV_WIDTH
1002
{
1040
0.039370078593
1002
}
1001
TCAD
1000
TCW_CUSTOM_DATA
1002
{
1000
#$AUX@_TCDO_SOURCE_COLOR
1070
           3
1071
        0
1000
#$AUX@_TCDO_PARENT_ID
1070
           3
1071
      219
1000
#$AUX@_TCDO_GTYPE
1070
           3
1071
        1
1000
#$AUX@_TCDO_VISIBILITY
1070
           3
1071
        0
1002
}
  0
LINE
  5
AD
100
AcDbEntity
  8
図
370
         100
  6
Continuous
 62
           7
100
AcDbLine
 10
131.95
 20
58.0
 30
0.0
 11
131.95
 21
62.4
 31
0.0
1001
ACAD
1000
TCW40_DEV_WIDTH
1002
{
1040
0.039370078593
1002
}
1001
TCAD
1000
TCW_CUSTOM_DATA
1002
{
1000
#$AUX@_TCDO_SOURCE_COLOR
1070
           3
1071
        0
1000
#$AUX@_TCDO_PARENT_ID
1070
           3
1071
      218
1000
#$AUX@_TCDO_GTYPE
1070
           3
1071
        1
1000
#$AUX@_TCDO_VISIBILITY
1070
           3
1071
        0
1002
}
  0
LINE
  5
AE
100
AcDbEntity
  8
図
370
         100
  6
Continuous
 62
           7
100
AcDbLine
 10
130.45
 20
62.4
 30
0.0
 11
130.45
 21
58.0
 31
0.0
1001
ACAD
1000
TCW40_DEV_WIDTH
1002
{
1040
0.039370078593
1002
}
1001
TCAD
1000
TCW_CUSTOM_DATA
1002
{
1000
#$AUX@_TCDO_SOURCE_COLOR
1070
           3
1071
        0
1000
#$AUX@_TCDO_PARENT_ID
1070
           3
1071
      218
1000
#$AUX@_TCDO_GTYPE
1070
           3
1071
        0
1000
#$AUX@_TCDO_VISIBILITY
1070
           3
1071
        0
1002
}
  0
LINE
  5
AF
100
AcDbEntity
  8
図
370
         100
  6
Continuous
 62
           7
100
AcDbLine
 10
130.45
 20
58.0
 30
0.0
 11
107.85
 21
58.0
 31
0.0
1001
ACAD
1000
TCW40_DEV_WIDTH
1002
{
1040
0.039370078593
1002
}
1001
TCAD
1000
TCW_CUSTOM_DATA
1002
{
1000
#$AUX@_TCDO_SOURCE_COLOR
1070
           3
1071
        0
1000
#$AUX@_TCDO_PARENT_ID
1070
           3
1071
      218
1000
#$AUX@_TCDO_GTYPE
1070
           3
1071
        0
1000
#$AUX@_TCDO_VISIBILITY
1070
           3
1071
        0
1002
}
  0
LINE
  5
B0
100
AcDbEntity
  8
図
370
         100
  6
Continuous
 62
           7
100
AcDbLine
 10
107.85
 20
56.5
 30
0.0
 11
130.45
 21
56.5
 31
0.0
1001
ACAD
1000
TCW40_DEV_WIDTH
1002
{
1040
0.039370078593
1002
}
1001
TCAD
1000
TCW_CUSTOM_DATA
1002
{
1000
#$AUX@_TCDO_SOURCE_COLOR
1070
           3
1071
        0
1000
#$AUX@_TCDO_PARENT_ID
1070
           3
1071
      218
1000
#$AUX@_TCDO_GTYPE
1070
           3
1071
        1
1000
#$AUX@_TCDO_VISIBILITY
1070
           3
1071
        0
1002
}
  0
ARC
  5
B1
100
AcDbEntity
  8
図
370
         100
  6
Continuous
 62
           7
100
AcDbCircle
 10
130.45
 20
58.0
 30
0.0
 40
1.5
100
AcDbArc
 50
-90.0
 51
0.0
1001
ACAD
1000
TCW40_DEV_WIDTH
1002
{
1040
0.039370078593
1002
}
1001
TCAD
1000
TCW_CUSTOM_DATA
1002
{
1000
#$AUX@_TCDO_SOURCE_COLOR
1070
           3
1071
        0
1000
#$AUX@_TCDO_PARENT_ID
1070
           3
1071
      218
1000
#$AUX@_TCDO_GTYPE
1070
           3
1071
        1
1000
#$AUX@_TCDO_VISIBILITY
1070
           3
1071
        0
1002
}
  0
LINE
  5
B2
100
AcDbEntity
  8
図
370
         100
  6
Continuous
 62
           7
100
AcDbLine
 10
130.45
 20
56.5
 30
0.0
 11
130.45
 21
58.0
 31
0.0
1001
ACAD
1000
TCW40_DEV_WIDTH
1002
{
1040
0.039370078593
1002
}
1001
TCAD
1000
TCW_CUSTOM_DATA
1002
{
1000
#$AUX@_TCDO_SOURCE_COLOR
1070
           3
1071
        0
1000
#$AUX@_TCDO_PARENT_ID
1070
           3
1071
      218
1000
#$AUX@_TCDO_GTYPE
1070
           3
1071
        0
1000
#$AUX@_TCDO_VISIBILITY
1070
           3
1071
        0
1002
}
  0
LINE
  5
B3
100
AcDbEntity
  8
図
370
         100
  6
Continuous
 62
           7
100
AcDbLine
 10
130.45
 20
58.0
 30
0.0
 11
131.95
 21
58.0
 31
0.0
1001
ACAD
1000
TCW40_DEV_WIDTH
1002
{
1040
0.039370078593
1002
}
1001
TCAD
1000
TCW_CUSTOM_DATA
1002
{
1000
#$AUX@_TCDO_SOURCE_COLOR
1070
           3
1071
        0
1000
#$AUX@_TCDO_PARENT_ID
1070
           3
1071
      218
1000
#$AUX@_TCDO_GTYPE
1070
           3
1071
        0
1000
#$AUX@_TCDO_VISIBILITY
1070
           3
1071
        0
1002
}
  0
LINE
  5
B4
100
AcDbEntity
  8
図
370
         100
  6
Continuous
 62
           7
100
AcDbLine
 10
107.85
 20
58.0
 30
0.0
 11
107.85
 21
56.5
 31
0.0
1001
ACAD
1000
TCW40_DEV_WIDTH
1002
{
1040
0.039370078593
1002
}
1001
TCAD
1000
TCW_CUSTOM_DATA
1002
{
1000
#$AUX@_TCDO_SOURCE_COLOR
1070
           3
1071
        0
1000
#$AUX@_TCDO_PARENT_ID
1070
           3
1071
      218
1000
#$AUX@_TCDO_GTYPE
1070
           3
1071
        0
1000
#$AUX@_TCDO_VISIBILITY
1070
           3
1071
        0
1002
}
  0
ARC
  5
B5
100
AcDbEntity
  8
図
370
         100
  6
Continuous
 62
           7
100
AcDbCircle
 10
107.85
 20
58.0
 30
0.0
 40
1.5
100
AcDbArc
 50
180.0
 51
270.0
1001
ACAD
1000
TCW40_DEV_WIDTH
1002
{
1040
0.039370078593
1002
}
1001
TCAD
1000
TCW_CUSTOM_DATA
1002
{
1000
#$AUX@_TCDO_SOURCE_COLOR
1070
           3
1071
        0
1000
#$AUX@_TCDO_PARENT_ID
1070
           3
1071
      218
1000
#$AUX@_TCDO_GTYPE
1070
           3
1071
        1
1000
#$AUX@_TCDO_VISIBILITY
1070
           3
1071
        0
1002
}
  0
LINE
  5
B6
100
AcDbEntity
  8
図
370
         100
  6
Continuous
 62
           7
100
AcDbLine
 10
107.85
 20
58.0
 30
0.0
 11
107.85
 21
62.4
 31
0.0
1001
ACAD
1000
TCW40_DEV_WIDTH
1002
{
1040
0.039370078593
1002
}
1001
TCAD
1000
TCW_CUSTOM_DATA
1002
{
1000
#$AUX@_TCDO_SOURCE_COLOR
1070
           3
1071
        0
1000
#$AUX@_TCDO_PARENT_ID
1070
           3
1071
      218
1000
#$AUX@_TCDO_GTYPE
1070
           3
1071
        0
1000
#$AUX@_TCDO_VISIBILITY
1070
           3
1071
        0
1002
}
  0
LINE
  5
B7
100
AcDbEntity
  8
図
370
         100
  6
Continuous
 62
           7
100
AcDbLine
 10
106.35
 20
58.0
 30
0.0
 11
107.85
 21
58.0
 31
0.0
1001
ACAD
1000
TCW40_DEV_WIDTH
1002
{
1040
0.039370078593
1002
}
1001
TCAD
1000
TCW_CUSTOM_DATA
1002
{
1000
#$AUX@_TCDO_SOURCE_COLOR
1070
           3
1071
        0
1000
#$AUX@_TCDO_PARENT_ID
1070
           3
1071
      218
1000
#$AUX@_TCDO_GTYPE
1070
           3
1071
        0
1000
#$AUX@_TCDO_VISIBILITY
1070
           3
1071
        0
1002
}
  0
LINE
  5
B8
100
AcDbEntity
  8
図
370
         100
  6
Continuous
 62
           7
100
AcDbLine
 10
106.35
 20
62.6
 30
0.0
 11
106.35
 21
62.4
 31
0.0
1001
ACAD
1000
TCW40_DEV_WIDTH
1002
{
1040
0.039370078593
1002
}
1001
TCAD
1000
TCW_CUSTOM_DATA
1002
{
1000
#$AUX@_TCDO_SOURCE_COLOR
1070
           3
1071
        0
1000
#$AUX@_TCDO_PARENT_ID
1070
           3
1071
      218
1000
#$AUX@_TCDO_GTYPE
1070
           3
1071
        1
1000
#$AUX@_TCDO_VISIBILITY
1070
           3
1071
        0
1002
}
  0
LINE
  5
B9
100
AcDbEntity
  8
図
370
         100
  6
Continuous
 62
           7
100
AcDbLine
 10
105.65
 20
59.3
 30
0.0
 11
106.35
 21
59.3
 31
0.0
1001
ACAD
1000
TCW40_DEV_WIDTH
1002
{
1040
0.039370078593
1002
}
1001
TCAD
1000
TCW_CUSTOM_DATA
1002
{
1000
#$AUX@_TCDO_SOURCE_COLOR
1070
           3
1071
        0
1000
#$AUX@_TCDO_PARENT_ID
1070
           3
1071
      218
1000
#$AUX@_TCDO_GTYPE
1070
           3
1071
        1
1000
#$AUX@_TCDO_VISIBILITY
1070
           3
1071
        0
1002
}
  0
LINE
  5
BA
100
AcDbEntity
  8
図
370
         100
  6
Continuous
 62
           7
100
AcDbLine
 10
105.15
 20
65.7
 30
0.0
 11
106.35
 21
65.7
 31
0.0
1001
ACAD
1000
TCW40_DEV_WIDTH
1002
{
1040
0.039370078593
1002
}
1001
TCAD
1000
TCW_CUSTOM_DATA
1002
{
1000
#$AUX@_TCDO_SOURCE_COLOR
1070
           3
1071
        0
1000
#$AUX@_TCDO_PARENT_ID
1070
           3
1071
      218
1000
#$AUX@_TCDO_GTYPE
1070
           3
1071
        0
1000
#$AUX@_TCDO_VISIBILITY
1070
           3
1071
        0
1002
}
  0
LINE
  5
BB
100
AcDbEntity
  8
図
370
         100
  6
Continuous
 62
           7
100
AcDbLine
 10
106.35
 20
66.7
 30
0.0
 11
105.15
 21
66.7
 31
0.0
1001
ACAD
1000
TCW40_DEV_WIDTH
1002
{
1040
0.039370078593
1002
}
1001
TCAD
1000
TCW_CUSTOM_DATA
1002
{
1000
#$AUX@_TCDO_SOURCE_COLOR
1070
           3
1071
        0
1000
#$AUX@_TCDO_PARENT_ID
1070
           3
1071
      218
1000
#$AUX@_TCDO_GTYPE
1070
           3
1071
        1
1000
#$AUX@_TCDO_VISIBILITY
1070
           3
1071
        0
1002
}
  0
LINE
  5
BC
100
AcDbEntity
  8
図
370
         100
  6
Continuous
 62
           7
100
AcDbLine
 10
105.15
 20
65.7
 30
0.0
 11
105.15
 21
66.7
 31
0.0
1001
ACAD
1000
TCW40_DEV_WIDTH
1002
{
1040
0.039370078593
1002
}
1001
TCAD
1000
TCW_CUSTOM_DATA
1002
{
1000
#$AUX@_TCDO_SOURCE_COLOR
1070
           3
1071
        0
1000
#$AUX@_TCDO_PARENT_ID
1070
           3
1071
      218
1000
#$AUX@_TCDO_GTYPE
1070
           3
1071
        1
1000
#$AUX@_TCDO_VISIBILITY
1070
           3
1071
        0
1002
}
  0
LINE
  5
BD
100
AcDbEntity
  8
図
370
         100
  6
Continuous
 62
           7
100
AcDbLine
 10
105.15
 20
59.8
 30
0.0
 11
105.15
 21
65.7
 31
0.0
1001
ACAD
1000
TCW40_DEV_WIDTH
1002
{
1040
0.039370078593
1002
}
1001
TCAD
1000
TCW_CUSTOM_DATA
1002
{
1000
#$AUX@_TCDO_SOURCE_COLOR
1070
           3
1071
        0
1000
#$AUX@_TCDO_PARENT_ID
1070
           3
1071
      218
1000
#$AUX@_TCDO_GTYPE
1070
           3
1071
        1
1000
#$AUX@_TCDO_VISIBILITY
1070
           3
1071
        0
1002
}
  0
ARC
  5
BE
100
AcDbEntity
  8
図
370
         100
  6
Continuous
 62
           7
100
AcDbCircle
 10
105.65
 20
59.8
 30
0.0
 40
0.5
100
AcDbArc
 50
180.0
 51
270.0
1001
ACAD
1000
TCW40_DEV_WIDTH
1002
{
1040
0.039370078593
1002
}
1001
TCAD
1000
TCW_CUSTOM_DATA
1002
{
1000
#$AUX@_TCDO_SOURCE_COLOR
1070
           3
1071
        0
1000
#$AUX@_TCDO_PARENT_ID
1070
           3
1071
      218
1000
#$AUX@_TCDO_GTYPE
1070
           3
1071
        1
1000
#$AUX@_TCDO_VISIBILITY
1070
           3
1071
        0
1002
}
  0
LINE
  5
BF
100
AcDbEntity
  8
図
370
         100
  6
Continuous
 62
           7
100
AcDbLine
 10
132.65
 20
59.3
 30
0.0
 11
131.95
 21
59.3
 31
0.0
1001
ACAD
1000
TCW40_DEV_WIDTH
1002
{
1040
0.039370078593
1002
}
1001
TCAD
1000
TCW_CUSTOM_DATA
1002
{
1000
#$AUX@_TCDO_SOURCE_COLOR
1070
           3
1071
        0
1000
#$AUX@_TCDO_PARENT_ID
1070
           3
1071
      218
1000
#$AUX@_TCDO_GTYPE
1070
           3
1071
        1
1000
#$AUX@_TCDO_VISIBILITY
1070
           3
1071
        0
1002
}
  0
LINE
  5
C0
100
AcDbEntity
  8
図
370
         100
  6
Continuous
 62
           7
100
AcDbLine
 10
131.95
 20
62.6
 30
0.0
 11
131.95
 21
62.4
 31
0.0
1001
ACAD
1000
TCW40_DEV_WIDTH
1002
{
1040
0.039370078593
1002
}
1001
TCAD
1000
TCW_CUSTOM_DATA
1002
{
1000
#$AUX@_TCDO_SOURCE_COLOR
1070
           3
1071
        0
1000
#$AUX@_TCDO_PARENT_ID
1070
           3
1071
      218
1000
#$AUX@_TCDO_GTYPE
1070
           3
1071
        1
1000
#$AUX@_TCDO_VISIBILITY
1070
           3
1071
        0
1002
}
  0
LINE
  5
C1
100
AcDbEntity
  8
図
370
         100
  6
Continuous
 62
           7
100
AcDbLine
 10
131.95
 20
66.7
 30
0.0
 11
133.15
 21
66.7
 31
0.0
1001
ACAD
1000
TCW40_DEV_WIDTH
1002
{
1040
0.039370078593
1002
}
1001
TCAD
1000
TCW_CUSTOM_DATA
1002
{
1000
#$AUX@_TCDO_SOURCE_COLOR
1070
           3
1071
        0
1000
#$AUX@_TCDO_PARENT_ID
1070
           3
1071
      218
1000
#$AUX@_TCDO_GTYPE
1070
           3
1071
        1
1000
#$AUX@_TCDO_VISIBILITY
1070
           3
1071
        0
1002
}
  0
LINE
  5
C2
100
AcDbEntity
  8
図
370
         100
  6
Continuous
 62
           7
100
AcDbLine
 10
133.15
 20
65.7
 30
0.0
 11
131.95
 21
65.7
 31
0.0
1001
ACAD
1000
TCW40_DEV_WIDTH
1002
{
1040
0.039370078593
1002
}
1001
TCAD
1000
TCW_CUSTOM_DATA
1002
{
1000
#$AUX@_TCDO_SOURCE_COLOR
1070
           3
1071
        0
1000
#$AUX@_TCDO_PARENT_ID
1070
           3
1071
      218
1000
#$AUX@_TCDO_GTYPE
1070
           3
1071
        0
1000
#$AUX@_TCDO_VISIBILITY
1070
           3
1071
        0
1002
}
  0
LINE
  5
C3
100
AcDbEntity
  8
図
370
         100
  6
Continuous
 62
           7
100
AcDbLine
 10
133.15
 20
59.8
 30
0.0
 11
133.15
 21
65.7
 31
0.0
1001
ACAD
1000
TCW40_DEV_WIDTH
1002
{
1040
0.039370078593
1002
}
1001
TCAD
1000
TCW_CUSTOM_DATA
1002
{
1000
#$AUX@_TCDO_SOURCE_COLOR
1070
           3
1071
        0
1000
#$AUX@_TCDO_PARENT_ID
1070
           3
1071
      218
1000
#$AUX@_TCDO_GTYPE
1070
           3
1071
        1
1000
#$AUX@_TCDO_VISIBILITY
1070
           3
1071
        0
1002
}
  0
LINE
  5
C4
100
AcDbEntity
  8
図
370
         100
  6
Continuous
 62
           7
100
AcDbLine
 10
133.15
 20
65.7
 30
0.0
 11
133.15
 21
66.7
 31
0.0
1001
ACAD
1000
TCW40_DEV_WIDTH
1002
{
1040
0.039370078593
1002
}
1001
TCAD
1000
TCW_CUSTOM_DATA
1002
{
1000
#$AUX@_TCDO_SOURCE_COLOR
1070
           3
1071
        0
1000
#$AUX@_TCDO_PARENT_ID
1070
           3
1071
      218
1000
#$AUX@_TCDO_GTYPE
1070
           3
1071
        1
1000
#$AUX@_TCDO_VISIBILITY
1070
           3
1071
        0
1002
}
  0
ARC
  5
C5
100
AcDbEntity
  8
図
370
         100
  6
Continuous
 62
           7
100
AcDbCircle
 10
132.65
 20
59.8
 30
0.0
 40
0.5
100
AcDbArc
 50
-90.0
 51
0.0
1001
ACAD
1000
TCW40_DEV_WIDTH
1002
{
1040
0.039370078593
1002
}
1001
TCAD
1000
TCW_CUSTOM_DATA
1002
{
1000
#$AUX@_TCDO_SOURCE_COLOR
1070
           3
1071
        0
1000
#$AUX@_TCDO_PARENT_ID
1070
           3
1071
      218
1000
#$AUX@_TCDO_GTYPE
1070
           3
1071
        1
1000
#$AUX@_TCDO_VISIBILITY
1070
           3
1071
        0
1002
}
  0
LINE
  5
C6
100
AcDbEntity
  8
図
370
         100
  6
Continuous
 62
           7
100
AcDbLine
 10
106.35
 20
62.4
 30
0.0
 11
106.35
 21
58.0
 31
0.0
1001
ACAD
1000
TCW40_DEV_WIDTH
1002
{
1040
0.039370078593
1002
}
1001
TCAD
1000
TCW_CUSTOM_DATA
1002
{
1000
#$AUX@_TCDO_SOURCE_COLOR
1070
           3
1071
        0
1000
#$AUX@_TCDO_PARENT_ID
1070
           3
1071
      218
1000
#$AUX@_TCDO_GTYPE
1070
           3
1071
        1
1000
#$AUX@_TCDO_VISIBILITY
1070
           3
1071
        0
1002
}
  0
LINE
  5
C7
100
AcDbEntity
  8
図
370
         100
  6
Continuous
 62
           7
100
AcDbLine
 10
107.85
 20
62.4
 30
0.0
 11
115.95
 21
62.4
 31
0.0
1001
ACAD
1000
TCW40_DEV_WIDTH
1002
{
1040
0.039370078593
1002
}
1001
TCAD
1000
TCW_CUSTOM_DATA
1002
{
1000
#$AUX@_TCDO_SOURCE_COLOR
1070
           3
1071
        0
1000
#$AUX@_TCDO_PARENT_ID
1070
           3
1071
      218
1000
#$AUX@_TCDO_GTYPE
1070
           3
1071
        1
1000
#$AUX@_TCDO_VISIBILITY
1070
           3
1071
        0
1002
}
  0
LINE
  5
C8
100
AcDbEntity
  8
図
370
         100
  6
Continuous
 62
           7
100
AcDbLine
 10
107.85
 20
62.4
 30
0.0
 11
106.35
 21
62.4
 31
0.0
1001
ACAD
1000
TCW40_DEV_WIDTH
1002
{
1040
0.039370078593
1002
}
1001
TCAD
1000
TCW_CUSTOM_DATA
1002
{
1000
#$AUX@_TCDO_SOURCE_COLOR
1070
           3
1071
        0
1000
#$AUX@_TCDO_PARENT_ID
1070
           3
1071
      218
1000
#$AUX@_TCDO_GTYPE
1070
           3
1071
        1
1000
#$AUX@_TCDO_VISIBILITY
1070
           3
1071
        0
1002
}
  0
LINE
  5
C9
100
AcDbEntity
  8
図
370
         100
  6
Continuous
 62
           7
100
AcDbLine
 10
131.95
 20
62.4
 30
0.0
 11
130.45
 21
62.4
 31
0.0
1001
ACAD
1000
TCW40_DEV_WIDTH
1002
{
1040
0.039370078593
1002
}
1001
TCAD
1000
TCW_CUSTOM_DATA
1002
{
1000
#$AUX@_TCDO_SOURCE_COLOR
1070
           3
1071
        0
1000
#$AUX@_TCDO_PARENT_ID
1070
           3
1071
      218
1000
#$AUX@_TCDO_GTYPE
1070
           3
1071
        1
1000
#$AUX@_TCDO_VISIBILITY
1070
           3
1071
        0
1002
}
  0
LINE
  5
CA
100
AcDbEntity
  8
図
370
         100
  6
Continuous
 62
           7
100
AcDbLine
 10
122.35
 20
62.4
 30
0.0
 11
130.45
 21
62.4
 31
0.0
1001
ACAD
1000
TCW40_DEV_WIDTH
1002
{
1040
0.039370078593
1002
}
1001
TCAD
1000
TCW_CUSTOM_DATA
1002
{
1000
#$AUX@_TCDO_SOURCE_COLOR
1070
           3
1071
        0
1000
#$AUX@_TCDO_PARENT_ID
1070
           3
1071
      218
1000
#$AUX@_TCDO_GTYPE
1070
           3
1071
        1
1000
#$AUX@_TCDO_VISIBILITY
1070
           3
1071
        0
1002
}
  0
LINE
  5
CB
100
AcDbEntity
  8
図
370
         100
  6
Continuous
 62
           7
100
AcDbLine
 10
115.95
 20
60.9
 30
0.0
 11
115.95
 21
62.4
 31
0.0
1001
ACAD
1000
TCW40_DEV_WIDTH
1002
{
1040
0.039370078593
1002
}
1001
TCAD
1000
TCW_CUSTOM_DATA
1002
{
1000
#$AUX@_TCDO_SOURCE_COLOR
1070
           3
1071
        0
1000
#$AUX@_TCDO_PARENT_ID
1070
           3
1071
      218
1000
#$AUX@_TCDO_GTYPE
1070
           3
1071
        1
1000
#$AUX@_TCDO_VISIBILITY
1070
           3
1071
        0
1002
}
  0
LINE
  5
CC
100
AcDbEntity
  8
図
370
         100
  6
Continuous
 62
           7
100
AcDbLine
 10
122.35
 20
60.9
 30
0.0
 11
115.95
 21
60.9
 31
0.0
1001
ACAD
1000
TCW40_DEV_WIDTH
1002
{
1040
0.039370078593
1002
}
1001
TCAD
1000
TCW_CUSTOM_DATA
1002
{
1000
#$AUX@_TCDO_SOURCE_COLOR
1070
           3
1071
        0
1000
#$AUX@_TCDO_PARENT_ID
1070
           3
1071
      218
1000
#$AUX@_TCDO_GTYPE
1070
           3
1071
        1
1000
#$AUX@_TCDO_VISIBILITY
1070
           3
1071
        0
1002
}
  0
LINE
  5
CD
100
AcDbEntity
  8
図
370
         100
  6
Continuous
 62
           7
100
AcDbLine
 10
122.35
 20
62.4
 30
0.0
 11
122.35
 21
60.9
 31
0.0
1001
ACAD
1000
TCW40_DEV_WIDTH
1002
{
1040
0.039370078593
1002
}
1001
TCAD
1000
TCW_CUSTOM_DATA
1002
{
1000
#$AUX@_TCDO_SOURCE_COLOR
1070
           3
1071
        0
1000
#$AUX@_TCDO_PARENT_ID
1070
           3
1071
      218
1000
#$AUX@_TCDO_GTYPE
1070
           3
1071
        1
1000
#$AUX@_TCDO_VISIBILITY
1070
           3
1071
        0
1002
}
  0
LINE
  5
CE
100
AcDbEntity
  8
図
370
         100
  6
Continuous
 62
           7
100
AcDbLine
 10
115.95
 20
62.4
 30
0.0
 11
116.15
 21
62.4
 31
0.0
1001
ACAD
1000
TCW40_DEV_WIDTH
1002
{
1040
0.039370078593
1002
}
1001
TCAD
1000
TCW_CUSTOM_DATA
1002
{
1000
#$AUX@_TCDO_SOURCE_COLOR
1070
           3
1071
        0
1000
#$AUX@_TCDO_PARENT_ID
1070
           3
1071
      218
1000
#$AUX@_TCDO_GTYPE
1070
           3
1071
        1
1000
#$AUX@_TCDO_VISIBILITY
1070
           3
1071
        0
1002
}
  0
LINE
  5
CF
100
AcDbEntity
  8
図
370
         100
  6
Continuous
 62
           7
100
AcDbLine
 10
122.15
 20
62.4
 30
0.0
 11
122.35
 21
62.4
 31
0.0
1001
ACAD
1000
TCW40_DEV_WIDTH
1002
{
1040
0.039370078593
1002
}
1001
TCAD
1000
TCW_CUSTOM_DATA
1002
{
1000
#$AUX@_TCDO_SOURCE_COLOR
1070
           3
1071
        0
1000
#$AUX@_TCDO_PARENT_ID
1070
           3
1071
      218
1000
#$AUX@_TCDO_GTYPE
1070
           3
1071
        1
1000
#$AUX@_TCDO_VISIBILITY
1070
           3
1071
        0
1002
}
  0
LINE
  5
D0
100
AcDbEntity
  8
図
370
         100
  6
Continuous
 62
           7
100
AcDbLine
 10
177.85
 20
79.0
 30
0.0
 11
177.85
 21
78.0
 31
0.0
1001
ACAD
1000
TCW40_DEV_WIDTH
1002
{
1040
0.039370078593
1002
}
1001
TCAD
1000
TCW_CUSTOM_DATA
1002
{
1000
#$AUX@_TCDO_SOURCE_COLOR
1070
           3
1071
        0
1000
#$AUX@_TCDO_PARENT_ID
1070
           3
1071
    10283
1000
#$AUX@_TCDO_GTYPE
1070
           3
1071
        0
1000
#$AUX@_TCDO_VISIBILITY
1070
           3
1071
        0
1002
}
  0
LINE
  5
D1
100
AcDbEntity
  8
図
370
         100
  6
Continuous
 62
           7
100
AcDbLine
 10
166.15
 20
62.6
 30
0.0
 11
166.15
 21
62.4
 31
0.0
1001
ACAD
1000
TCW40_DEV_WIDTH
1002
{
1040
0.039370078593
1002
}
1001
TCAD
1000
TCW_CUSTOM_DATA
1002
{
1000
#$AUX@_TCDO_SOURCE_COLOR
1070
           3
1071
        0
1000
#$AUX@_TCDO_PARENT_ID
1070
           3
1071
    10283
1000
#$AUX@_TCDO_GTYPE
1070
           3
1071
        1
1000
#$AUX@_TCDO_VISIBILITY
1070
           3
1071
        0
1002
}
  0
LINE
  5
D2
100
AcDbEntity
  8
図
370
         100
  6
Continuous
 62
           7
100
AcDbLine
 10
178.85
 20
64.5
 30
0.0
 11
178.85
 21
63.0
 31
0.0
1001
ACAD
1000
TCW40_DEV_WIDTH
1002
{
1040
0.039370078593
1002
}
1001
TCAD
1000
TCW_CUSTOM_DATA
1002
{
1000
#$AUX@_TCDO_SOURCE_COLOR
1070
           3
1071
        0
1000
#$AUX@_TCDO_PARENT_ID
1070
           3
1071
    10283
1000
#$AUX@_TCDO_GTYPE
1070
           3
1071
        1
1000
#$AUX@_TCDO_VISIBILITY
1070
           3
1071
        0
1002
}
  0
LINE
  5
D3
100
AcDbEntity
  8
図
370
         100
  6
Continuous
 62
           7
100
AcDbLine
 10
184.45
 20
64.5
 30
0.0
 11
178.85
 21
64.5
 31
0.0
1001
ACAD
1000
TCW40_DEV_WIDTH
1002
{
1040
0.039370078593
1002
}
1001
TCAD
1000
TCW_CUSTOM_DATA
1002
{
1000
#$AUX@_TCDO_SOURCE_COLOR
1070
           3
1071
        0
1000
#$AUX@_TCDO_PARENT_ID
1070
           3
1071
    10283
1000
#$AUX@_TCDO_GTYPE
1070
           3
1071
        1
1000
#$AUX@_TCDO_VISIBILITY
1070
           3
1071
        0
1002
}
  0
LINE
  5
D4
100
AcDbEntity
  8
図
370
         100
  6
Continuous
 62
           7
100
AcDbLine
 10
184.45
 20
63.0
 30
0.0
 11
184.45
 21
64.5
 31
0.0
1001
ACAD
1000
TCW40_DEV_WIDTH
1002
{
1040
0.039370078593
1002
}
1001
TCAD
1000
TCW_CUSTOM_DATA
1002
{
1000
#$AUX@_TCDO_SOURCE_COLOR
1070
           3
1071
        0
1000
#$AUX@_TCDO_PARENT_ID
1070
           3
1071
    10283
1000
#$AUX@_TCDO_GTYPE
1070
           3
1071
        1
1000
#$AUX@_TCDO_VISIBILITY
1070
           3
1071
        0
1002
}
  0
LINE
  5
D5
100
AcDbEntity
  8
図
370
         100
  6
Continuous
 62
           7
100
AcDbLine
 10
178.85
 20
63.0
 30
0.0
 11
184.45
 21
63.0
 31
0.0
1001
ACAD
1000
TCW40_DEV_WIDTH
1002
{
1040
0.039370078593
1002
}
1001
TCAD
1000
TCW_CUSTOM_DATA
1002
{
1000
#$AUX@_TCDO_SOURCE_COLOR
1070
           3
1071
        0
1000
#$AUX@_TCDO_PARENT_ID
1070
           3
1071
    10283
1000
#$AUX@_TCDO_GTYPE
1070
           3
1071
        0
1000
#$AUX@_TCDO_VISIBILITY
1070
           3
1071
        0
1002
}
  0
LINE
  5
D6
100
AcDbEntity
  8
図
370
         100
  6
Continuous
 62
           7
100
AcDbLine
 10
184.45
 20
62.5
 30
0.0
 11
184.45
 21
63.0
 31
0.0
1001
ACAD
1000
TCW40_DEV_WIDTH
1002
{
1040
0.039370078593
1002
}
1001
TCAD
1000
TCW_CUSTOM_DATA
1002
{
1000
#$AUX@_TCDO_SOURCE_COLOR
1070
           3
1071
        0
1000
#$AUX@_TCDO_PARENT_ID
1070
           3
1071
    10283
1000
#$AUX@_TCDO_GTYPE
1070
           3
1071
        1
1000
#$AUX@_TCDO_VISIBILITY
1070
           3
1071
        0
1002
}
  0
LINE
  5
D7
100
AcDbEntity
  8
図
370
         100
  6
Continuous
 62
           7
100
AcDbLine
 10
184.45
 20
62.5
 30
0.0
 11
178.85
 21
62.5
 31
0.0
1001
ACAD
1000
TCW40_DEV_WIDTH
1002
{
1040
0.039370078593
1002
}
1001
TCAD
1000
TCW_CUSTOM_DATA
1002
{
1000
#$AUX@_TCDO_SOURCE_COLOR
1070
           3
1071
        0
1000
#$AUX@_TCDO_PARENT_ID
1070
           3
1071
    10283
1000
#$AUX@_TCDO_GTYPE
1070
           3
1071
        1
1000
#$AUX@_TCDO_VISIBILITY
1070
           3
1071
        0
1002
}
  0
LINE
  5
D8
100
AcDbEntity
  8
図
370
         100
  6
Continuous
 62
           7
100
AcDbLine
 10
178.85
 20
63.0
 30
0.0
 11
178.85
 21
62.5
 31
0.0
1001
ACAD
1000
TCW40_DEV_WIDTH
1002
{
1040
0.039370078593
1002
}
1001
TCAD
1000
TCW_CUSTOM_DATA
1002
{
1000
#$AUX@_TCDO_SOURCE_COLOR
1070
           3
1071
        0
1000
#$AUX@_TCDO_PARENT_ID
1070
           3
1071
    10283
1000
#$AUX@_TCDO_GTYPE
1070
           3
1071
        1
1000
#$AUX@_TCDO_VISIBILITY
1070
           3
1071
        0
1002
}
  0
LINE
  5
D9
100
AcDbEntity
  8
図
370
         100
  6
Continuous
 62
           7
100
AcDbLine
 10
165.15
 20
62.4
 30
0.0
 11
165.15
 21
62.6
 31
0.0
1001
ACAD
1000
TCW40_DEV_WIDTH
1002
{
1040
0.039370078593
1002
}
1001
TCAD
1000
TCW_CUSTOM_DATA
1002
{
1000
#$AUX@_TCDO_SOURCE_COLOR
1070
           3
1071
        0
1000
#$AUX@_TCDO_PARENT_ID
1070
           3
1071
    10283
1000
#$AUX@_TCDO_GTYPE
1070
           3
1071
        1
1000
#$AUX@_TCDO_VISIBILITY
1070
           3
1071
        0
1002
}
  0
LINE
  5
DA
100
AcDbEntity
  8
図
370
         100
  6
Continuous
 62
           7
100
AcDbLine
 10
165.15
 20
62.6
 30
0.0
 11
166.65
 21
62.6
 31
0.0
1001
ACAD
1000
TCW40_DEV_WIDTH
1002
{
1040
0.039370078593
1002
}
1001
TCAD
1000
TCW_CUSTOM_DATA
1002
{
1000
#$AUX@_TCDO_SOURCE_COLOR
1070
           3
1071
        0
1000
#$AUX@_TCDO_PARENT_ID
1070
           3
1071
    10283
1000
#$AUX@_TCDO_GTYPE
1070
           3
1071
        1
1000
#$AUX@_TCDO_VISIBILITY
1070
           3
1071
        0
1002
}
  0
LINE
  5
DB
100
AcDbEntity
  8
図
370
         100
  6
Continuous
 62
           7
100
AcDbLine
 10
165.15
 20
83.3
 30
0.0
 11
165.15
 21
62.6
 31
0.0
1001
ACAD
1000
TCW40_DEV_WIDTH
1002
{
1040
0.039370078593
1002
}
1001
TCAD
1000
TCW_CUSTOM_DATA
1002
{
1000
#$AUX@_TCDO_SOURCE_COLOR
1070
           3
1071
        0
1000
#$AUX@_TCDO_PARENT_ID
1070
           3
1071
    10283
1000
#$AUX@_TCDO_GTYPE
1070
           3
1071
        1
1000
#$AUX@_TCDO_VISIBILITY
1070
           3
1071
        0
1002
}
  0
LINE
  5
DC
100
AcDbEntity
  8
図
370
         100
  6
Continuous
 62
           7
100
AcDbLine
 10
196.65
 20
62.6
 30
0.0
 11
194.95
 21
62.6
 31
0.0
1001
ACAD
1000
TCW40_DEV_WIDTH
1002
{
1040
0.039370078593
1002
}
1001
TCAD
1000
TCW_CUSTOM_DATA
1002
{
1000
#$AUX@_TCDO_SOURCE_COLOR
1070
           3
1071
        0
1000
#$AUX@_TCDO_PARENT_ID
1070
           3
1071
    10283
1000
#$AUX@_TCDO_GTYPE
1070
           3
1071
        1
1000
#$AUX@_TCDO_VISIBILITY
1070
           3
1071
        0
1002
}
  0
LINE
  5
DD
100
AcDbEntity
  8
図
370
         100
  6
Continuous
 62
           7
100
AcDbLine
 10
194.95
 20
64.2
 30
0.0
 11
194.95
 21
62.6
 31
0.0
1001
ACAD
1000
TCW40_DEV_WIDTH
1002
{
1040
0.039370078593
1002
}
1001
TCAD
1000
TCW_CUSTOM_DATA
1002
{
1000
#$AUX@_TCDO_SOURCE_COLOR
1070
           3
1071
        0
1000
#$AUX@_TCDO_PARENT_ID
1070
           3
1071
    10283
1000
#$AUX@_TCDO_GTYPE
1070
           3
1071
        1
1000
#$AUX@_TCDO_VISIBILITY
1070
           3
1071
        0
1002
}
  0
LINE
  5
DE
100
AcDbEntity
  8
図
370
         100
  6
Continuous
 62
           7
100
AcDbLine
 10
189.35
 20
64.2
 30
0.0
 11
194.95
 21
64.2
 31
0.0
1001
ACAD
1000
TCW40_DEV_WIDTH
1002
{
1040
0.039370078593
1002
}
1001
TCAD
1000
TCW_CUSTOM_DATA
1002
{
1000
#$AUX@_TCDO_SOURCE_COLOR
1070
           3
1071
        0
1000
#$AUX@_TCDO_PARENT_ID
1070
           3
1071
    10283
1000
#$AUX@_TCDO_GTYPE
1070
           3
1071
        1
1000
#$AUX@_TCDO_VISIBILITY
1070
           3
1071
        0
1002
}
  0
LINE
  5
DF
100
AcDbEntity
  8
図
370
         100
  6
Continuous
 62
           7
100
AcDbLine
 10
189.35
 20
62.6
 30
0.0
 11
189.35
 21
64.2
 31
0.0
1001
ACAD
1000
TCW40_DEV_WIDTH
1002
{
1040
0.039370078593
1002
}
1001
TCAD
1000
TCW_CUSTOM_DATA
1002
{
1000
#$AUX@_TCDO_SOURCE_COLOR
1070
           3
1071
        0
1000
#$AUX@_TCDO_PARENT_ID
1070
           3
1071
    10283
1000
#$AUX@_TCDO_GTYPE
1070
           3
1071
        1
1000
#$AUX@_TCDO_VISIBILITY
1070
           3
1071
        0
1002
}
  0
LINE
  5
E0
100
AcDbEntity
  8
図
370
         100
  6
Continuous
 62
           7
100
AcDbLine
 10
189.35
 20
62.6
 30
0.0
 11
186.65
 21
62.6
 31
0.0
1001
ACAD
1000
TCW40_DEV_WIDTH
1002
{
1040
0.039370078593
1002
}
1001
TCAD
1000
TCW_CUSTOM_DATA
1002
{
1000
#$AUX@_TCDO_SOURCE_COLOR
1070
           3
1071
        0
1000
#$AUX@_TCDO_PARENT_ID
1070
           3
1071
    10283
1000
#$AUX@_TCDO_GTYPE
1070
           3
1071
        1
1000
#$AUX@_TCDO_VISIBILITY
1070
           3
1071
        0
1002
}
  0
LINE
  5
E1
100
AcDbEntity
  8
図
370
         100
  6
Continuous
 62
           7
100
AcDbLine
 10
184.65
 20
62.6
 30
0.0
 11
184.45
 21
62.6
 31
0.0
1001
ACAD
1000
TCW40_DEV_WIDTH
1002
{
1040
0.039370078593
1002
}
1001
TCAD
1000
TCW_CUSTOM_DATA
1002
{
1000
#$AUX@_TCDO_SOURCE_COLOR
1070
           3
1071
        0
1000
#$AUX@_TCDO_PARENT_ID
1070
           3
1071
    10283
1000
#$AUX@_TCDO_GTYPE
1070
           3
1071
        1
1000
#$AUX@_TCDO_VISIBILITY
1070
           3
1071
        0
1002
}
  0
LINE
  5
E2
100
AcDbEntity
  8
図
370
         100
  6
Continuous
 62
           7
100
AcDbLine
 10
178.85
 20
62.6
 30
0.0
 11
178.65
 21
62.6
 31
0.0
1001
ACAD
1000
TCW40_DEV_WIDTH
1002
{
1040
0.039370078593
1002
}
1001
TCAD
1000
TCW_CUSTOM_DATA
1002
{
1000
#$AUX@_TCDO_SOURCE_COLOR
1070
           3
1071
        0
1000
#$AUX@_TCDO_PARENT_ID
1070
           3
1071
    10283
1000
#$AUX@_TCDO_GTYPE
1070
           3
1071
        1
1000
#$AUX@_TCDO_VISIBILITY
1070
           3
1071
        0
1002
}
  0
LINE
  5
E3
100
AcDbEntity
  8
図
370
         100
  6
Continuous
 62
           7
100
AcDbLine
 10
176.65
 20
62.6
 30
0.0
 11
173.95
 21
62.6
 31
0.0
1001
ACAD
1000
TCW40_DEV_WIDTH
1002
{
1040
0.039370078593
1002
}
1001
TCAD
1000
TCW_CUSTOM_DATA
1002
{
1000
#$AUX@_TCDO_SOURCE_COLOR
1070
           3
1071
        0
1000
#$AUX@_TCDO_PARENT_ID
1070
           3
1071
    10283
1000
#$AUX@_TCDO_GTYPE
1070
           3
1071
        1
1000
#$AUX@_TCDO_VISIBILITY
1070
           3
1071
        0
1002
}
  0
LINE
  5
E4
100
AcDbEntity
  8
図
370
         100
  6
Continuous
 62
           7
100
AcDbLine
 10
173.95
 20
64.2
 30
0.0
 11
173.95
 21
62.6
 31
0.0
1001
ACAD
1000
TCW40_DEV_WIDTH
1002
{
1040
0.039370078593
1002
}
1001
TCAD
1000
TCW_CUSTOM_DATA
1002
{
1000
#$AUX@_TCDO_SOURCE_COLOR
1070
           3
1071
        0
1000
#$AUX@_TCDO_PARENT_ID
1070
           3
1071
    10283
1000
#$AUX@_TCDO_GTYPE
1070
           3
1071
        1
1000
#$AUX@_TCDO_VISIBILITY
1070
           3
1071
        0
1002
}
  0
LINE
  5
E5
100
AcDbEntity
  8
図
370
         100
  6
Continuous
 62
           7
100
AcDbLine
 10
168.35
 20
64.2
 30
0.0
 11
173.95
 21
64.2
 31
0.0
1001
ACAD
1000
TCW40_DEV_WIDTH
1002
{
1040
0.039370078593
1002
}
1001
TCAD
1000
TCW_CUSTOM_DATA
1002
{
1000
#$AUX@_TCDO_SOURCE_COLOR
1070
           3
1071
        0
1000
#$AUX@_TCDO_PARENT_ID
1070
           3
1071
    10283
1000
#$AUX@_TCDO_GTYPE
1070
           3
1071
        1
1000
#$AUX@_TCDO_VISIBILITY
1070
           3
1071
        0
1002
}
  0
LINE
  5
E6
100
AcDbEntity
  8
図
370
         100
  6
Continuous
 62
           7
100
AcDbLine
 10
168.35
 20
62.6
 30
0.0
 11
168.35
 21
64.2
 31
0.0
1001
ACAD
1000
TCW40_DEV_WIDTH
1002
{
1040
0.039370078593
1002
}
1001
TCAD
1000
TCW_CUSTOM_DATA
1002
{
1000
#$AUX@_TCDO_SOURCE_COLOR
1070
           3
1071
        0
1000
#$AUX@_TCDO_PARENT_ID
1070
           3
1071
    10283
1000
#$AUX@_TCDO_GTYPE
1070
           3
1071
        1
1000
#$AUX@_TCDO_VISIBILITY
1070
           3
1071
        0
1002
}
  0
LINE
  5
E7
100
AcDbEntity
  8
図
370
         100
  6
Continuous
 62
           7
100
AcDbLine
 10
168.35
 20
62.6
 30
0.0
 11
166.65
 21
62.6
 31
0.0
1001
ACAD
1000
TCW40_DEV_WIDTH
1002
{
1040
0.039370078593
1002
}
1001
TCAD
1000
TCW_CUSTOM_DATA
1002
{
1000
#$AUX@_TCDO_SOURCE_COLOR
1070
           3
1071
        0
1000
#$AUX@_TCDO_PARENT_ID
1070
           3
1071
    10283
1000
#$AUX@_TCDO_GTYPE
1070
           3
1071
        1
1000
#$AUX@_TCDO_VISIBILITY
1070
           3
1071
        0
1002
}
  0
LINE
  5
E8
100
AcDbEntity
  8
図
370
         100
  6
Continuous
 62
           7
100
AcDbLine
 10
166.65
 20
62.6
 30
0.0
 11
166.65
 21
83.3
 31
0.0
1001
ACAD
1000
TCW40_DEV_WIDTH
1002
{
1040
0.039370078593
1002
}
1001
TCAD
1000
TCW_CUSTOM_DATA
1002
{
1000
#$AUX@_TCDO_SOURCE_COLOR
1070
           3
1071
        0
1000
#$AUX@_TCDO_PARENT_ID
1070
           3
1071
    10283
1000
#$AUX@_TCDO_GTYPE
1070
           3
1071
        0
1000
#$AUX@_TCDO_VISIBILITY
1070
           3
1071
        0
1002
}
  0
LINE
  5
E9
100
AcDbEntity
  8
図
370
         100
  6
Continuous
 62
           7
100
AcDbLine
 10
196.65
 20
62.6
 30
0.0
 11
198.15
 21
62.6
 31
0.0
1001
ACAD
1000
TCW40_DEV_WIDTH
1002
{
1040
0.039370078593
1002
}
1001
TCAD
1000
TCW_CUSTOM_DATA
1002
{
1000
#$AUX@_TCDO_SOURCE_COLOR
1070
           3
1071
        0
1000
#$AUX@_TCDO_PARENT_ID
1070
           3
1071
    10283
1000
#$AUX@_TCDO_GTYPE
1070
           3
1071
        1
1000
#$AUX@_TCDO_VISIBILITY
1070
           3
1071
        0
1002
}
  0
LINE
  5
EA
100
AcDbEntity
  8
図
370
         100
  6
Continuous
 62
           7
100
AcDbLine
 10
196.65
 20
83.3
 30
0.0
 11
196.65
 21
62.6
 31
0.0
1001
ACAD
1000
TCW40_DEV_WIDTH
1002
{
1040
0.039370078593
1002
}
1001
TCAD
1000
TCW_CUSTOM_DATA
1002
{
1000
#$AUX@_TCDO_SOURCE_COLOR
1070
           3
1071
        0
1000
#$AUX@_TCDO_PARENT_ID
1070
           3
1071
    10283
1000
#$AUX@_TCDO_GTYPE
1070
           3
1071
        0
1000
#$AUX@_TCDO_VISIBILITY
1070
           3
1071
        0
1002
}
  0
LINE
  5
EB
100
AcDbEntity
  8
図
370
         100
  6
Continuous
 62
           7
100
AcDbLine
 10
198.15
 20
62.6
 30
0.0
 11
198.15
 21
83.3
 31
0.0
1001
ACAD
1000
TCW40_DEV_WIDTH
1002
{
1040
0.039370078593
1002
}
1001
TCAD
1000
TCW_CUSTOM_DATA
1002
{
1000
#$AUX@_TCDO_SOURCE_COLOR
1070
           3
1071
        0
1000
#$AUX@_TCDO_PARENT_ID
1070
           3
1071
    10283
1000
#$AUX@_TCDO_GTYPE
1070
           3
1071
        1
1000
#$AUX@_TCDO_VISIBILITY
1070
           3
1071
        0
1002
}
  0
ARC
  5
EC
100
AcDbEntity
  8
図
370
         100
  6
Continuous
 62
           7
100
AcDbCircle
 10
198.85
 20
83.4
 30
0.0
 40
0.3
100
AcDbArc
 50
-56.765807395601
 51
123.234192604381
1001
ACAD
1000
TCW40_DEV_WIDTH
1002
{
1040
0.039370078593
1002
}
1001
TCAD
1000
TCW_CUSTOM_DATA
1002
{
1000
#$AUX@_TCDO_SOURCE_COLOR
1070
           3
1071
        0
1000
#$AUX@_TCDO_PARENT_ID
1070
           3
1071
    10283
1000
#$AUX@_TCDO_GTYPE
1070
           3
1071
        1
1000
#$AUX@_TCDO_VISIBILITY
1070
           3
1071
        0
1002
}
  0
LINE
  5
ED
100
AcDbEntity
  8
図
370
         100
  6
Continuous
 62
           7
100
AcDbLine
 10
199.014418745425
 20
83.149068782028
 30
0.0
 11
198.15
 21
82.582671955069
 31
0.0
1001
ACAD
1000
TCW40_DEV_WIDTH
1002
{
1040
0.039370078593
1002
}
1001
TCAD
1000
TCW_CUSTOM_DATA
1002
{
1000
#$AUX@_TCDO_SOURCE_COLOR
1070
           3
1071
        0
1000
#$AUX@_TCDO_PARENT_ID
1070
           3
1071
    10283
1000
#$AUX@_TCDO_GTYPE
1070
           3
1071
        1
1000
#$AUX@_TCDO_VISIBILITY
1070
           3
1071
        0
1002
}
  0
LINE
  5
EE
100
AcDbEntity
  8
図
370
         100
  6
Continuous
 62
           7
100
AcDbLine
 10
198.15
 20
83.3
 30
0.0
 11
198.685581254575
 21
83.650931217972
 31
0.0
1001
ACAD
1000
TCW40_DEV_WIDTH
1002
{
1040
0.039370078593
1002
}
1001
TCAD
1000
TCW_CUSTOM_DATA
1002
{
1000
#$AUX@_TCDO_SOURCE_COLOR
1070
           3
1071
        0
1000
#$AUX@_TCDO_PARENT_ID
1070
           3
1071
    10283
1000
#$AUX@_TCDO_GTYPE
1070
           3
1071
        1
1000
#$AUX@_TCDO_VISIBILITY
1070
           3
1071
        0
1002
}
  0
LINE
  5
EF
100
AcDbEntity
  8
図
370
         100
  6
Continuous
 62
           7
100
AcDbLine
 10
198.15
 20
83.3
 30
0.0
 11
196.65
 21
83.3
 31
0.0
1001
ACAD
1000
TCW40_DEV_WIDTH
1002
{
1040
0.039370078593
1002
}
1001
TCAD
1000
TCW_CUSTOM_DATA
1002
{
1000
#$AUX@_TCDO_SOURCE_COLOR
1070
           3
1071
        0
1000
#$AUX@_TCDO_PARENT_ID
1070
           3
1071
    10283
1000
#$AUX@_TCDO_GTYPE
1070
           3
1071
        1
1000
#$AUX@_TCDO_VISIBILITY
1070
           3
1071
        0
1002
}
  0
LINE
  5
F0
100
AcDbEntity
  8
図
370
         100
  6
Continuous
 62
           7
100
AcDbLine
 10
185.267457670796
 20
83.3
 30
0.0
 11
196.65
 21
83.3
 31
0.0
1001
ACAD
1000
TCW40_DEV_WIDTH
1002
{
1040
0.039370078593
1002
}
1001
TCAD
1000
TCW_CUSTOM_DATA
1002
{
1000
#$AUX@_TCDO_SOURCE_COLOR
1070
           3
1071
        0
1000
#$AUX@_TCDO_PARENT_ID
1070
           3
1071
    10283
1000
#$AUX@_TCDO_GTYPE
1070
           3
1071
        1
1000
#$AUX@_TCDO_VISIBILITY
1070
           3
1071
        0
1002
}
  0
LINE
  5
F1
100
AcDbEntity
  8
図
370
         100
  6
Continuous
 62
           7
100
AcDbLine
 10
166.65
 20
83.3
 30
0.0
 11
178.032542329204
 21
83.3
 31
0.0
1001
ACAD
1000
TCW40_DEV_WIDTH
1002
{
1040
0.039370078593
1002
}
1001
TCAD
1000
TCW_CUSTOM_DATA
1002
{
1000
#$AUX@_TCDO_SOURCE_COLOR
1070
           3
1071
        0
1000
#$AUX@_TCDO_PARENT_ID
1070
           3
1071
    10283
1000
#$AUX@_TCDO_GTYPE
1070
           3
1071
        1
1000
#$AUX@_TCDO_VISIBILITY
1070
           3
1071
        0
1002
}
  0
LINE
  5
F2
100
AcDbEntity
  8
図
370
         100
  6
Continuous
 62
           7
100
AcDbLine
 10
166.65
 20
83.3
 30
0.0
 11
165.15
 21
83.3
 31
0.0
1001
ACAD
1000
TCW40_DEV_WIDTH
1002
{
1040
0.039370078593
1002
}
1001
TCAD
1000
TCW_CUSTOM_DATA
1002
{
1000
#$AUX@_TCDO_SOURCE_COLOR
1070
           3
1071
        0
1000
#$AUX@_TCDO_PARENT_ID
1070
           3
1071
    10283
1000
#$AUX@_TCDO_GTYPE
1070
           3
1071
        1
1000
#$AUX@_TCDO_VISIBILITY
1070
           3
1071
        0
1002
}
  0
LINE
  5
F3
100
AcDbEntity
  8
図
370
         100
  6
Continuous
 62
           7
100
AcDbLine
 10
177.85
 20
79.0
 30
0.0
 11
177.85
 21
82.4
 31
0.0
1001
ACAD
1000
TCW40_DEV_WIDTH
1002
{
1040
0.039370078593
1002
}
1001
TCAD
1000
TCW_CUSTOM_DATA
1002
{
1000
#$AUX@_TCDO_SOURCE_COLOR
1070
           3
1071
        0
1000
#$AUX@_TCDO_PARENT_ID
1070
           3
1071
    10283
1000
#$AUX@_TCDO_GTYPE
1070
           3
1071
        1
1000
#$AUX@_TCDO_VISIBILITY
1070
           3
1071
        0
1002
}
  0
LINE
  5
F4
100
AcDbEntity
  8
図
370
         100
  6
Continuous
 62
           7
100
AcDbLine
 10
177.85
 20
82.4
 30
0.0
 11
180.15
 21
82.4
 31
0.0
1001
ACAD
1000
TCW40_DEV_WIDTH
1002
{
1040
0.039370078593
1002
}
1001
TCAD
1000
TCW_CUSTOM_DATA
1002
{
1000
#$AUX@_TCDO_SOURCE_COLOR
1070
           3
1071
        0
1000
#$AUX@_TCDO_PARENT_ID
1070
           3
1071
    10283
1000
#$AUX@_TCDO_GTYPE
1070
           3
1071
        1
1000
#$AUX@_TCDO_VISIBILITY
1070
           3
1071
        0
1002
}
  0
LINE
  5
F5
100
AcDbEntity
  8
図
370
         100
  6
Continuous
 62
           7
100
AcDbLine
 10
183.15
 20
82.4
 30
0.0
 11
185.45
 21
82.4
 31
0.0
1001
ACAD
1000
TCW40_DEV_WIDTH
1002
{
1040
0.039370078593
1002
}
1001
TCAD
1000
TCW_CUSTOM_DATA
1002
{
1000
#$AUX@_TCDO_SOURCE_COLOR
1070
           3
1071
        0
1000
#$AUX@_TCDO_PARENT_ID
1070
           3
1071
    10283
1000
#$AUX@_TCDO_GTYPE
1070
           3
1071
        1
1000
#$AUX@_TCDO_VISIBILITY
1070
           3
1071
        0
1002
}
  0
LINE
  5
F6
100
AcDbEntity
  8
図
370
         100
  6
Continuous
 62
           7
100
AcDbLine
 10
185.45
 20
78.0
 30
0.0
 11
181.65
 21
78.0
 31
0.0
1001
ACAD
1000
TCW40_DEV_WIDTH
1002
{
1040
0.039370078593
1002
}
1001
TCAD
1000
TCW_CUSTOM_DATA
1002
{
1000
#$AUX@_TCDO_SOURCE_COLOR
1070
           3
1071
        0
1000
#$AUX@_TCDO_PARENT_ID
1070
           3
1071
    10283
1000
#$AUX@_TCDO_GTYPE
1070
           3
1071
        1
1000
#$AUX@_TCDO_VISIBILITY
1070
           3
1071
        0
1002
}
  0
LINE
  5
F7
100
AcDbEntity
  8
図
370
         100
  6
Continuous
 62
           7
100
AcDbLine
 10
185.45
 20
82.4
 30
0.0
 11
185.45
 21
78.0
 31
0.0
1001
ACAD
1000
TCW40_DEV_WIDTH
1002
{
1040
0.039370078593
1002
}
1001
TCAD
1000
TCW_CUSTOM_DATA
1002
{
1000
#$AUX@_TCDO_SOURCE_COLOR
1070
           3
1071
        0
1000
#$AUX@_TCDO_PARENT_ID
1070
           3
1071
    10283
1000
#$AUX@_TCDO_GTYPE
1070
           3
1071
        1
1000
#$AUX@_TCDO_VISIBILITY
1070
           3
1071
        0
1002
}
  0
LINE
  5
F8
100
AcDbEntity
  8
図
370
         100
  6
Continuous
 62
           7
100
AcDbLine
 10
181.65
 20
78.0
 30
0.0
 11
179.35
 21
78.0
 31
0.0
1001
ACAD
1000
TCW40_DEV_WIDTH
1002
{
1040
0.039370078593
1002
}
1001
TCAD
1000
TCW_CUSTOM_DATA
1002
{
1000
#$AUX@_TCDO_SOURCE_COLOR
1070
           3
1071
        0
1000
#$AUX@_TCDO_PARENT_ID
1070
           3
1071
    10283
1000
#$AUX@_TCDO_GTYPE
1070
           3
1071
        1
1000
#$AUX@_TCDO_VISIBILITY
1070
           3
1071
        0
1002
}
  0
LINE
  5
F9
100
AcDbEntity
  8
図
370
         100
  6
Continuous
 62
           7
100
AcDbLine
 10
179.35
 20
79.0
 30
0.0
 11
180.15
 21
79.0
 31
0.0
1001
ACAD
1000
TCW40_DEV_WIDTH
1002
{
1040
0.039370078593
1002
}
1001
TCAD
1000
TCW_CUSTOM_DATA
1002
{
1000
#$AUX@_TCDO_SOURCE_COLOR
1070
           3
1071
        0
1000
#$AUX@_TCDO_PARENT_ID
1070
           3
1071
    10283
1000
#$AUX@_TCDO_GTYPE
1070
           3
1071
        1
1000
#$AUX@_TCDO_VISIBILITY
1070
           3
1071
        0
1002
}
  0
LINE
  5
FA
100
AcDbEntity
  8
図
370
         100
  6
Continuous
 62
           7
100
AcDbLine
 10
180.15
 20
82.4
 30
0.0
 11
183.15
 21
82.4
 31
0.0
1001
ACAD
1000
TCW40_DEV_WIDTH
1002
{
1040
0.039370078593
1002
}
1001
TCAD
1000
TCW_CUSTOM_DATA
1002
{
1000
#$AUX@_TCDO_SOURCE_COLOR
1070
           3
1071
        0
1000
#$AUX@_TCDO_PARENT_ID
1070
           3
1071
    10283
1000
#$AUX@_TCDO_GTYPE
1070
           3
1071
        1
1000
#$AUX@_TCDO_VISIBILITY
1070
           3
1071
        0
1002
}
  0
LINE
  5
FB
100
AcDbEntity
  8
図
370
         100
  6
Continuous
 62
           7
100
AcDbLine
 10
183.15
 20
82.4
 30
0.0
 11
183.15
 21
79.5
 31
0.0
1001
ACAD
1000
TCW40_DEV_WIDTH
1002
{
1040
0.039370078593
1002
}
1001
TCAD
1000
TCW_CUSTOM_DATA
1002
{
1000
#$AUX@_TCDO_SOURCE_COLOR
1070
           3
1071
        0
1000
#$AUX@_TCDO_PARENT_ID
1070
           3
1071
    10283
1000
#$AUX@_TCDO_GTYPE
1070
           3
1071
        1
1000
#$AUX@_TCDO_VISIBILITY
1070
           3
1071
        0
1002
}
  0
LINE
  5
FC
100
AcDbEntity
  8
図
370
         100
  6
Continuous
 62
           7
100
AcDbLine
 10
180.15
 20
79.0
 30
0.0
 11
180.15
 21
82.4
 31
0.0
1001
ACAD
1000
TCW40_DEV_WIDTH
1002
{
1040
0.039370078593
1002
}
1001
TCAD
1000
TCW_CUSTOM_DATA
1002
{
1000
#$AUX@_TCDO_SOURCE_COLOR
1070
           3
1071
        0
1000
#$AUX@_TCDO_PARENT_ID
1070
           3
1071
    10283
1000
#$AUX@_TCDO_GTYPE
1070
           3
1071
        1
1000
#$AUX@_TCDO_VISIBILITY
1070
           3
1071
        0
1002
}
  0
LINE
  5
FD
100
AcDbEntity
  8
図
370
         100
  6
Continuous
 62
           7
100
AcDbLine
 10
179.35
 20
79.0
 30
0.0
 11
179.35
 21
78.0
 31
0.0
1001
ACAD
1000
TCW40_DEV_WIDTH
1002
{
1040
0.039370078593
1002
}
1001
TCAD
1000
TCW_CUSTOM_DATA
1002
{
1000
#$AUX@_TCDO_SOURCE_COLOR
1070
           3
1071
        0
1000
#$AUX@_TCDO_PARENT_ID
1070
           3
1071
    10283
1000
#$AUX@_TCDO_GTYPE
1070
           3
1071
        0
1000
#$AUX@_TCDO_VISIBILITY
1070
           3
1071
        0
1002
}
  0
LINE
  5
FE
100
AcDbEntity
  8
図
370
         100
  6
Continuous
 62
           7
100
AcDbLine
 10
177.85
 20
78.0
 30
0.0
 11
179.35
 21
78.0
 31
0.0
1001
ACAD
1000
TCW40_DEV_WIDTH
1002
{
1040
0.039370078593
1002
}
1001
TCAD
1000
TCW_CUSTOM_DATA
1002
{
1000
#$AUX@_TCDO_SOURCE_COLOR
1070
           3
1071
        0
1000
#$AUX@_TCDO_PARENT_ID
1070
           3
1071
    10283
1000
#$AUX@_TCDO_GTYPE
1070
           3
1071
        1
1000
#$AUX@_TCDO_VISIBILITY
1070
           3
1071
        0
1002
}
  0
LINE
  5
FF
100
AcDbEntity
  8
図
370
         100
  6
Continuous
 62
           7
100
AcDbLine
 10
179.35
 20
79.0
 30
0.0
 11
177.85
 21
79.0
 31
0.0
1001
ACAD
1000
TCW40_DEV_WIDTH
1002
{
1040
0.039370078593
1002
}
1001
TCAD
1000
TCW_CUSTOM_DATA
1002
{
1000
#$AUX@_TCDO_SOURCE_COLOR
1070
           3
1071
        0
1000
#$AUX@_TCDO_PARENT_ID
1070
           3
1071
    10283
1000
#$AUX@_TCDO_GTYPE
1070
           3
1071
        1
1000
#$AUX@_TCDO_VISIBILITY
1070
           3
1071
        0
1002
}
  0
ARC
  5
100
100
AcDbEntity
  8
図
370
         100
  6
Continuous
 62
           7
100
AcDbCircle
 10
181.65
 20
79.5
 30
0.0
 40
1.5
100
AcDbArc
 50
-90.0
 51
0.0
1001
ACAD
1000
TCW40_DEV_WIDTH
1002
{
1040
0.039370078593
1002
}
1001
TCAD
1000
TCW_CUSTOM_DATA
1002
{
1000
#$AUX@_TCDO_SOURCE_COLOR
1070
           3
1071
        0
1000
#$AUX@_TCDO_PARENT_ID
1070
           3
1071
    10283
1000
#$AUX@_TCDO_GTYPE
1070
           3
1071
        1
1000
#$AUX@_TCDO_VISIBILITY
1070
           3
1071
        0
1002
}
  0
ARC
  5
101
100
AcDbEntity
  8
図
370
         100
  6
Continuous
 62
           7
100
AcDbCircle
 10
181.65
 20
90.12
 30
0.0
 40
7.72
100
AcDbArc
 50
-90.0
 51
-62.05767070182
1001
ACAD
1000
TCW40_DEV_WIDTH
1002
{
1040
0.039370078593
1002
}
1001
TCAD
1000
TCW_CUSTOM_DATA
1002
{
1000
#$AUX@_TCDO_SOURCE_COLOR
1070
           3
1071
        0
1000
#$AUX@_TCDO_PARENT_ID
1070
           3
1071
    10283
1000
#$AUX@_TCDO_GTYPE
1070
           3
1071
        1
1000
#$AUX@_TCDO_VISIBILITY
1070
           3
1071
        0
1002
}
  0
ARC
  5
102
100
AcDbEntity
  8
図
370
         100
  6
Continuous
 62
           7
100
AcDbCircle
 10
181.65
 20
90.12
 30
0.0
 40
7.72
100
AcDbArc
 50
-117.94232929818
 51
-89.999997497579
1001
ACAD
1000
TCW40_DEV_WIDTH
1002
{
1040
0.039370078593
1002
}
1001
TCAD
1000
TCW_CUSTOM_DATA
1002
{
1000
#$AUX@_TCDO_SOURCE_COLOR
1070
           3
1071
        0
1000
#$AUX@_TCDO_PARENT_ID
1070
           3
1071
    10283
1000
#$AUX@_TCDO_GTYPE
1070
           3
1071
        1
1000
#$AUX@_TCDO_VISIBILITY
1070
           3
1071
        0
1002
}
  0
LINE
  5
103
100
AcDbEntity
  8
図
370
         100
  6
Continuous
 62
           7
100
AcDbLine
 10
176.749999999898
 20
83.807007462722
 30
0.0
 11
181.550496280966
 21
84.287057090829
 31
0.0
1001
ACAD
1000
TCW40_DEV_WIDTH
1002
{
1040
0.039370078593
1002
}
1001
TCAD
1000
TCW_CUSTOM_DATA
1002
{
1000
#$AUX@_TCDO_SOURCE_COLOR
1070
           3
1071
        0
1000
#$AUX@_TCDO_PARENT_ID
1070
           3
1071
      229
1000
#$AUX@_TCDO_GTYPE
1070
           3
1071
        1
1000
#$AUX@_TCDO_VISIBILITY
1070
           3
1071
        0
1002
}
  0
LINE
  5
104
100
AcDbEntity
  8
図
370
         100
  6
Continuous
 62
           7
100
AcDbLine
 10
181.65
 20
84.9
 30
0.0
 11
176.749999999898
 21
84.40999999999
 31
0.0
1001
ACAD
1000
TCW40_DEV_WIDTH
1002
{
1040
0.039370078593
1002
}
1001
TCAD
1000
TCW_CUSTOM_DATA
1002
{
1000
#$AUX@_TCDO_SOURCE_COLOR
1070
           3
1071
        0
1000
#$AUX@_TCDO_PARENT_ID
1070
           3
1071
      229
1000
#$AUX@_TCDO_GTYPE
1070
           3
1071
        1
1000
#$AUX@_TCDO_VISIBILITY
1070
           3
1071
        0
1002
}
  0
LINE
  5
105
100
AcDbEntity
  8
図
370
         100
  6
Continuous
 62
           7
100
AcDbLine
 10
186.549999999997
 20
84.409999999998
 30
0.0
 11
181.65
 21
84.899999999997
 31
0.0
1001
ACAD
1000
TCW40_DEV_WIDTH
1002
{
1040
0.039370078593
1002
}
1001
TCAD
1000
TCW_CUSTOM_DATA
1002
{
1000
#$AUX@_TCDO_SOURCE_COLOR
1070
           3
1071
        0
1000
#$AUX@_TCDO_PARENT_ID
1070
           3
1071
      229
1000
#$AUX@_TCDO_GTYPE
1070
           3
1071
        1
1000
#$AUX@_TCDO_VISIBILITY
1070
           3
1071
        0
1002
}
  0
LINE
  5
106
100
AcDbEntity
  8
図
370
         100
  6
Continuous
 62
           7
100
AcDbLine
 10
181.749503719008
 20
84.287057090829
 30
0.0
 11
186.549999999997
 21
83.80700746273
 31
0.0
1001
ACAD
1000
TCW40_DEV_WIDTH
1002
{
1040
0.039370078593
1002
}
1001
TCAD
1000
TCW_CUSTOM_DATA
1002
{
1000
#$AUX@_TCDO_SOURCE_COLOR
1070
           3
1071
        0
1000
#$AUX@_TCDO_PARENT_ID
1070
           3
1071
      229
1000
#$AUX@_TCDO_GTYPE
1070
           3
1071
        1
1000
#$AUX@_TCDO_VISIBILITY
1070
           3
1071
        0
1002
}
  0
ARC
  5
107
100
AcDbEntity
  8
図
370
         100
  6
Continuous
 62
           7
100
AcDbCircle
 10
181.649999999987
 20
83.292019900619
 30
0.0
 40
1.0
100
AcDbArc
 50
84.289406862501
 51
95.710593137499
1001
ACAD
1000
TCW40_DEV_WIDTH
1002
{
1040
0.039370078593
1002
}
1001
TCAD
1000
TCW_CUSTOM_DATA
1002
{
1000
#$AUX@_TCDO_SOURCE_COLOR
1070
           3
1071
        0
1000
#$AUX@_TCDO_PARENT_ID
1070
           3
1071
      229
1000
#$AUX@_TCDO_GTYPE
1070
           3
1071
        1
1000
#$AUX@_TCDO_VISIBILITY
1070
           3
1071
        0
1002
}
  0
ARC
  5
108
100
AcDbEntity
  8
図
370
         100
  6
Continuous
 62
           7
100
AcDbCircle
 10
192.15
 20
96.9
 30
0.0
 40
1.0
100
AcDbArc
 50
0.0
 51
90.0
1001
ACAD
1000
TCW40_DEV_WIDTH
1002
{
1040
0.039370078593
1002
}
1001
TCAD
1000
TCW_CUSTOM_DATA
1002
{
1000
#$AUX@_TCDO_SOURCE_COLOR
1070
           3
1071
        0
1000
#$AUX@_TCDO_PARENT_ID
1070
           3
1071
      219
1000
#$AUX@_TCDO_GTYPE
1070
           3
1071
        0
1000
#$AUX@_TCDO_VISIBILITY
1070
           3
1071
        0
1002
}
  0
ARC
  5
109
100
AcDbEntity
  8
図
370
         100
  6
Continuous
 62
           7
100
AcDbCircle
 10
197.65
 20
94.2
 30
0.0
 40
0.5
100
AcDbArc
 50
0.0
 51
90.0
1001
ACAD
1000
TCW40_DEV_WIDTH
1002
{
1040
0.039370078593
1002
}
1001
TCAD
1000
TCW_CUSTOM_DATA
1002
{
1000
#$AUX@_TCDO_SOURCE_COLOR
1070
           3
1071
        0
1000
#$AUX@_TCDO_PARENT_ID
1070
           3
1071
      219
1000
#$AUX@_TCDO_GTYPE
1070
           3
1071
        0
1000
#$AUX@_TCDO_VISIBILITY
1070
           3
1071
        0
1002
}
  0
ARC
  5
10A
100
AcDbEntity
  8
図
370
         100
  6
Continuous
 62
           7
100
AcDbCircle
 10
198.85
 20
83.4
 30
0.0
 40
0.3
100
AcDbArc
 50
-123.234192604377
 51
56.765807395605
1001
ACAD
1000
TCW40_DEV_WIDTH
1002
{
1040
0.039370078593
1002
}
1001
TCAD
1000
TCW_CUSTOM_DATA
1002
{
1000
#$AUX@_TCDO_SOURCE_COLOR
1070
           3
1071
        0
1000
#$AUX@_TCDO_PARENT_ID
1070
           3
1071
      219
1000
#$AUX@_TCDO_GTYPE
1070
           3
1071
        1
1000
#$AUX@_TCDO_VISIBILITY
1070
           3
1071
        0
1002
}
  0
LINE
  5
10B
100
AcDbEntity
  8
図
370
         100
  6
Continuous
 62
           7
100
AcDbLine
 10
199.014418745425
 20
83.650931217972
 30
0.0
 11
198.15
 21
84.217328044931
 31
0.0
1001
ACAD
1000
TCW40_DEV_WIDTH
1002
{
1040
0.039370078593
1002
}
1001
TCAD
1000
TCW_CUSTOM_DATA
1002
{
1000
#$AUX@_TCDO_SOURCE_COLOR
1070
           3
1071
        0
1000
#$AUX@_TCDO_PARENT_ID
1070
           3
1071
      219
1000
#$AUX@_TCDO_GTYPE
1070
           3
1071
        1
1000
#$AUX@_TCDO_VISIBILITY
1070
           3
1071
        0
1002
}
  0
LINE
  5
10C
100
AcDbEntity
  8
図
370
         100
  6
Continuous
 62
           7
100
AcDbLine
 10
198.15
 20
83.5
 30
0.0
 11
198.685581254575
 21
83.149068782028
 31
0.0
1001
ACAD
1000
TCW40_DEV_WIDTH
1002
{
1040
0.039370078593
1002
}
1001
TCAD
1000
TCW_CUSTOM_DATA
1002
{
1000
#$AUX@_TCDO_SOURCE_COLOR
1070
           3
1071
        0
1000
#$AUX@_TCDO_PARENT_ID
1070
           3
1071
      219
1000
#$AUX@_TCDO_GTYPE
1070
           3
1071
        1
1000
#$AUX@_TCDO_VISIBILITY
1070
           3
1071
        0
1002
}
  0
ARC
  5
10D
100
AcDbEntity
  8
図
370
         100
  6
Continuous
 62
           7
100
AcDbCircle
 10
171.15
 20
96.9
 30
0.0
 40
1.0
100
AcDbArc
 50
90.0
 51
180.000000000002
1001
ACAD
1000
TCW40_DEV_WIDTH
1002
{
1040
0.039370078593
1002
}
1001
TCAD
1000
TCW_CUSTOM_DATA
1002
{
1000
#$AUX@_TCDO_SOURCE_COLOR
1070
           3
1071
        0
1000
#$AUX@_TCDO_PARENT_ID
1070
           3
1071
      219
1000
#$AUX@_TCDO_GTYPE
1070
           3
1071
        1
1000
#$AUX@_TCDO_VISIBILITY
1070
           3
1071
        0
1002
}
  0
LINE
  5
10E
100
AcDbEntity
  8
図
370
         100
  6
Continuous
 62
           7
100
AcDbLine
 10
171.15
 20
97.4
 30
0.0
 11
171.15
 21
97.9
 31
0.0
1001
ACAD
1000
TCW40_DEV_WIDTH
1002
{
1040
0.039370078593
1002
}
1001
TCAD
1000
TCW_CUSTOM_DATA
1002
{
1000
#$AUX@_TCDO_SOURCE_COLOR
1070
           3
1071
        0
1000
#$AUX@_TCDO_PARENT_ID
1070
           3
1071
      219
1000
#$AUX@_TCDO_GTYPE
1070
           3
1071
        0
1000
#$AUX@_TCDO_VISIBILITY
1070
           3
1071
        0
1002
}
  0
ARC
  5
10F
100
AcDbEntity
  8
図
370
         100
  6
Continuous
 62
           7
100
AcDbCircle
 10
192.15
 20
96.9
 30
0.0
 40
1.0
100
AcDbArc
 50
0.0
 51
90.0
1001
ACAD
1000
TCW40_DEV_WIDTH
1002
{
1040
0.039370078593
1002
}
1001
TCAD
1000
TCW_CUSTOM_DATA
1002
{
1000
#$AUX@_TCDO_SOURCE_COLOR
1070
           3
1071
        0
1000
#$AUX@_TCDO_PARENT_ID
1070
           3
1071
      219
1000
#$AUX@_TCDO_GTYPE
1070
           3
1071
        1
1000
#$AUX@_TCDO_VISIBILITY
1070
           3
1071
        0
1002
}
  0
LINE
  5
110
100
AcDbEntity
  8
図
370
         100
  6
Continuous
 62
           7
100
AcDbLine
 10
192.15
 20
97.4
 30
0.0
 11
192.15
 21
97.9
 31
0.0
1001
ACAD
1000
TCW40_DEV_WIDTH
1002
{
1040
0.039370078593
1002
}
1001
TCAD
1000
TCW_CUSTOM_DATA
1002
{
1000
#$AUX@_TCDO_SOURCE_COLOR
1070
           3
1071
        0
1000
#$AUX@_TCDO_PARENT_ID
1070
           3
1071
      219
1000
#$AUX@_TCDO_GTYPE
1070
           3
1071
        0
1000
#$AUX@_TCDO_VISIBILITY
1070
           3
1071
        0
1002
}
  0
LINE
  5
111
100
AcDbEntity
  8
図
370
         100
  6
Continuous
 62
           7
100
AcDbLine
 10
192.15
 20
97.9
 30
0.0
 11
171.15
 21
97.9
 31
0.0
1001
ACAD
1000
TCW40_DEV_WIDTH
1002
{
1040
0.039370078593
1002
}
1001
TCAD
1000
TCW_CUSTOM_DATA
1002
{
1000
#$AUX@_TCDO_SOURCE_COLOR
1070
           3
1071
        0
1000
#$AUX@_TCDO_PARENT_ID
1070
           3
1071
      219
1000
#$AUX@_TCDO_GTYPE
1070
           3
1071
        1
1000
#$AUX@_TCDO_VISIBILITY
1070
           3
1071
        0
1002
}
  0
LINE
  5
112
100
AcDbEntity
  8
図
370
         100
  6
Continuous
 62
           7
100
AcDbLine
 10
193.15
 20
96.9
 30
0.0
 11
192.65
 21
96.9
 31
0.0
1001
ACAD
1000
TCW40_DEV_WIDTH
1002
{
1040
0.039370078593
1002
}
1001
TCAD
1000
TCW_CUSTOM_DATA
1002
{
1000
#$AUX@_TCDO_SOURCE_COLOR
1070
           3
1071
        0
1000
#$AUX@_TCDO_PARENT_ID
1070
           3
1071
      219
1000
#$AUX@_TCDO_GTYPE
1070
           3
1071
        0
1000
#$AUX@_TCDO_VISIBILITY
1070
           3
1071
        0
1002
}
  0
LINE
  5
113
100
AcDbEntity
  8
図
370
         100
  6
Continuous
 62
           7
100
AcDbLine
 10
193.15
 20
94.7
 30
0.0
 11
193.15
 21
96.9
 31
0.0
1001
ACAD
1000
TCW40_DEV_WIDTH
1002
{
1040
0.039370078593
1002
}
1001
TCAD
1000
TCW_CUSTOM_DATA
1002
{
1000
#$AUX@_TCDO_SOURCE_COLOR
1070
           3
1071
        0
1000
#$AUX@_TCDO_PARENT_ID
1070
           3
1071
      219
1000
#$AUX@_TCDO_GTYPE
1070
           3
1071
        1
1000
#$AUX@_TCDO_VISIBILITY
1070
           3
1071
        0
1002
}
  0
LINE
  5
114
100
AcDbEntity
  8
図
370
         100
  6
Continuous
 62
           7
100
AcDbLine
 10
196.65
 20
94.7
 30
0.0
 11
196.65
 21
94.2
 31
0.0
1001
ACAD
1000
TCW40_DEV_WIDTH
1002
{
1040
0.039370078593
1002
}
1001
TCAD
1000
TCW_CUSTOM_DATA
1002
{
1000
#$AUX@_TCDO_SOURCE_COLOR
1070
           3
1071
        0
1000
#$AUX@_TCDO_PARENT_ID
1070
           3
1071
      219
1000
#$AUX@_TCDO_GTYPE
1070
           3
1071
        0
1000
#$AUX@_TCDO_VISIBILITY
1070
           3
1071
        0
1002
}
  0
LINE
  5
115
100
AcDbEntity
  8
図
370
         100
  6
Continuous
 62
           7
100
AcDbLine
 10
166.649999999895
 20
94.7
 30
0.0
 11
166.649999999895
 21
94.2
 31
0.0
1001
ACAD
1000
TCW40_DEV_WIDTH
1002
{
1040
0.039370078593
1002
}
1001
TCAD
1000
TCW_CUSTOM_DATA
1002
{
1000
#$AUX@_TCDO_SOURCE_COLOR
1070
           3
1071
        0
1000
#$AUX@_TCDO_PARENT_ID
1070
           3
1071
      219
1000
#$AUX@_TCDO_GTYPE
1070
           3
1071
        0
1000
#$AUX@_TCDO_VISIBILITY
1070
           3
1071
        0
1002
}
  0
LINE
  5
116
100
AcDbEntity
  8
図
370
         100
  6
Continuous
 62
           7
100
AcDbLine
 10
198.15
 20
94.2
 30
0.0
 11
196.65
 21
94.2
 31
0.0
1001
ACAD
1000
TCW40_DEV_WIDTH
1002
{
1040
0.039370078593
1002
}
1001
TCAD
1000
TCW_CUSTOM_DATA
1002
{
1000
#$AUX@_TCDO_SOURCE_COLOR
1070
           3
1071
        0
1000
#$AUX@_TCDO_PARENT_ID
1070
           3
1071
      219
1000
#$AUX@_TCDO_GTYPE
1070
           3
1071
        0
1000
#$AUX@_TCDO_VISIBILITY
1070
           3
1071
        0
1002
}
  0
LINE
  5
117
100
AcDbEntity
  8
図
370
         100
  6
Continuous
 62
           7
100
AcDbLine
 10
198.15
 20
83.5
 30
0.0
 11
198.15
 21
94.2
 31
0.0
1001
ACAD
1000
TCW40_DEV_WIDTH
1002
{
1040
0.039370078593
1002
}
1001
TCAD
1000
TCW_CUSTOM_DATA
1002
{
1000
#$AUX@_TCDO_SOURCE_COLOR
1070
           3
1071
        0
1000
#$AUX@_TCDO_PARENT_ID
1070
           3
1071
      219
1000
#$AUX@_TCDO_GTYPE
1070
           3
1071
        1
1000
#$AUX@_TCDO_VISIBILITY
1070
           3
1071
        0
1002
}
  0
LINE
  5
118
100
AcDbEntity
  8
図
370
         100
  6
Continuous
 62
           7
100
AcDbLine
 10
196.65
 20
83.5
 30
0.0
 11
198.15
 21
83.5
 31
0.0
1001
ACAD
1000
TCW40_DEV_WIDTH
1002
{
1040
0.039370078593
1002
}
1001
TCAD
1000
TCW_CUSTOM_DATA
1002
{
1000
#$AUX@_TCDO_SOURCE_COLOR
1070
           3
1071
        0
1000
#$AUX@_TCDO_PARENT_ID
1070
           3
1071
      219
1000
#$AUX@_TCDO_GTYPE
1070
           3
1071
        1
1000
#$AUX@_TCDO_VISIBILITY
1070
           3
1071
        0
1002
}
  0
LINE
  5
119
100
AcDbEntity
  8
図
370
         100
  6
Continuous
 62
           7
100
AcDbLine
 10
166.649999999895
 20
94.2
 30
0.0
 11
196.65
 21
94.2
 31
0.0
1001
ACAD
1000
TCW40_DEV_WIDTH
1002
{
1040
0.039370078593
1002
}
1001
TCAD
1000
TCW_CUSTOM_DATA
1002
{
1000
#$AUX@_TCDO_SOURCE_COLOR
1070
           3
1071
        0
1000
#$AUX@_TCDO_PARENT_ID
1070
           3
1071
      219
1000
#$AUX@_TCDO_GTYPE
1070
           3
1071
        0
1000
#$AUX@_TCDO_VISIBILITY
1070
           3
1071
        0
1002
}
  0
LINE
  5
11A
100
AcDbEntity
  8
図
370
         100
  6
Continuous
 62
           7
100
AcDbLine
 10
196.65
 20
94.2
 30
0.0
 11
196.65
 21
83.5
 31
0.0
1001
ACAD
1000
TCW40_DEV_WIDTH
1002
{
1040
0.039370078593
1002
}
1001
TCAD
1000
TCW_CUSTOM_DATA
1002
{
1000
#$AUX@_TCDO_SOURCE_COLOR
1070
           3
1071
        0
1000
#$AUX@_TCDO_PARENT_ID
1070
           3
1071
      219
1000
#$AUX@_TCDO_GTYPE
1070
           3
1071
        0
1000
#$AUX@_TCDO_VISIBILITY
1070
           3
1071
        0
1002
}
  0
LINE
  5
11B
100
AcDbEntity
  8
図
370
         100
  6
Continuous
 62
           7
100
AcDbLine
 10
196.65
 20
83.5
 30
0.0
 11
186.549999999997
 21
83.5
 31
0.0
1001
ACAD
1000
TCW40_DEV_WIDTH
1002
{
1040
0.039370078593
1002
}
1001
TCAD
1000
TCW_CUSTOM_DATA
1002
{
1000
#$AUX@_TCDO_SOURCE_COLOR
1070
           3
1071
        0
1000
#$AUX@_TCDO_PARENT_ID
1070
           3
1071
      219
1000
#$AUX@_TCDO_GTYPE
1070
           3
1071
        1
1000
#$AUX@_TCDO_VISIBILITY
1070
           3
1071
        0
1002
}
  0
ARC
  5
11C
100
AcDbEntity
  8
図
370
         100
  6
Continuous
 62
           7
100
AcDbCircle
 10
181.649999999997
 20
85.400000000001
 30
0.0
 40
4.9
100
AcDbArc
 50
0.0
 51
180.0
1001
ACAD
1000
TCW40_DEV_WIDTH
1002
{
1040
0.039370078593
1002
}
1001
TCAD
1000
TCW_CUSTOM_DATA
1002
{
1000
#$AUX@_TCDO_SOURCE_COLOR
1070
           3
1071
        0
1000
#$AUX@_TCDO_PARENT_ID
1070
           3
1071
      219
1000
#$AUX@_TCDO_GTYPE
1070
           3
1071
        1
1000
#$AUX@_TCDO_VISIBILITY
1070
           3
1071
        0
1002
}
  0
LINE
  5
11D
100
AcDbEntity
  8
図
370
         100
  6
Continuous
 62
           7
100
AcDbLine
 10
176.749999999898
 20
83.5
 30
0.0
 11
166.649999999895
 21
83.5
 31
0.0
1001
ACAD
1000
TCW40_DEV_WIDTH
1002
{
1040
0.039370078593
1002
}
1001
TCAD
1000
TCW_CUSTOM_DATA
1002
{
1000
#$AUX@_TCDO_SOURCE_COLOR
1070
           3
1071
        0
1000
#$AUX@_TCDO_PARENT_ID
1070
           3
1071
      219
1000
#$AUX@_TCDO_GTYPE
1070
           3
1071
        1
1000
#$AUX@_TCDO_VISIBILITY
1070
           3
1071
        0
1002
}
  0
LINE
  5
11E
100
AcDbEntity
  8
図
370
         100
  6
Continuous
 62
           7
100
AcDbLine
 10
186.549999999997
 20
85.400000000001
 30
0.0
 11
186.549999999997
 21
83.5
 31
0.0
1001
ACAD
1000
TCW40_DEV_WIDTH
1002
{
1040
0.039370078593
1002
}
1001
TCAD
1000
TCW_CUSTOM_DATA
1002
{
1000
#$AUX@_TCDO_SOURCE_COLOR
1070
           3
1071
        0
1000
#$AUX@_TCDO_PARENT_ID
1070
           3
1071
      219
1000
#$AUX@_TCDO_GTYPE
1070
           3
1071
        1
1000
#$AUX@_TCDO_VISIBILITY
1070
           3
1071
        0
1002
}
  0
LINE
  5
11F
100
AcDbEntity
  8
図
370
         100
  6
Continuous
 62
           7
100
AcDbLine
 10
176.749999999898
 20
85.400000000001
 30
0.0
 11
176.749999999898
 21
83.5
 31
0.0
1001
ACAD
1000
TCW40_DEV_WIDTH
1002
{
1040
0.039370078593
1002
}
1001
TCAD
1000
TCW_CUSTOM_DATA
1002
{
1000
#$AUX@_TCDO_SOURCE_COLOR
1070
           3
1071
        0
1000
#$AUX@_TCDO_PARENT_ID
1070
           3
1071
      219
1000
#$AUX@_TCDO_GTYPE
1070
           3
1071
        1
1000
#$AUX@_TCDO_VISIBILITY
1070
           3
1071
        0
1002
}
  0
LINE
  5
120
100
AcDbEntity
  8
図
370
         100
  6
Continuous
 62
           7
100
AcDbLine
 10
165.149999999895
 20
94.2
 30
0.0
 11
166.649999999895
 21
94.2
 31
0.0
1001
ACAD
1000
TCW40_DEV_WIDTH
1002
{
1040
0.039370078593
1002
}
1001
TCAD
1000
TCW_CUSTOM_DATA
1002
{
1000
#$AUX@_TCDO_SOURCE_COLOR
1070
           3
1071
        0
1000
#$AUX@_TCDO_PARENT_ID
1070
           3
1071
      219
1000
#$AUX@_TCDO_GTYPE
1070
           3
1071
        0
1000
#$AUX@_TCDO_VISIBILITY
1070
           3
1071
        0
1002
}
  0
LINE
  5
121
100
AcDbEntity
  8
図
370
         100
  6
Continuous
 62
           7
100
AcDbLine
 10
166.649999999895
 20
94.2
 30
0.0
 11
166.649999999895
 21
83.5
 31
0.0
1001
ACAD
1000
TCW40_DEV_WIDTH
1002
{
1040
0.039370078593
1002
}
1001
TCAD
1000
TCW_CUSTOM_DATA
1002
{
1000
#$AUX@_TCDO_SOURCE_COLOR
1070
           3
1071
        0
1000
#$AUX@_TCDO_PARENT_ID
1070
           3
1071
      219
1000
#$AUX@_TCDO_GTYPE
1070
           3
1071
        0
1000
#$AUX@_TCDO_VISIBILITY
1070
           3
1071
        0
1002
}
  0
LINE
  5
122
100
AcDbEntity
  8
図
370
         100
  6
Continuous
 62
           7
100
AcDbLine
 10
165.149999999895
 20
83.5
 30
0.0
 11
166.649999999895
 21
83.5
 31
0.0
1001
ACAD
1000
TCW40_DEV_WIDTH
1002
{
1040
0.039370078593
1002
}
1001
TCAD
1000
TCW_CUSTOM_DATA
1002
{
1000
#$AUX@_TCDO_SOURCE_COLOR
1070
           3
1071
        0
1000
#$AUX@_TCDO_PARENT_ID
1070
           3
1071
      219
1000
#$AUX@_TCDO_GTYPE
1070
           3
1071
        1
1000
#$AUX@_TCDO_VISIBILITY
1070
           3
1071
        0
1002
}
  0
LINE
  5
123
100
AcDbEntity
  8
図
370
         100
  6
Continuous
 62
           7
100
AcDbLine
 10
165.149999999895
 20
83.5
 30
0.0
 11
165.149999999895
 21
94.2
 31
0.0
1001
ACAD
1000
TCW40_DEV_WIDTH
1002
{
1040
0.039370078593
1002
}
1001
TCAD
1000
TCW_CUSTOM_DATA
1002
{
1000
#$AUX@_TCDO_SOURCE_COLOR
1070
           3
1071
        0
1000
#$AUX@_TCDO_PARENT_ID
1070
           3
1071
      219
1000
#$AUX@_TCDO_GTYPE
1070
           3
1071
        1
1000
#$AUX@_TCDO_VISIBILITY
1070
           3
1071
        0
1002
}
  0
ARC
  5
124
100
AcDbEntity
  8
図
370
         100
  6
Continuous
 62
           7
100
AcDbCircle
 10
159.65
 20
94.2
 30
0.0
 40
0.5
100
AcDbArc
 50
90.0
 51
180.0
1001
ACAD
1000
TCW40_DEV_WIDTH
1002
{
1040
0.039370078593
1002
}
1001
TCAD
1000
TCW_CUSTOM_DATA
1002
{
1000
#$AUX@_TCDO_SOURCE_COLOR
1070
           3
1071
        0
1000
#$AUX@_TCDO_PARENT_ID
1070
           3
1071
      219
1000
#$AUX@_TCDO_GTYPE
1070
           3
1071
        1
1000
#$AUX@_TCDO_VISIBILITY
1070
           3
1071
        0
1002
}
  0
LINE
  5
125
100
AcDbEntity
  8
図
370
         100
  6
Continuous
 62
           7
100
AcDbLine
 10
159.15
 20
92.7
 30
0.0
 11
159.15
 21
94.2
 31
0.0
1001
ACAD
1000
TCW40_DEV_WIDTH
1002
{
1040
0.039370078593
1002
}
1001
TCAD
1000
TCW_CUSTOM_DATA
1002
{
1000
#$AUX@_TCDO_SOURCE_COLOR
1070
           3
1071
        0
1000
#$AUX@_TCDO_PARENT_ID
1070
           3
1071
      219
1000
#$AUX@_TCDO_GTYPE
1070
           3
1071
        1
1000
#$AUX@_TCDO_VISIBILITY
1070
           3
1071
        0
1002
}
  0
ARC
  5
126
100
AcDbEntity
  8
図
370
         100
  6
Continuous
 62
           7
100
AcDbCircle
 10
159.15
 20
86.7
 30
0.0
 40
6.0
100
AcDbArc
 50
0.0
 51
90.0
1001
ACAD
1000
TCW40_DEV_WIDTH
1002
{
1040
0.039370078593
1002
}
1001
TCAD
1000
TCW_CUSTOM_DATA
1002
{
1000
#$AUX@_TCDO_SOURCE_COLOR
1070
           3
1071
        0
1000
#$AUX@_TCDO_PARENT_ID
1070
           3
1071
      219
1000
#$AUX@_TCDO_GTYPE
1070
           3
1071
        1
1000
#$AUX@_TCDO_VISIBILITY
1070
           3
1071
        0
1002
}
  0
LINE
  5
127
100
AcDbEntity
  8
図
370
         100
  6
Continuous
 62
           7
100
AcDbLine
 10
162.15
 20
75.2
 30
0.0
 11
163.65
 21
77.7
 31
0.0
1001
ACAD
1000
TCW40_DEV_WIDTH
1002
{
1040
0.039370078593
1002
}
1001
TCAD
1000
TCW_CUSTOM_DATA
1002
{
1000
#$AUX@_TCDO_SOURCE_COLOR
1070
           3
1071
        0
1000
#$AUX@_TCDO_PARENT_ID
1070
           3
1071
      219
1000
#$AUX@_TCDO_GTYPE
1070
           3
1071
        1
1000
#$AUX@_TCDO_VISIBILITY
1070
           3
1071
        0
1002
}
  0
LINE
  5
128
100
AcDbEntity
  8
図
370
         100
  6
Continuous
 62
           7
100
AcDbLine
 10
165.15
 20
77.7
 30
0.0
 11
162.15
 21
75.2
 31
0.0
1001
ACAD
1000
TCW40_DEV_WIDTH
1002
{
1040
0.039370078593
1002
}
1001
TCAD
1000
TCW_CUSTOM_DATA
1002
{
1000
#$AUX@_TCDO_SOURCE_COLOR
1070
           3
1071
        0
1000
#$AUX@_TCDO_PARENT_ID
1070
           3
1071
      219
1000
#$AUX@_TCDO_GTYPE
1070
           3
1071
        1
1000
#$AUX@_TCDO_VISIBILITY
1070
           3
1071
        0
1002
}
  0
LINE
  5
129
100
AcDbEntity
  8
図
370
         100
  6
Continuous
 62
           7
100
AcDbLine
 10
163.65
 20
86.7
 30
0.0
 11
163.65
 21
77.7
 31
0.0
1001
ACAD
1000
TCW40_DEV_WIDTH
1002
{
1040
0.039370078593
1002
}
1001
TCAD
1000
TCW_CUSTOM_DATA
1002
{
1000
#$AUX@_TCDO_SOURCE_COLOR
1070
           3
1071
        0
1000
#$AUX@_TCDO_PARENT_ID
1070
           3
1071
      219
1000
#$AUX@_TCDO_GTYPE
1070
           3
1071
        1
1000
#$AUX@_TCDO_VISIBILITY
1070
           3
1071
        0
1002
}
  0
ARC
  5
12A
100
AcDbEntity
  8
図
370
         100
  6
Continuous
 62
           7
100
AcDbCircle
 10
165.15
 20
86.7
 30
0.0
 40
1.5
100
AcDbArc
 50
111.039469780955
 51
180.0
1001
ACAD
1000
TCW40_DEV_WIDTH
1002
{
1040
0.039370078593
1002
}
1001
TCAD
1000
TCW_CUSTOM_DATA
1002
{
1000
#$AUX@_TCDO_SOURCE_COLOR
1070
           3
1071
        0
1000
#$AUX@_TCDO_PARENT_ID
1070
           3
1071
      219
1000
#$AUX@_TCDO_GTYPE
1070
           3
1071
        1
1000
#$AUX@_TCDO_VISIBILITY
1070
           3
1071
        0
1002
}
  0
LINE
  5
12B
100
AcDbEntity
  8
図
370
         100
  6
Continuous
 62
           7
100
AcDbLine
 10
164.984380858325
 20
88.100000000003
 30
0.0
 11
164.611483519295
 21
88.100000000003
 31
0.0
1001
ACAD
1000
TCW40_DEV_WIDTH
1002
{
1040
0.039370078593
1002
}
1001
TCAD
1000
TCW_CUSTOM_DATA
1002
{
1000
#$AUX@_TCDO_SOURCE_COLOR
1070
           3
1071
        0
1000
#$AUX@_TCDO_PARENT_ID
1070
           3
1071
      219
1000
#$AUX@_TCDO_GTYPE
1070
           3
1071
        0
1000
#$AUX@_TCDO_VISIBILITY
1070
           3
1071
        0
1002
}
  0
ARC
  5
12C
100
AcDbEntity
  8
図
370
         100
  6
Continuous
 62
           7
100
AcDbCircle
 10
165.15
 20
86.7
 30
0.0
 40
1.5
100
AcDbArc
 50
97.180755781458
 51
111.039469780955
1001
ACAD
1000
TCW40_DEV_WIDTH
1002
{
1040
0.039370078593
1002
}
1001
TCAD
1000
TCW_CUSTOM_DATA
1002
{
1000
#$AUX@_TCDO_SOURCE_COLOR
1070
           3
1071
        0
1000
#$AUX@_TCDO_PARENT_ID
1070
           3
1071
      219
1000
#$AUX@_TCDO_GTYPE
1070
           3
1071
        1
1000
#$AUX@_TCDO_VISIBILITY
1070
           3
1071
        0
1002
}
  0
LINE
  5
12D
100
AcDbEntity
  8
図
370
         100
  6
Continuous
 62
           7
100
AcDbLine
 10
165.15
 20
83.3
 30
0.0
 11
165.15
 21
83.5
 31
0.0
1001
ACAD
1000
TCW40_DEV_WIDTH
1002
{
1040
0.039370078593
1002
}
1001
TCAD
1000
TCW_CUSTOM_DATA
1002
{
1000
#$AUX@_TCDO_SOURCE_COLOR
1070
           3
1071
        0
1000
#$AUX@_TCDO_PARENT_ID
1070
           3
1071
      219
1000
#$AUX@_TCDO_GTYPE
1070
           3
1071
        1
1000
#$AUX@_TCDO_VISIBILITY
1070
           3
1071
        0
1002
}
  0
LINE
  5
12E
100
AcDbEntity
  8
図
370
         100
  6
Continuous
 62
           7
100
AcDbLine
 10
165.15
 20
83.3
 30
0.0
 11
165.15
 21
83.5
 31
0.0
1001
ACAD
1000
TCW40_DEV_WIDTH
1002
{
1040
0.039370078593
1002
}
1001
TCAD
1000
TCW_CUSTOM_DATA
1002
{
1000
#$AUX@_TCDO_SOURCE_COLOR
1070
           3
1071
        0
1000
#$AUX@_TCDO_PARENT_ID
1070
           3
1071
      219
1000
#$AUX@_TCDO_GTYPE
1070
           3
1071
        1
1000
#$AUX@_TCDO_VISIBILITY
1070
           3
1071
        0
1002
}
  0
LINE
  5
12F
100
AcDbEntity
  8
図
370
         100
  6
Continuous
 62
           7
100
AcDbLine
 10
170.15
 20
94.7
 30
0.0
 11
170.15
 21
96.9
 31
0.0
1001
ACAD
1000
TCW40_DEV_WIDTH
1002
{
1040
0.039370078593
1002
}
1001
TCAD
1000
TCW_CUSTOM_DATA
1002
{
1000
#$AUX@_TCDO_SOURCE_COLOR
1070
           3
1071
        0
1000
#$AUX@_TCDO_PARENT_ID
1070
           3
1071
      219
1000
#$AUX@_TCDO_GTYPE
1070
           3
1071
        1
1000
#$AUX@_TCDO_VISIBILITY
1070
           3
1071
        0
1002
}
  0
LINE
  5
130
100
AcDbEntity
  8
図
370
         100
  6
Continuous
 62
           7
100
AcDbLine
 10
170.15
 20
96.9
 30
0.0
 11
170.65
 21
96.9
 31
0.0
1001
ACAD
1000
TCW40_DEV_WIDTH
1002
{
1040
0.039370078593
1002
}
1001
TCAD
1000
TCW_CUSTOM_DATA
1002
{
1000
#$AUX@_TCDO_SOURCE_COLOR
1070
           3
1071
        0
1000
#$AUX@_TCDO_PARENT_ID
1070
           3
1071
      219
1000
#$AUX@_TCDO_GTYPE
1070
           3
1071
        1
1000
#$AUX@_TCDO_VISIBILITY
1070
           3
1071
        0
1002
}
  0
ARC
  5
131
100
AcDbEntity
  8
図
370
         100
  6
Continuous
 62
           7
100
AcDbCircle
 10
171.15
 20
96.9
 30
0.0
 40
0.5
100
AcDbArc
 50
90.0
 51
180.000000000005
1001
ACAD
1000
TCW40_DEV_WIDTH
1002
{
1040
0.039370078593
1002
}
1001
TCAD
1000
TCW_CUSTOM_DATA
1002
{
1000
#$AUX@_TCDO_SOURCE_COLOR
1070
           3
1071
        0
1000
#$AUX@_TCDO_PARENT_ID
1070
           3
1071
      219
1000
#$AUX@_TCDO_GTYPE
1070
           3
1071
        0
1000
#$AUX@_TCDO_VISIBILITY
1070
           3
1071
        0
1002
}
  0
LINE
  5
132
100
AcDbEntity
  8
図
370
         100
  6
Continuous
 62
           7
100
AcDbLine
 10
171.15
 20
97.4
 30
0.0
 11
192.15
 21
97.4
 31
0.0
1001
ACAD
1000
TCW40_DEV_WIDTH
1002
{
1040
0.039370078593
1002
}
1001
TCAD
1000
TCW_CUSTOM_DATA
1002
{
1000
#$AUX@_TCDO_SOURCE_COLOR
1070
           3
1071
        0
1000
#$AUX@_TCDO_PARENT_ID
1070
           3
1071
      219
1000
#$AUX@_TCDO_GTYPE
1070
           3
1071
        0
1000
#$AUX@_TCDO_VISIBILITY
1070
           3
1071
        0
1002
}
  0
ARC
  5
133
100
AcDbEntity
  8
図
370
         100
  6
Continuous
 62
           7
100
AcDbCircle
 10
192.15
 20
96.9
 30
0.0
 40
0.5
100
AcDbArc
 50
0.0
 51
90.0
1001
ACAD
1000
TCW40_DEV_WIDTH
1002
{
1040
0.039370078593
1002
}
1001
TCAD
1000
TCW_CUSTOM_DATA
1002
{
1000
#$AUX@_TCDO_SOURCE_COLOR
1070
           3
1071
        0
1000
#$AUX@_TCDO_PARENT_ID
1070
           3
1071
      219
1000
#$AUX@_TCDO_GTYPE
1070
           3
1071
        0
1000
#$AUX@_TCDO_VISIBILITY
1070
           3
1071
        0
1002
}
  0
LINE
  5
134
100
AcDbEntity
  8
図
370
         100
  6
Continuous
 62
           7
100
AcDbLine
 10
192.65
 20
96.9
 30
0.0
 11
192.65
 21
94.7
 31
0.0
1001
ACAD
1000
TCW40_DEV_WIDTH
1002
{
1040
0.039370078593
1002
}
1001
TCAD
1000
TCW_CUSTOM_DATA
1002
{
1000
#$AUX@_TCDO_SOURCE_COLOR
1070
           3
1071
        0
1000
#$AUX@_TCDO_PARENT_ID
1070
           3
1071
      219
1000
#$AUX@_TCDO_GTYPE
1070
           3
1071
        0
1000
#$AUX@_TCDO_VISIBILITY
1070
           3
1071
        0
1002
}
  0
ARC
  5
135
100
AcDbEntity
  8
図
370
         100
  6
Continuous
 62
           7
100
AcDbCircle
 10
165.649999999895
 20
94.2
 30
0.0
 40
0.5
100
AcDbArc
 50
90.0
 51
180.0
1001
ACAD
1000
TCW40_DEV_WIDTH
1002
{
1040
0.039370078593
1002
}
1001
TCAD
1000
TCW_CUSTOM_DATA
1002
{
1000
#$AUX@_TCDO_SOURCE_COLOR
1070
           3
1071
        0
1000
#$AUX@_TCDO_PARENT_ID
1070
           3
1071
      219
1000
#$AUX@_TCDO_GTYPE
1070
           3
1071
        1
1000
#$AUX@_TCDO_VISIBILITY
1070
           3
1071
        0
1002
}
  0
LINE
  5
136
100
AcDbEntity
  8
図
370
         100
  6
Continuous
 62
           7
100
AcDbLine
 10
196.65
 20
94.7
 30
0.0
 11
197.65
 21
94.7
 31
0.0
1001
ACAD
1000
TCW40_DEV_WIDTH
1002
{
1040
0.039370078593
1002
}
1001
TCAD
1000
TCW_CUSTOM_DATA
1002
{
1000
#$AUX@_TCDO_SOURCE_COLOR
1070
           3
1071
        0
1000
#$AUX@_TCDO_PARENT_ID
1070
           3
1071
      219
1000
#$AUX@_TCDO_GTYPE
1070
           3
1071
        1
1000
#$AUX@_TCDO_VISIBILITY
1070
           3
1071
        0
1002
}
  0
LINE
  5
137
100
AcDbEntity
  8
図
370
         100
  6
Continuous
 62
           7
100
AcDbLine
 10
196.65
 20
94.7
 30
0.0
 11
166.649999999895
 21
94.7
 31
0.0
1001
ACAD
1000
TCW40_DEV_WIDTH
1002
{
1040
0.039370078593
1002
}
1001
TCAD
1000
TCW_CUSTOM_DATA
1002
{
1000
#$AUX@_TCDO_SOURCE_COLOR
1070
           3
1071
        0
1000
#$AUX@_TCDO_PARENT_ID
1070
           3
1071
      219
1000
#$AUX@_TCDO_GTYPE
1070
           3
1071
        1
1000
#$AUX@_TCDO_VISIBILITY
1070
           3
1071
        0
1002
}
  0
LINE
  5
138
100
AcDbEntity
  8
図
370
         100
  6
Continuous
 62
           7
100
AcDbLine
 10
166.649999999895
 20
94.7
 30
0.0
 11
165.649999999895
 21
94.7
 31
0.0
1001
ACAD
1000
TCW40_DEV_WIDTH
1002
{
1040
0.039370078593
1002
}
1001
TCAD
1000
TCW_CUSTOM_DATA
1002
{
1000
#$AUX@_TCDO_SOURCE_COLOR
1070
           3
1071
        0
1000
#$AUX@_TCDO_PARENT_ID
1070
           3
1071
      219
1000
#$AUX@_TCDO_GTYPE
1070
           3
1071
        1
1000
#$AUX@_TCDO_VISIBILITY
1070
           3
1071
        0
1002
}
  0
LINE
  5
139
100
AcDbEntity
  8
図
370
         100
  6
Continuous
 62
           7
100
AcDbLine
 10
159.65
 20
94.7
 30
0.0
 11
165.649999999895
 21
94.7
 31
0.0
1001
ACAD
1000
TCW40_DEV_WIDTH
1002
{
1040
0.039370078593
1002
}
1001
TCAD
1000
TCW_CUSTOM_DATA
1002
{
1000
#$AUX@_TCDO_SOURCE_COLOR
1070
           3
1071
        0
1000
#$AUX@_TCDO_PARENT_ID
1070
           3
1071
      219
1000
#$AUX@_TCDO_GTYPE
1070
           3
1071
        1
1000
#$AUX@_TCDO_VISIBILITY
1070
           3
1071
        0
1002
}
  0
LINE
  5
13A
100
AcDbEntity
  8
図
370
         100
  6
Continuous
 62
           7
100
AcDbLine
 10
198.15
 20
94.3
 30
0.0
 11
198.15
 21
94.2
 31
0.0
1001
ACAD
1000
TCW40_DEV_WIDTH
1002
{
1040
0.039370078593
1002
}
1001
TCAD
1000
TCW_CUSTOM_DATA
1002
{
1000
#$AUX@_TCDO_SOURCE_COLOR
1070
           3
1071
        0
1000
#$AUX@_TCDO_PARENT_ID
1070
           3
1071
      219
1000
#$AUX@_TCDO_GTYPE
1070
           3
1071
        1
1000
#$AUX@_TCDO_VISIBILITY
1070
           3
1071
        0
1002
}
  0
ARC
  5
13B
100
AcDbEntity
  8
図
370
         100
  6
Continuous
 62
           7
100
AcDbCircle
 10
197.65
 20
94.2
 30
0.0
 40
0.5
100
AcDbArc
 50
0.0
 51
90.000000000016
1001
ACAD
1000
TCW40_DEV_WIDTH
1002
{
1040
0.039370078593
1002
}
1001
TCAD
1000
TCW_CUSTOM_DATA
1002
{
1000
#$AUX@_TCDO_SOURCE_COLOR
1070
           3
1071
        0
1000
#$AUX@_TCDO_PARENT_ID
1070
           3
1071
      219
1000
#$AUX@_TCDO_GTYPE
1070
           3
1071
        0
1000
#$AUX@_TCDO_VISIBILITY
1070
           3
1071
        0
1002
}
  0
LINE
  5
13C
100
AcDbEntity
  8
図
370
         100
  6
Continuous
 62
           7
100
AcDbLine
 10
197.65
 20
94.7
 30
0.0
 11
197.75
 21
94.7
 31
0.0
1001
ACAD
1000
TCW40_DEV_WIDTH
1002
{
1040
0.039370078593
1002
}
1001
TCAD
1000
TCW_CUSTOM_DATA
1002
{
1000
#$AUX@_TCDO_SOURCE_COLOR
1070
           3
1071
        0
1000
#$AUX@_TCDO_PARENT_ID
1070
           3
1071
      219
1000
#$AUX@_TCDO_GTYPE
1070
           3
1071
        1
1000
#$AUX@_TCDO_VISIBILITY
1070
           3
1071
        0
1002
}
  0
ARC
  5
13D
100
AcDbEntity
  8
図
370
         100
  6
Continuous
 62
           7
100
AcDbCircle
 10
197.75
 20
94.3
 30
0.0
 40
0.4
100
AcDbArc
 50
0.0
 51
90.0
1001
ACAD
1000
TCW40_DEV_WIDTH
1002
{
1040
0.039370078593
1002
}
1001
TCAD
1000
TCW_CUSTOM_DATA
1002
{
1000
#$AUX@_TCDO_SOURCE_COLOR
1070
           3
1071
        0
1000
#$AUX@_TCDO_PARENT_ID
1070
           3
1071
      219
1000
#$AUX@_TCDO_GTYPE
1070
           3
1071
        1
1000
#$AUX@_TCDO_VISIBILITY
1070
           3
1071
        0
1002
}
  0
ARC
  5
13E
100
AcDbEntity
  8
図
370
         100
  6
Continuous
 62
           7
100
AcDbCircle
 10
196.65
 20
58.0
 30
0.0
 40
1.5
100
AcDbArc
 50
-90.0
 51
0.0
1001
ACAD
1000
TCW40_DEV_WIDTH
1002
{
1040
0.039370078593
1002
}
1001
TCAD
1000
TCW_CUSTOM_DATA
1002
{
1000
#$AUX@_TCDO_SOURCE_COLOR
1070
           3
1071
        0
1000
#$AUX@_TCDO_PARENT_ID
1070
           3
1071
      218
1000
#$AUX@_TCDO_GTYPE
1070
           3
1071
        1
1000
#$AUX@_TCDO_VISIBILITY
1070
           3
1071
        0
1002
}
  0
LINE
  5
13F
100
AcDbEntity
  8
図
370
         100
  6
Continuous
 62
           7
100
AcDbLine
 10
198.15
 20
58.0
 30
0.0
 11
198.15
 21
62.4
 31
0.0
1001
ACAD
1000
TCW40_DEV_WIDTH
1002
{
1040
0.039370078593
1002
}
1001
TCAD
1000
TCW_CUSTOM_DATA
1002
{
1000
#$AUX@_TCDO_SOURCE_COLOR
1070
           3
1071
        0
1000
#$AUX@_TCDO_PARENT_ID
1070
           3
1071
      218
1000
#$AUX@_TCDO_GTYPE
1070
           3
1071
        1
1000
#$AUX@_TCDO_VISIBILITY
1070
           3
1071
        0
1002
}
  0
LINE
  5
140
100
AcDbEntity
  8
図
370
         100
  6
Continuous
 62
           7
100
AcDbLine
 10
196.65
 20
58.0
 30
0.0
 11
198.15
 21
58.0
 31
0.0
1001
ACAD
1000
TCW40_DEV_WIDTH
1002
{
1040
0.039370078593
1002
}
1001
TCAD
1000
TCW_CUSTOM_DATA
1002
{
1000
#$AUX@_TCDO_SOURCE_COLOR
1070
           3
1071
        0
1000
#$AUX@_TCDO_PARENT_ID
1070
           3
1071
      218
1000
#$AUX@_TCDO_GTYPE
1070
           3
1071
        0
1000
#$AUX@_TCDO_VISIBILITY
1070
           3
1071
        0
1002
}
  0
LINE
  5
141
100
AcDbEntity
  8
図
370
         100
  6
Continuous
 62
           7
100
AcDbLine
 10
196.65
 20
56.5
 30
0.0
 11
196.65
 21
58.0
 31
0.0
1001
ACAD
1000
TCW40_DEV_WIDTH
1002
{
1040
0.039370078593
1002
}
1001
TCAD
1000
TCW_CUSTOM_DATA
1002
{
1000
#$AUX@_TCDO_SOURCE_COLOR
1070
           3
1071
        0
1000
#$AUX@_TCDO_PARENT_ID
1070
           3
1071
      218
1000
#$AUX@_TCDO_GTYPE
1070
           3
1071
        0
1000
#$AUX@_TCDO_VISIBILITY
1070
           3
1071
        0
1002
}
  0
LINE
  5
142
100
AcDbEntity
  8
図
370
         100
  6
Continuous
 62
           7
100
AcDbLine
 10
166.65
 20
56.5
 30
0.0
 11
196.65
 21
56.5
 31
0.0
1001
ACAD
1000
TCW40_DEV_WIDTH
1002
{
1040
0.039370078593
1002
}
1001
TCAD
1000
TCW_CUSTOM_DATA
1002
{
1000
#$AUX@_TCDO_SOURCE_COLOR
1070
           3
1071
        0
1000
#$AUX@_TCDO_PARENT_ID
1070
           3
1071
      218
1000
#$AUX@_TCDO_GTYPE
1070
           3
1071
        1
1000
#$AUX@_TCDO_VISIBILITY
1070
           3
1071
        0
1002
}
  0
LINE
  5
143
100
AcDbEntity
  8
図
370
         100
  6
Continuous
 62
           7
100
AcDbLine
 10
196.65
 20
62.4
 30
0.0
 11
196.65
 21
58.0
 31
0.0
1001
ACAD
1000
TCW40_DEV_WIDTH
1002
{
1040
0.039370078593
1002
}
1001
TCAD
1000
TCW_CUSTOM_DATA
1002
{
1000
#$AUX@_TCDO_SOURCE_COLOR
1070
           3
1071
        0
1000
#$AUX@_TCDO_PARENT_ID
1070
           3
1071
      218
1000
#$AUX@_TCDO_GTYPE
1070
           3
1071
        0
1000
#$AUX@_TCDO_VISIBILITY
1070
           3
1071
        0
1002
}
  0
LINE
  5
144
100
AcDbEntity
  8
図
370
         100
  6
Continuous
 62
           7
100
AcDbLine
 10
196.65
 20
58.0
 30
0.0
 11
166.65
 21
58.0
 31
0.0
1001
ACAD
1000
TCW40_DEV_WIDTH
1002
{
1040
0.039370078593
1002
}
1001
TCAD
1000
TCW_CUSTOM_DATA
1002
{
1000
#$AUX@_TCDO_SOURCE_COLOR
1070
           3
1071
        0
1000
#$AUX@_TCDO_PARENT_ID
1070
           3
1071
      218
1000
#$AUX@_TCDO_GTYPE
1070
           3
1071
        0
1000
#$AUX@_TCDO_VISIBILITY
1070
           3
1071
        0
1002
}
  0
LINE
  5
145
100
AcDbEntity
  8
図
370
         100
  6
Continuous
 62
           7
100
AcDbLine
 10
166.65
 20
58.0
 30
0.0
 11
166.65
 21
62.4
 31
0.0
1001
ACAD
1000
TCW40_DEV_WIDTH
1002
{
1040
0.039370078593
1002
}
1001
TCAD
1000
TCW_CUSTOM_DATA
1002
{
1000
#$AUX@_TCDO_SOURCE_COLOR
1070
           3
1071
        0
1000
#$AUX@_TCDO_PARENT_ID
1070
           3
1071
      218
1000
#$AUX@_TCDO_GTYPE
1070
           3
1071
        0
1000
#$AUX@_TCDO_VISIBILITY
1070
           3
1071
        0
1002
}
  0
LINE
  5
146
100
AcDbEntity
  8
図
370
         100
  6
Continuous
 62
           7
100
AcDbLine
 10
165.15
 20
62.4
 30
0.0
 11
165.15
 21
58.0
 31
0.0
1001
ACAD
1000
TCW40_DEV_WIDTH
1002
{
1040
0.039370078593
1002
}
1001
TCAD
1000
TCW_CUSTOM_DATA
1002
{
1000
#$AUX@_TCDO_SOURCE_COLOR
1070
           3
1071
        0
1000
#$AUX@_TCDO_PARENT_ID
1070
           3
1071
      218
1000
#$AUX@_TCDO_GTYPE
1070
           3
1071
        1
1000
#$AUX@_TCDO_VISIBILITY
1070
           3
1071
        0
1002
}
  0
LINE
  5
147
100
AcDbEntity
  8
図
370
         100
  6
Continuous
 62
           7
100
AcDbLine
 10
166.65
 20
58.0
 30
0.0
 11
166.65
 21
56.5
 31
0.0
1001
ACAD
1000
TCW40_DEV_WIDTH
1002
{
1040
0.039370078593
1002
}
1001
TCAD
1000
TCW_CUSTOM_DATA
1002
{
1000
#$AUX@_TCDO_SOURCE_COLOR
1070
           3
1071
        0
1000
#$AUX@_TCDO_PARENT_ID
1070
           3
1071
      218
1000
#$AUX@_TCDO_GTYPE
1070
           3
1071
        0
1000
#$AUX@_TCDO_VISIBILITY
1070
           3
1071
        0
1002
}
  0
ARC
  5
148
100
AcDbEntity
  8
図
370
         100
  6
Continuous
 62
           7
100
AcDbCircle
 10
166.65
 20
58.0
 30
0.0
 40
1.5
100
AcDbArc
 50
180.0
 51
270.0
1001
ACAD
1000
TCW40_DEV_WIDTH
1002
{
1040
0.039370078593
1002
}
1001
TCAD
1000
TCW_CUSTOM_DATA
1002
{
1000
#$AUX@_TCDO_SOURCE_COLOR
1070
           3
1071
        0
1000
#$AUX@_TCDO_PARENT_ID
1070
           3
1071
      218
1000
#$AUX@_TCDO_GTYPE
1070
           3
1071
        1
1000
#$AUX@_TCDO_VISIBILITY
1070
           3
1071
        0
1002
}
  0
LINE
  5
149
100
AcDbEntity
  8
図
370
         100
  6
Continuous
 62
           7
100
AcDbLine
 10
165.15
 20
58.0
 30
0.0
 11
166.65
 21
58.0
 31
0.0
1001
ACAD
1000
TCW40_DEV_WIDTH
1002
{
1040
0.039370078593
1002
}
1001
TCAD
1000
TCW_CUSTOM_DATA
1002
{
1000
#$AUX@_TCDO_SOURCE_COLOR
1070
           3
1071
        0
1000
#$AUX@_TCDO_PARENT_ID
1070
           3
1071
      218
1000
#$AUX@_TCDO_GTYPE
1070
           3
1071
        0
1000
#$AUX@_TCDO_VISIBILITY
1070
           3
1071
        0
1002
}
  0
LINE
  5
14A
100
AcDbEntity
  8
図
370
         100
  6
Continuous
 62
           7
100
AcDbLine
 10
176.65
 20
59.8
 30
0.0
 11
176.65
 21
65.7
 31
0.0
1001
ACAD
1000
TCW40_DEV_WIDTH
1002
{
1040
0.039370078593
1002
}
1001
TCAD
1000
TCW_CUSTOM_DATA
1002
{
1000
#$AUX@_TCDO_SOURCE_COLOR
1070
           3
1071
        0
1000
#$AUX@_TCDO_PARENT_ID
1070
           3
1071
      218
1000
#$AUX@_TCDO_GTYPE
1070
           3
1071
        1
1000
#$AUX@_TCDO_VISIBILITY
1070
           3
1071
        0
1002
}
  0
ARC
  5
14B
100
AcDbEntity
  8
図
370
         100
  6
Continuous
 62
           7
100
AcDbCircle
 10
177.65
 20
65.7
 30
0.0
 40
1.0
100
AcDbArc
 50
90.0
 51
180.0
1001
ACAD
1000
TCW40_DEV_WIDTH
1002
{
1040
0.039370078593
1002
}
1001
TCAD
1000
TCW_CUSTOM_DATA
1002
{
1000
#$AUX@_TCDO_SOURCE_COLOR
1070
           3
1071
        0
1000
#$AUX@_TCDO_PARENT_ID
1070
           3
1071
      218
1000
#$AUX@_TCDO_GTYPE
1070
           3
1071
        1
1000
#$AUX@_TCDO_VISIBILITY
1070
           3
1071
        0
1002
}
  0
LINE
  5
14C
100
AcDbEntity
  8
図
370
         100
  6
Continuous
 62
           7
100
AcDbLine
 10
177.65
 20
66.7
 30
0.0
 11
185.65
 21
66.7
 31
0.0
1001
ACAD
1000
TCW40_DEV_WIDTH
1002
{
1040
0.039370078593
1002
}
1001
TCAD
1000
TCW_CUSTOM_DATA
1002
{
1000
#$AUX@_TCDO_SOURCE_COLOR
1070
           3
1071
        0
1000
#$AUX@_TCDO_PARENT_ID
1070
           3
1071
      218
1000
#$AUX@_TCDO_GTYPE
1070
           3
1071
        1
1000
#$AUX@_TCDO_VISIBILITY
1070
           3
1071
        0
1002
}
  0
ARC
  5
14D
100
AcDbEntity
  8
図
370
         100
  6
Continuous
 62
           7
100
AcDbCircle
 10
185.65
 20
65.7
 30
0.0
 40
1.0
100
AcDbArc
 50
0.0
 51
90.0
1001
ACAD
1000
TCW40_DEV_WIDTH
1002
{
1040
0.039370078593
1002
}
1001
TCAD
1000
TCW_CUSTOM_DATA
1002
{
1000
#$AUX@_TCDO_SOURCE_COLOR
1070
           3
1071
        0
1000
#$AUX@_TCDO_PARENT_ID
1070
           3
1071
      218
1000
#$AUX@_TCDO_GTYPE
1070
           3
1071
        1
1000
#$AUX@_TCDO_VISIBILITY
1070
           3
1071
        0
1002
}
  0
LINE
  5
14E
100
AcDbEntity
  8
図
370
         100
  6
Continuous
 62
           7
100
AcDbLine
 10
184.65
 20
64.7
 30
0.0
 11
184.65
 21
59.8
 31
0.0
1001
ACAD
1000
TCW40_DEV_WIDTH
1002
{
1040
0.039370078593
1002
}
1001
TCAD
1000
TCW_CUSTOM_DATA
1002
{
1000
#$AUX@_TCDO_SOURCE_COLOR
1070
           3
1071
        0
1000
#$AUX@_TCDO_PARENT_ID
1070
           3
1071
      218
1000
#$AUX@_TCDO_GTYPE
1070
           3
1071
        1
1000
#$AUX@_TCDO_VISIBILITY
1070
           3
1071
        0
1002
}
  0
LINE
  5
14F
100
AcDbEntity
  8
図
370
         100
  6
Continuous
 62
           7
100
AcDbLine
 10
178.65
 20
64.7
 30
0.0
 11
184.65
 21
64.7
 31
0.0
1001
ACAD
1000
TCW40_DEV_WIDTH
1002
{
1040
0.039370078593
1002
}
1001
TCAD
1000
TCW_CUSTOM_DATA
1002
{
1000
#$AUX@_TCDO_SOURCE_COLOR
1070
           3
1071
        0
1000
#$AUX@_TCDO_PARENT_ID
1070
           3
1071
      218
1000
#$AUX@_TCDO_GTYPE
1070
           3
1071
        1
1000
#$AUX@_TCDO_VISIBILITY
1070
           3
1071
        0
1002
}
  0
LINE
  5
150
100
AcDbEntity
  8
図
370
         100
  6
Continuous
 62
           7
100
AcDbLine
 10
186.65
 20
65.7
 30
0.0
 11
186.65
 21
59.8
 31
0.0
1001
ACAD
1000
TCW40_DEV_WIDTH
1002
{
1040
0.039370078593
1002
}
1001
TCAD
1000
TCW_CUSTOM_DATA
1002
{
1000
#$AUX@_TCDO_SOURCE_COLOR
1070
           3
1071
        0
1000
#$AUX@_TCDO_PARENT_ID
1070
           3
1071
      218
1000
#$AUX@_TCDO_GTYPE
1070
           3
1071
        1
1000
#$AUX@_TCDO_VISIBILITY
1070
           3
1071
        0
1002
}
  0
LINE
  5
151
100
AcDbEntity
  8
図
370
         100
  6
Continuous
 62
           7
100
AcDbLine
 10
178.65
 20
59.8
 30
0.0
 11
178.65
 21
64.7
 31
0.0
1001
ACAD
1000
TCW40_DEV_WIDTH
1002
{
1040
0.039370078593
1002
}
1001
TCAD
1000
TCW_CUSTOM_DATA
1002
{
1000
#$AUX@_TCDO_SOURCE_COLOR
1070
           3
1071
        0
1000
#$AUX@_TCDO_PARENT_ID
1070
           3
1071
      218
1000
#$AUX@_TCDO_GTYPE
1070
           3
1071
        1
1000
#$AUX@_TCDO_VISIBILITY
1070
           3
1071
        0
1002
}
  0
LINE
  5
152
100
AcDbEntity
  8
図
370
         100
  6
Continuous
 62
           7
100
AcDbLine
 10
186.65
 20
59.3
 30
0.0
 11
184.65
 21
59.3
 31
0.0
1001
ACAD
1000
TCW40_DEV_WIDTH
1002
{
1040
0.039370078593
1002
}
1001
TCAD
1000
TCW_CUSTOM_DATA
1002
{
1000
#$AUX@_TCDO_SOURCE_COLOR
1070
           3
1071
        0
1000
#$AUX@_TCDO_PARENT_ID
1070
           3
1071
      218
1000
#$AUX@_TCDO_GTYPE
1070
           3
1071
        1
1000
#$AUX@_TCDO_VISIBILITY
1070
           3
1071
        0
1002
}
  0
LINE
  5
153
100
AcDbEntity
  8
図
370
         100
  6
Continuous
 62
           7
100
AcDbLine
 10
184.65
 20
59.8
 30
0.0
 11
184.65
 21
59.3
 31
0.0
1001
ACAD
1000
TCW40_DEV_WIDTH
1002
{
1040
0.039370078593
1002
}
1001
TCAD
1000
TCW_CUSTOM_DATA
1002
{
1000
#$AUX@_TCDO_SOURCE_COLOR
1070
           3
1071
        0
1000
#$AUX@_TCDO_PARENT_ID
1070
           3
1071
      218
1000
#$AUX@_TCDO_GTYPE
1070
           3
1071
        1
1000
#$AUX@_TCDO_VISIBILITY
1070
           3
1071
        0
1002
}
  0
LINE
  5
154
100
AcDbEntity
  8
図
370
         100
  6
Continuous
 62
           7
100
AcDbLine
 10
184.65
 20
59.8
 30
0.0
 11
186.65
 21
59.8
 31
0.0
1001
ACAD
1000
TCW40_DEV_WIDTH
1002
{
1040
0.039370078593
1002
}
1001
TCAD
1000
TCW_CUSTOM_DATA
1002
{
1000
#$AUX@_TCDO_SOURCE_COLOR
1070
           3
1071
        0
1000
#$AUX@_TCDO_PARENT_ID
1070
           3
1071
      218
1000
#$AUX@_TCDO_GTYPE
1070
           3
1071
        0
1000
#$AUX@_TCDO_VISIBILITY
1070
           3
1071
        0
1002
}
  0
LINE
  5
155
100
AcDbEntity
  8
図
370
         100
  6
Continuous
 62
           7
100
AcDbLine
 10
186.65
 20
59.3
 30
0.0
 11
186.65
 21
59.8
 31
0.0
1001
ACAD
1000
TCW40_DEV_WIDTH
1002
{
1040
0.039370078593
1002
}
1001
TCAD
1000
TCW_CUSTOM_DATA
1002
{
1000
#$AUX@_TCDO_SOURCE_COLOR
1070
           3
1071
        0
1000
#$AUX@_TCDO_PARENT_ID
1070
           3
1071
      218
1000
#$AUX@_TCDO_GTYPE
1070
           3
1071
        1
1000
#$AUX@_TCDO_VISIBILITY
1070
           3
1071
        0
1002
}
  0
LINE
  5
156
100
AcDbEntity
  8
図
370
         100
  6
Continuous
 62
           7
100
AcDbLine
 10
176.65
 20
59.8
 30
0.0
 11
178.65
 21
59.8
 31
0.0
1001
ACAD
1000
TCW40_DEV_WIDTH
1002
{
1040
0.039370078593
1002
}
1001
TCAD
1000
TCW_CUSTOM_DATA
1002
{
1000
#$AUX@_TCDO_SOURCE_COLOR
1070
           3
1071
        0
1000
#$AUX@_TCDO_PARENT_ID
1070
           3
1071
      218
1000
#$AUX@_TCDO_GTYPE
1070
           3
1071
        0
1000
#$AUX@_TCDO_VISIBILITY
1070
           3
1071
        0
1002
}
  0
LINE
  5
157
100
AcDbEntity
  8
図
370
         100
  6
Continuous
 62
           7
100
AcDbLine
 10
178.65
 20
59.3
 30
0.0
 11
178.65
 21
59.8
 31
0.0
1001
ACAD
1000
TCW40_DEV_WIDTH
1002
{
1040
0.039370078593
1002
}
1001
TCAD
1000
TCW_CUSTOM_DATA
1002
{
1000
#$AUX@_TCDO_SOURCE_COLOR
1070
           3
1071
        0
1000
#$AUX@_TCDO_PARENT_ID
1070
           3
1071
      218
1000
#$AUX@_TCDO_GTYPE
1070
           3
1071
        1
1000
#$AUX@_TCDO_VISIBILITY
1070
           3
1071
        0
1002
}
  0
LINE
  5
158
100
AcDbEntity
  8
図
370
         100
  6
Continuous
 62
           7
100
AcDbLine
 10
178.65
 20
59.3
 30
0.0
 11
176.65
 21
59.3
 31
0.0
1001
ACAD
1000
TCW40_DEV_WIDTH
1002
{
1040
0.039370078593
1002
}
1001
TCAD
1000
TCW_CUSTOM_DATA
1002
{
1000
#$AUX@_TCDO_SOURCE_COLOR
1070
           3
1071
        0
1000
#$AUX@_TCDO_PARENT_ID
1070
           3
1071
      218
1000
#$AUX@_TCDO_GTYPE
1070
           3
1071
        1
1000
#$AUX@_TCDO_VISIBILITY
1070
           3
1071
        0
1002
}
  0
LINE
  5
159
100
AcDbEntity
  8
図
370
         100
  6
Continuous
 62
           7
100
AcDbLine
 10
176.65
 20
59.8
 30
0.0
 11
176.65
 21
59.3
 31
0.0
1001
ACAD
1000
TCW40_DEV_WIDTH
1002
{
1040
0.039370078593
1002
}
1001
TCAD
1000
TCW_CUSTOM_DATA
1002
{
1000
#$AUX@_TCDO_SOURCE_COLOR
1070
           3
1071
        0
1000
#$AUX@_TCDO_PARENT_ID
1070
           3
1071
      218
1000
#$AUX@_TCDO_GTYPE
1070
           3
1071
        1
1000
#$AUX@_TCDO_VISIBILITY
1070
           3
1071
        0
1002
}
  0
LINE
  5
15A
100
AcDbEntity
  8
図
370
         100
  6
Continuous
 62
           7
100
AcDbLine
 10
186.65
 20
62.4
 30
0.0
 11
189.35
 21
62.4
 31
0.0
1001
ACAD
1000
TCW40_DEV_WIDTH
1002
{
1040
0.039370078593
1002
}
1001
TCAD
1000
TCW_CUSTOM_DATA
1002
{
1000
#$AUX@_TCDO_SOURCE_COLOR
1070
           3
1071
        0
1000
#$AUX@_TCDO_PARENT_ID
1070
           3
1071
      218
1000
#$AUX@_TCDO_GTYPE
1070
           3
1071
        1
1000
#$AUX@_TCDO_VISIBILITY
1070
           3
1071
        0
1002
}
  0
LINE
  5
15B
100
AcDbEntity
  8
図
370
         100
  6
Continuous
 62
           7
100
AcDbLine
 10
178.65
 20
62.4
 30
0.0
 11
184.65
 21
62.4
 31
0.0
1001
ACAD
1000
TCW40_DEV_WIDTH
1002
{
1040
0.039370078593
1002
}
1001
TCAD
1000
TCW_CUSTOM_DATA
1002
{
1000
#$AUX@_TCDO_SOURCE_COLOR
1070
           3
1071
        0
1000
#$AUX@_TCDO_PARENT_ID
1070
           3
1071
      218
1000
#$AUX@_TCDO_GTYPE
1070
           3
1071
        1
1000
#$AUX@_TCDO_VISIBILITY
1070
           3
1071
        0
1002
}
  0
LINE
  5
15C
100
AcDbEntity
  8
図
370
         100
  6
Continuous
 62
           7
100
AcDbLine
 10
173.95
 20
62.4
 30
0.0
 11
176.65
 21
62.4
 31
0.0
1001
ACAD
1000
TCW40_DEV_WIDTH
1002
{
1040
0.039370078593
1002
}
1001
TCAD
1000
TCW_CUSTOM_DATA
1002
{
1000
#$AUX@_TCDO_SOURCE_COLOR
1070
           3
1071
        0
1000
#$AUX@_TCDO_PARENT_ID
1070
           3
1071
      218
1000
#$AUX@_TCDO_GTYPE
1070
           3
1071
        1
1000
#$AUX@_TCDO_VISIBILITY
1070
           3
1071
        0
1002
}
  0
LINE
  5
15D
100
AcDbEntity
  8
図
370
         100
  6
Continuous
 62
           7
100
AcDbLine
 10
198.15
 20
62.4
 30
0.0
 11
196.65
 21
62.4
 31
0.0
1001
ACAD
1000
TCW40_DEV_WIDTH
1002
{
1040
0.039370078593
1002
}
1001
TCAD
1000
TCW_CUSTOM_DATA
1002
{
1000
#$AUX@_TCDO_SOURCE_COLOR
1070
           3
1071
        0
1000
#$AUX@_TCDO_PARENT_ID
1070
           3
1071
      218
1000
#$AUX@_TCDO_GTYPE
1070
           3
1071
        1
1000
#$AUX@_TCDO_VISIBILITY
1070
           3
1071
        0
1002
}
  0
LINE
  5
15E
100
AcDbEntity
  8
図
370
         100
  6
Continuous
 62
           7
100
AcDbLine
 10
194.95
 20
62.4
 30
0.0
 11
196.65
 21
62.4
 31
0.0
1001
ACAD
1000
TCW40_DEV_WIDTH
1002
{
1040
0.039370078593
1002
}
1001
TCAD
1000
TCW_CUSTOM_DATA
1002
{
1000
#$AUX@_TCDO_SOURCE_COLOR
1070
           3
1071
        0
1000
#$AUX@_TCDO_PARENT_ID
1070
           3
1071
      218
1000
#$AUX@_TCDO_GTYPE
1070
           3
1071
        1
1000
#$AUX@_TCDO_VISIBILITY
1070
           3
1071
        0
1002
}
  0
LINE
  5
15F
100
AcDbEntity
  8
図
370
         100
  6
Continuous
 62
           7
100
AcDbLine
 10
173.95
 20
62.4
 30
0.0
 11
173.95
 21
61.8
 31
0.0
1001
ACAD
1000
TCW40_DEV_WIDTH
1002
{
1040
0.039370078593
1002
}
1001
TCAD
1000
TCW_CUSTOM_DATA
1002
{
1000
#$AUX@_TCDO_SOURCE_COLOR
1070
           3
1071
        0
1000
#$AUX@_TCDO_PARENT_ID
1070
           3
1071
      218
1000
#$AUX@_TCDO_GTYPE
1070
           3
1071
        1
1000
#$AUX@_TCDO_VISIBILITY
1070
           3
1071
        0
1002
}
  0
ARC
  5
160
100
AcDbEntity
  8
図
370
         100
  6
Continuous
 62
           7
100
AcDbCircle
 10
169.35
 20
61.8
 30
0.0
 40
1.0
100
AcDbArc
 50
180.0
 51
270.0
1001
ACAD
1000
TCW40_DEV_WIDTH
1002
{
1040
0.039370078593
1002
}
1001
TCAD
1000
TCW_CUSTOM_DATA
1002
{
1000
#$AUX@_TCDO_SOURCE_COLOR
1070
           3
1071
        0
1000
#$AUX@_TCDO_PARENT_ID
1070
           3
1071
      218
1000
#$AUX@_TCDO_GTYPE
1070
           3
1071
        1
1000
#$AUX@_TCDO_VISIBILITY
1070
           3
1071
        0
1002
}
  0
LINE
  5
161
100
AcDbEntity
  8
図
370
         100
  6
Continuous
 62
           7
100
AcDbLine
 10
172.95
 20
60.8
 30
0.0
 11
169.35
 21
60.8
 31
0.0
1001
ACAD
1000
TCW40_DEV_WIDTH
1002
{
1040
0.039370078593
1002
}
1001
TCAD
1000
TCW_CUSTOM_DATA
1002
{
1000
#$AUX@_TCDO_SOURCE_COLOR
1070
           3
1071
        0
1000
#$AUX@_TCDO_PARENT_ID
1070
           3
1071
      218
1000
#$AUX@_TCDO_GTYPE
1070
           3
1071
        1
1000
#$AUX@_TCDO_VISIBILITY
1070
           3
1071
        0
1002
}
  0
ARC
  5
162
100
AcDbEntity
  8
図
370
         100
  6
Continuous
 62
           7
100
AcDbCircle
 10
172.95
 20
61.8
 30
0.0
 40
1.0
100
AcDbArc
 50
-90.0
 51
0.0
1001
ACAD
1000
TCW40_DEV_WIDTH
1002
{
1040
0.039370078593
1002
}
1001
TCAD
1000
TCW_CUSTOM_DATA
1002
{
1000
#$AUX@_TCDO_SOURCE_COLOR
1070
           3
1071
        0
1000
#$AUX@_TCDO_PARENT_ID
1070
           3
1071
      218
1000
#$AUX@_TCDO_GTYPE
1070
           3
1071
        1
1000
#$AUX@_TCDO_VISIBILITY
1070
           3
1071
        0
1002
}
  0
LINE
  5
163
100
AcDbEntity
  8
図
370
         100
  6
Continuous
 62
           7
100
AcDbLine
 10
168.35
 20
61.8
 30
0.0
 11
168.35
 21
62.4
 31
0.0
1001
ACAD
1000
TCW40_DEV_WIDTH
1002
{
1040
0.039370078593
1002
}
1001
TCAD
1000
TCW_CUSTOM_DATA
1002
{
1000
#$AUX@_TCDO_SOURCE_COLOR
1070
           3
1071
        0
1000
#$AUX@_TCDO_PARENT_ID
1070
           3
1071
      218
1000
#$AUX@_TCDO_GTYPE
1070
           3
1071
        1
1000
#$AUX@_TCDO_VISIBILITY
1070
           3
1071
        0
1002
}
  0
LINE
  5
164
100
AcDbEntity
  8
図
370
         100
  6
Continuous
 62
           7
100
AcDbLine
 10
194.95
 20
62.4
 30
0.0
 11
194.95
 21
61.8
 31
0.0
1001
ACAD
1000
TCW40_DEV_WIDTH
1002
{
1040
0.039370078593
1002
}
1001
TCAD
1000
TCW_CUSTOM_DATA
1002
{
1000
#$AUX@_TCDO_SOURCE_COLOR
1070
           3
1071
        0
1000
#$AUX@_TCDO_PARENT_ID
1070
           3
1071
      218
1000
#$AUX@_TCDO_GTYPE
1070
           3
1071
        1
1000
#$AUX@_TCDO_VISIBILITY
1070
           3
1071
        0
1002
}
  0
LINE
  5
165
100
AcDbEntity
  8
図
370
         100
  6
Continuous
 62
           7
100
AcDbLine
 10
193.95
 20
60.8
 30
0.0
 11
190.35
 21
60.8
 31
0.0
1001
ACAD
1000
TCW40_DEV_WIDTH
1002
{
1040
0.039370078593
1002
}
1001
TCAD
1000
TCW_CUSTOM_DATA
1002
{
1000
#$AUX@_TCDO_SOURCE_COLOR
1070
           3
1071
        0
1000
#$AUX@_TCDO_PARENT_ID
1070
           3
1071
      218
1000
#$AUX@_TCDO_GTYPE
1070
           3
1071
        1
1000
#$AUX@_TCDO_VISIBILITY
1070
           3
1071
        0
1002
}
  0
ARC
  5
166
100
AcDbEntity
  8
図
370
         100
  6
Continuous
 62
           7
100
AcDbCircle
 10
193.95
 20
61.8
 30
0.0
 40
1.0
100
AcDbArc
 50
-90.0
 51
0.0
1001
ACAD
1000
TCW40_DEV_WIDTH
1002
{
1040
0.039370078593
1002
}
1001
TCAD
1000
TCW_CUSTOM_DATA
1002
{
1000
#$AUX@_TCDO_SOURCE_COLOR
1070
           3
1071
        0
1000
#$AUX@_TCDO_PARENT_ID
1070
           3
1071
      218
1000
#$AUX@_TCDO_GTYPE
1070
           3
1071
        1
1000
#$AUX@_TCDO_VISIBILITY
1070
           3
1071
        0
1002
}
  0
ARC
  5
167
100
AcDbEntity
  8
図
370
         100
  6
Continuous
 62
           7
100
AcDbCircle
 10
190.35
 20
61.8
 30
0.0
 40
1.0
100
AcDbArc
 50
180.0
 51
270.0
1001
ACAD
1000
TCW40_DEV_WIDTH
1002
{
1040
0.039370078593
1002
}
1001
TCAD
1000
TCW_CUSTOM_DATA
1002
{
1000
#$AUX@_TCDO_SOURCE_COLOR
1070
           3
1071
        0
1000
#$AUX@_TCDO_PARENT_ID
1070
           3
1071
      218
1000
#$AUX@_TCDO_GTYPE
1070
           3
1071
        1
1000
#$AUX@_TCDO_VISIBILITY
1070
           3
1071
        0
1002
}
  0
LINE
  5
168
100
AcDbEntity
  8
図
370
         100
  6
Continuous
 62
           7
100
AcDbLine
 10
189.35
 20
61.8
 30
0.0
 11
189.35
 21
62.4
 31
0.0
1001
ACAD
1000
TCW40_DEV_WIDTH
1002
{
1040
0.039370078593
1002
}
1001
TCAD
1000
TCW_CUSTOM_DATA
1002
{
1000
#$AUX@_TCDO_SOURCE_COLOR
1070
           3
1071
        0
1000
#$AUX@_TCDO_PARENT_ID
1070
           3
1071
      218
1000
#$AUX@_TCDO_GTYPE
1070
           3
1071
        1
1000
#$AUX@_TCDO_VISIBILITY
1070
           3
1071
        0
1002
}
  0
LINE
  5
169
100
AcDbEntity
  8
図
370
         100
  6
Continuous
 62
           7
100
AcDbLine
 10
166.65
 20
62.4
 30
0.0
 11
168.35
 21
62.4
 31
0.0
1001
ACAD
1000
TCW40_DEV_WIDTH
1002
{
1040
0.039370078593
1002
}
1001
TCAD
1000
TCW_CUSTOM_DATA
1002
{
1000
#$AUX@_TCDO_SOURCE_COLOR
1070
           3
1071
        0
1000
#$AUX@_TCDO_PARENT_ID
1070
           3
1071
      218
1000
#$AUX@_TCDO_GTYPE
1070
           3
1071
        1
1000
#$AUX@_TCDO_VISIBILITY
1070
           3
1071
        0
1002
}
  0
LINE
  5
16A
100
AcDbEntity
  8
図
370
         100
  6
Continuous
 62
           7
100
AcDbLine
 10
166.65
 20
62.4
 30
0.0
 11
165.15
 21
62.4
 31
0.0
1001
ACAD
1000
TCW40_DEV_WIDTH
1002
{
1040
0.039370078593
1002
}
1001
TCAD
1000
TCW_CUSTOM_DATA
1002
{
1000
#$AUX@_TCDO_SOURCE_COLOR
1070
           3
1071
        0
1000
#$AUX@_TCDO_PARENT_ID
1070
           3
1071
      218
1000
#$AUX@_TCDO_GTYPE
1070
           3
1071
        1
1000
#$AUX@_TCDO_VISIBILITY
1070
           3
1071
        0
1002
}
  0
LINE
  5
16B
100
AcDbEntity
  8
図
370
         100
  6
Continuous
 62
           7
100
AcDbLine
 10
199.15
 20
124.7
 30
0.0
 11
199.15
 21
139.7
 31
0.0
1001
ACAD
1000
TCW40_DEV_WIDTH
1002
{
1040
0.039370078593
1002
}
1001
TCAD
1000
TCW_CUSTOM_DATA
1002
{
1000
#$AUX@_TCDO_SOURCE_COLOR
1070
           3
1071
        0
1000
#$AUX@_TCDO_PARENT_ID
1070
           3
1071
    10283
1000
#$AUX@_TCDO_GTYPE
1070
           3
1071
        1
1000
#$AUX@_TCDO_VISIBILITY
1070
           3
1071
        0
1002
}
  0
LINE
  5
16C
100
AcDbEntity
  8
図
370
         100
  6
Continuous
 62
           7
100
AcDbLine
 10
199.15
 20
139.7
 30
0.0
 11
198.685581254575
 21
139.7
 31
0.0
1001
ACAD
1000
TCW40_DEV_WIDTH
1002
{
1040
0.039370078593
1002
}
1001
TCAD
1000
TCW_CUSTOM_DATA
1002
{
1000
#$AUX@_TCDO_SOURCE_COLOR
1070
           3
1071
        0
1000
#$AUX@_TCDO_PARENT_ID
1070
           3
1071
    10283
1000
#$AUX@_TCDO_GTYPE
1070
           3
1071
        1
1000
#$AUX@_TCDO_VISIBILITY
1070
           3
1071
        0
1002
}
  0
LINE
  5
16D
100
AcDbEntity
  8
図
370
         100
  6
Continuous
 62
           7
100
AcDbLine
 10
198.685581254575
 20
124.7
 30
0.0
 11
199.15
 21
124.7
 31
0.0
1001
ACAD
1000
TCW40_DEV_WIDTH
1002
{
1040
0.039370078593
1002
}
1001
TCAD
1000
TCW_CUSTOM_DATA
1002
{
1000
#$AUX@_TCDO_SOURCE_COLOR
1070
           3
1071
        0
1000
#$AUX@_TCDO_PARENT_ID
1070
           3
1071
    10283
1000
#$AUX@_TCDO_GTYPE
1070
           3
1071
        1
1000
#$AUX@_TCDO_VISIBILITY
1070
           3
1071
        0
1002
}
  0
ARC
  5
16E
100
AcDbEntity
  8
図
370
         100
  6
Continuous
 62
           7
100
AcDbCircle
 10
196.65
 20
120.9
 30
0.0
 40
1.5
100
AcDbArc
 50
-90.0
 51
-45.0
1001
ACAD
1000
TCW40_DEV_WIDTH
1002
{
1040
0.039370078593
1002
}
1001
TCAD
1000
TCW_CUSTOM_DATA
1002
{
1000
#$AUX@_TCDO_SOURCE_COLOR
1070
           3
1071
        0
1000
#$AUX@_TCDO_PARENT_ID
1070
           3
1071
    10283
1000
#$AUX@_TCDO_GTYPE
1070
           3
1071
        1
1000
#$AUX@_TCDO_VISIBILITY
1070
           3
1071
        0
1002
}
  0
LINE
  5
16F
100
AcDbEntity
  8
図
370
         100
  6
Continuous
 62
           7
100
AcDbLine
 10
165.15
 20
129.9
 30
0.0
 11
163.65
 21
129.9
 31
0.0
1001
ACAD
1000
TCW40_DEV_WIDTH
1002
{
1040
0.039370078593
1002
}
1001
TCAD
1000
TCW_CUSTOM_DATA
1002
{
1000
#$AUX@_TCDO_SOURCE_COLOR
1070
           3
1071
        0
1000
#$AUX@_TCDO_PARENT_ID
1070
           3
1071
    10283
1000
#$AUX@_TCDO_GTYPE
1070
           3
1071
        1
1000
#$AUX@_TCDO_VISIBILITY
1070
           3
1071
        0
1002
}
  0
LINE
  5
170
100
AcDbEntity
  8
図
370
         100
  6
Continuous
 62
           7
100
AcDbLine
 10
163.65
 20
134.5
 30
0.0
 11
163.65
 21
129.9
 31
0.0
1001
ACAD
1000
TCW40_DEV_WIDTH
1002
{
1040
0.039370078593
1002
}
1001
TCAD
1000
TCW_CUSTOM_DATA
1002
{
1000
#$AUX@_TCDO_SOURCE_COLOR
1070
           3
1071
        0
1000
#$AUX@_TCDO_PARENT_ID
1070
           3
1071
    10283
1000
#$AUX@_TCDO_GTYPE
1070
           3
1071
        1
1000
#$AUX@_TCDO_VISIBILITY
1070
           3
1071
        0
1002
}
  0
LINE
  5
171
100
AcDbEntity
  8
図
370
         100
  6
Continuous
 62
           7
100
AcDbLine
 10
163.65
 20
134.5
 30
0.0
 11
165.15
 21
134.5
 31
0.0
1001
ACAD
1000
TCW40_DEV_WIDTH
1002
{
1040
0.039370078593
1002
}
1001
TCAD
1000
TCW_CUSTOM_DATA
1002
{
1000
#$AUX@_TCDO_SOURCE_COLOR
1070
           3
1071
        0
1000
#$AUX@_TCDO_PARENT_ID
1070
           3
1071
    10283
1000
#$AUX@_TCDO_GTYPE
1070
           3
1071
        1
1000
#$AUX@_TCDO_VISIBILITY
1070
           3
1071
        0
1002
}
  0
LINE
  5
172
100
AcDbEntity
  8
図
370
         100
  6
Continuous
 62
           7
100
AcDbLine
 10
166.65
 20
119.4
 30
0.0
 11
178.032542329204
 21
119.4
 31
0.0
1001
ACAD
1000
TCW40_DEV_WIDTH
1002
{
1040
0.039370078593
1002
}
1001
TCAD
1000
TCW_CUSTOM_DATA
1002
{
1000
#$AUX@_TCDO_SOURCE_COLOR
1070
           3
1071
        0
1000
#$AUX@_TCDO_PARENT_ID
1070
           3
1071
    10283
1000
#$AUX@_TCDO_GTYPE
1070
           3
1071
        1
1000
#$AUX@_TCDO_VISIBILITY
1070
           3
1071
        0
1002
}
  0
ARC
  5
173
100
AcDbEntity
  8
図
370
         100
  6
Continuous
 62
           7
100
AcDbCircle
 10
166.65
 20
120.9
 30
0.0
 40
1.5
100
AcDbArc
 50
180.0
 51
225.0
1001
ACAD
1000
TCW40_DEV_WIDTH
1002
{
1040
0.039370078593
1002
}
1001
TCAD
1000
TCW_CUSTOM_DATA
1002
{
1000
#$AUX@_TCDO_SOURCE_COLOR
1070
           3
1071
        0
1000
#$AUX@_TCDO_PARENT_ID
1070
           3
1071
    10283
1000
#$AUX@_TCDO_GTYPE
1070
           3
1071
        1
1000
#$AUX@_TCDO_VISIBILITY
1070
           3
1071
        0
1002
}
  0
LINE
  5
174
100
AcDbEntity
  8
図
370
         100
  6
Continuous
 62
           7
100
AcDbLine
 10
177.85
 20
148.0
 30
0.0
 11
177.85
 21
145.0
 31
0.0
1001
ACAD
1000
TCW40_DEV_WIDTH
1002
{
1040
0.039370078593
1002
}
1001
TCAD
1000
TCW_CUSTOM_DATA
1002
{
1000
#$AUX@_TCDO_SOURCE_COLOR
1070
           3
1071
        0
1000
#$AUX@_TCDO_PARENT_ID
1070
           3
1071
    10283
1000
#$AUX@_TCDO_GTYPE
1070
           3
1071
        1
1000
#$AUX@_TCDO_VISIBILITY
1070
           3
1071
        0
1002
}
  0
LINE
  5
175
100
AcDbEntity
  8
図
370
         100
  6
Continuous
 62
           7
100
AcDbLine
 10
183.15
 20
148.0
 30
0.0
 11
185.45
 21
148.0
 31
0.0
1001
ACAD
1000
TCW40_DEV_WIDTH
1002
{
1040
0.039370078593
1002
}
1001
TCAD
1000
TCW_CUSTOM_DATA
1002
{
1000
#$AUX@_TCDO_SOURCE_COLOR
1070
           3
1071
        0
1000
#$AUX@_TCDO_PARENT_ID
1070
           3
1071
    10283
1000
#$AUX@_TCDO_GTYPE
1070
           3
1071
        1
1000
#$AUX@_TCDO_VISIBILITY
1070
           3
1071
        0
1002
}
  0
LINE
  5
176
100
AcDbEntity
  8
図
370
         100
  6
Continuous
 62
           7
100
AcDbLine
 10
177.85
 20
148.0
 30
0.0
 11
180.15
 21
148.0
 31
0.0
1001
ACAD
1000
TCW40_DEV_WIDTH
1002
{
1040
0.039370078593
1002
}
1001
TCAD
1000
TCW_CUSTOM_DATA
1002
{
1000
#$AUX@_TCDO_SOURCE_COLOR
1070
           3
1071
        0
1000
#$AUX@_TCDO_PARENT_ID
1070
           3
1071
    10283
1000
#$AUX@_TCDO_GTYPE
1070
           3
1071
        1
1000
#$AUX@_TCDO_VISIBILITY
1070
           3
1071
        0
1002
}
  0
LINE
  5
177
100
AcDbEntity
  8
図
370
         100
  6
Continuous
 62
           7
100
AcDbLine
 10
178.85
 20
147.0
 30
0.0
 11
178.85
 21
145.0
 31
0.0
1001
ACAD
1000
TCW40_DEV_WIDTH
1002
{
1040
0.039370078593
1002
}
1001
TCAD
1000
TCW_CUSTOM_DATA
1002
{
1000
#$AUX@_TCDO_SOURCE_COLOR
1070
           3
1071
        0
1000
#$AUX@_TCDO_PARENT_ID
1070
           3
1071
    10283
1000
#$AUX@_TCDO_GTYPE
1070
           3
1071
        1
1000
#$AUX@_TCDO_VISIBILITY
1070
           3
1071
        0
1002
}
  0
LINE
  5
178
100
AcDbEntity
  8
図
370
         100
  6
Continuous
 62
           7
100
AcDbLine
 10
184.45
 20
147.0
 30
0.0
 11
178.85
 21
147.0
 31
0.0
1001
ACAD
1000
TCW40_DEV_WIDTH
1002
{
1040
0.039370078593
1002
}
1001
TCAD
1000
TCW_CUSTOM_DATA
1002
{
1000
#$AUX@_TCDO_SOURCE_COLOR
1070
           3
1071
        0
1000
#$AUX@_TCDO_PARENT_ID
1070
           3
1071
    10283
1000
#$AUX@_TCDO_GTYPE
1070
           3
1071
        1
1000
#$AUX@_TCDO_VISIBILITY
1070
           3
1071
        0
1002
}
  0
LINE
  5
179
100
AcDbEntity
  8
図
370
         100
  6
Continuous
 62
           7
100
AcDbLine
 10
185.45
 20
148.0
 30
0.0
 11
185.45
 21
145.0
 31
0.0
1001
ACAD
1000
TCW40_DEV_WIDTH
1002
{
1040
0.039370078593
1002
}
1001
TCAD
1000
TCW_CUSTOM_DATA
1002
{
1000
#$AUX@_TCDO_SOURCE_COLOR
1070
           3
1071
        0
1000
#$AUX@_TCDO_PARENT_ID
1070
           3
1071
    10283
1000
#$AUX@_TCDO_GTYPE
1070
           3
1071
        1
1000
#$AUX@_TCDO_VISIBILITY
1070
           3
1071
        0
1002
}
  0
LINE
  5
17A
100
AcDbEntity
  8
図
370
         100
  6
Continuous
 62
           7
100
AcDbLine
 10
184.45
 20
145.0
 30
0.0
 11
184.45
 21
147.0
 31
0.0
1001
ACAD
1000
TCW40_DEV_WIDTH
1002
{
1040
0.039370078593
1002
}
1001
TCAD
1000
TCW_CUSTOM_DATA
1002
{
1000
#$AUX@_TCDO_SOURCE_COLOR
1070
           3
1071
        0
1000
#$AUX@_TCDO_PARENT_ID
1070
           3
1071
    10283
1000
#$AUX@_TCDO_GTYPE
1070
           3
1071
        1
1000
#$AUX@_TCDO_VISIBILITY
1070
           3
1071
        0
1002
}
  0
LINE
  5
17B
100
AcDbEntity
  8
図
370
         100
  6
Continuous
 62
           7
100
AcDbLine
 10
177.85
 20
152.0
 30
0.0
 11
177.85
 21
148.0
 31
0.0
1001
ACAD
1000
TCW40_DEV_WIDTH
1002
{
1040
0.039370078593
1002
}
1001
TCAD
1000
TCW_CUSTOM_DATA
1002
{
1000
#$AUX@_TCDO_SOURCE_COLOR
1070
           3
1071
        0
1000
#$AUX@_TCDO_PARENT_ID
1070
           3
1071
    10283
1000
#$AUX@_TCDO_GTYPE
1070
           3
1071
        1
1000
#$AUX@_TCDO_VISIBILITY
1070
           3
1071
        0
1002
}
  0
LINE
  5
17C
100
AcDbEntity
  8
図
370
         100
  6
Continuous
 62
           7
100
AcDbLine
 10
180.15
 20
153.5
 30
0.0
 11
183.15
 21
153.5
 31
0.0
1001
ACAD
1000
TCW40_DEV_WIDTH
1002
{
1040
0.039370078593
1002
}
1001
TCAD
1000
TCW_CUSTOM_DATA
1002
{
1000
#$AUX@_TCDO_SOURCE_COLOR
1070
           3
1071
        0
1000
#$AUX@_TCDO_PARENT_ID
1070
           3
1071
    10283
1000
#$AUX@_TCDO_GTYPE
1070
           3
1071
        1
1000
#$AUX@_TCDO_VISIBILITY
1070
           3
1071
        0
1002
}
  0
LINE
  5
17D
100
AcDbEntity
  8
図
370
         100
  6
Continuous
 62
           7
100
AcDbLine
 10
179.35
 20
153.5
 30
0.0
 11
180.15
 21
153.5
 31
0.0
1001
ACAD
1000
TCW40_DEV_WIDTH
1002
{
1040
0.039370078593
1002
}
1001
TCAD
1000
TCW_CUSTOM_DATA
1002
{
1000
#$AUX@_TCDO_SOURCE_COLOR
1070
           3
1071
        0
1000
#$AUX@_TCDO_PARENT_ID
1070
           3
1071
    10283
1000
#$AUX@_TCDO_GTYPE
1070
           3
1071
        1
1000
#$AUX@_TCDO_VISIBILITY
1070
           3
1071
        0
1002
}
  0
LINE
  5
17E
100
AcDbEntity
  8
図
370
         100
  6
Continuous
 62
           7
100
AcDbLine
 10
183.15
 20
153.5
 30
0.0
 11
183.15
 21
148.0
 31
0.0
1001
ACAD
1000
TCW40_DEV_WIDTH
1002
{
1040
0.039370078593
1002
}
1001
TCAD
1000
TCW_CUSTOM_DATA
1002
{
1000
#$AUX@_TCDO_SOURCE_COLOR
1070
           3
1071
        0
1000
#$AUX@_TCDO_PARENT_ID
1070
           3
1071
    10283
1000
#$AUX@_TCDO_GTYPE
1070
           3
1071
        1
1000
#$AUX@_TCDO_VISIBILITY
1070
           3
1071
        0
1002
}
  0
LINE
  5
17F
100
AcDbEntity
  8
図
370
         100
  6
Continuous
 62
           7
100
AcDbLine
 10
180.15
 20
153.5
 30
0.0
 11
180.15
 21
148.0
 31
0.0
1001
ACAD
1000
TCW40_DEV_WIDTH
1002
{
1040
0.039370078593
1002
}
1001
TCAD
1000
TCW_CUSTOM_DATA
1002
{
1000
#$AUX@_TCDO_SOURCE_COLOR
1070
           3
1071
        0
1000
#$AUX@_TCDO_PARENT_ID
1070
           3
1071
    10283
1000
#$AUX@_TCDO_GTYPE
1070
           3
1071
        1
1000
#$AUX@_TCDO_VISIBILITY
1070
           3
1071
        0
1002
}
  0
ARC
  5
180
100
AcDbEntity
  8
図
370
         100
  6
Continuous
 62
           7
100
AcDbCircle
 10
179.35
 20
152.0
 30
0.0
 40
1.5
100
AcDbArc
 50
90.0
 51
180.0
1001
ACAD
1000
TCW40_DEV_WIDTH
1002
{
1040
0.039370078593
1002
}
1001
TCAD
1000
TCW_CUSTOM_DATA
1002
{
1000
#$AUX@_TCDO_SOURCE_COLOR
1070
           3
1071
        0
1000
#$AUX@_TCDO_PARENT_ID
1070
           3
1071
    10283
1000
#$AUX@_TCDO_GTYPE
1070
           3
1071
        1
1000
#$AUX@_TCDO_VISIBILITY
1070
           3
1071
        0
1002
}
  0
LINE
  5
181
100
AcDbEntity
  8
図
370
         100
  6
Continuous
 62
           7
100
AcDbLine
 10
177.85
 20
116.4
 30
0.0
 11
177.85
 21
119.4
 31
0.0
1001
ACAD
1000
TCW40_DEV_WIDTH
1002
{
1040
0.039370078593
1002
}
1001
TCAD
1000
TCW_CUSTOM_DATA
1002
{
1000
#$AUX@_TCDO_SOURCE_COLOR
1070
           3
1071
        0
1000
#$AUX@_TCDO_PARENT_ID
1070
           3
1071
    10283
1000
#$AUX@_TCDO_GTYPE
1070
           3
1071
        1
1000
#$AUX@_TCDO_VISIBILITY
1070
           3
1071
        0
1002
}
  0
LINE
  5
182
100
AcDbEntity
  8
図
370
         100
  6
Continuous
 62
           7
100
AcDbLine
 10
177.85
 20
116.4
 30
0.0
 11
180.15
 21
116.4
 31
0.0
1001
ACAD
1000
TCW40_DEV_WIDTH
1002
{
1040
0.039370078593
1002
}
1001
TCAD
1000
TCW_CUSTOM_DATA
1002
{
1000
#$AUX@_TCDO_SOURCE_COLOR
1070
           3
1071
        0
1000
#$AUX@_TCDO_PARENT_ID
1070
           3
1071
    10283
1000
#$AUX@_TCDO_GTYPE
1070
           3
1071
        1
1000
#$AUX@_TCDO_VISIBILITY
1070
           3
1071
        0
1002
}
  0
LINE
  5
183
100
AcDbEntity
  8
図
370
         100
  6
Continuous
 62
           7
100
AcDbLine
 10
183.15
 20
116.4
 30
0.0
 11
185.45
 21
116.4
 31
0.0
1001
ACAD
1000
TCW40_DEV_WIDTH
1002
{
1040
0.039370078593
1002
}
1001
TCAD
1000
TCW_CUSTOM_DATA
1002
{
1000
#$AUX@_TCDO_SOURCE_COLOR
1070
           3
1071
        0
1000
#$AUX@_TCDO_PARENT_ID
1070
           3
1071
    10283
1000
#$AUX@_TCDO_GTYPE
1070
           3
1071
        1
1000
#$AUX@_TCDO_VISIBILITY
1070
           3
1071
        0
1002
}
  0
LINE
  5
184
100
AcDbEntity
  8
図
370
         100
  6
Continuous
 62
           7
100
AcDbLine
 10
178.85
 20
117.4
 30
0.0
 11
178.85
 21
119.4
 31
0.0
1001
ACAD
1000
TCW40_DEV_WIDTH
1002
{
1040
0.039370078593
1002
}
1001
TCAD
1000
TCW_CUSTOM_DATA
1002
{
1000
#$AUX@_TCDO_SOURCE_COLOR
1070
           3
1071
        0
1000
#$AUX@_TCDO_PARENT_ID
1070
           3
1071
    10283
1000
#$AUX@_TCDO_GTYPE
1070
           3
1071
        1
1000
#$AUX@_TCDO_VISIBILITY
1070
           3
1071
        0
1002
}
  0
LINE
  5
185
100
AcDbEntity
  8
図
370
         100
  6
Continuous
 62
           7
100
AcDbLine
 10
184.45
 20
117.4
 30
0.0
 11
178.85
 21
117.4
 31
0.0
1001
ACAD
1000
TCW40_DEV_WIDTH
1002
{
1040
0.039370078593
1002
}
1001
TCAD
1000
TCW_CUSTOM_DATA
1002
{
1000
#$AUX@_TCDO_SOURCE_COLOR
1070
           3
1071
        0
1000
#$AUX@_TCDO_PARENT_ID
1070
           3
1071
    10283
1000
#$AUX@_TCDO_GTYPE
1070
           3
1071
        1
1000
#$AUX@_TCDO_VISIBILITY
1070
           3
1071
        0
1002
}
  0
LINE
  5
186
100
AcDbEntity
  8
図
370
         100
  6
Continuous
 62
           7
100
AcDbLine
 10
185.45
 20
116.4
 30
0.0
 11
185.45
 21
119.4
 31
0.0
1001
ACAD
1000
TCW40_DEV_WIDTH
1002
{
1040
0.039370078593
1002
}
1001
TCAD
1000
TCW_CUSTOM_DATA
1002
{
1000
#$AUX@_TCDO_SOURCE_COLOR
1070
           3
1071
        0
1000
#$AUX@_TCDO_PARENT_ID
1070
           3
1071
    10283
1000
#$AUX@_TCDO_GTYPE
1070
           3
1071
        1
1000
#$AUX@_TCDO_VISIBILITY
1070
           3
1071
        0
1002
}
  0
LINE
  5
187
100
AcDbEntity
  8
図
370
         100
  6
Continuous
 62
           7
100
AcDbLine
 10
184.45
 20
119.4
 30
0.0
 11
184.45
 21
117.4
 31
0.0
1001
ACAD
1000
TCW40_DEV_WIDTH
1002
{
1040
0.039370078593
1002
}
1001
TCAD
1000
TCW_CUSTOM_DATA
1002
{
1000
#$AUX@_TCDO_SOURCE_COLOR
1070
           3
1071
        0
1000
#$AUX@_TCDO_PARENT_ID
1070
           3
1071
    10283
1000
#$AUX@_TCDO_GTYPE
1070
           3
1071
        1
1000
#$AUX@_TCDO_VISIBILITY
1070
           3
1071
        0
1002
}
  0
LINE
  5
188
100
AcDbEntity
  8
図
370
         100
  6
Continuous
 62
           7
100
AcDbLine
 10
177.85
 20
112.4
 30
0.0
 11
177.85
 21
116.4
 31
0.0
1001
ACAD
1000
TCW40_DEV_WIDTH
1002
{
1040
0.039370078593
1002
}
1001
TCAD
1000
TCW_CUSTOM_DATA
1002
{
1000
#$AUX@_TCDO_SOURCE_COLOR
1070
           3
1071
        0
1000
#$AUX@_TCDO_PARENT_ID
1070
           3
1071
    10283
1000
#$AUX@_TCDO_GTYPE
1070
           3
1071
        1
1000
#$AUX@_TCDO_VISIBILITY
1070
           3
1071
        0
1002
}
  0
LINE
  5
189
100
AcDbEntity
  8
図
370
         100
  6
Continuous
 62
           7
100
AcDbLine
 10
179.35
 20
110.9
 30
0.0
 11
180.15
 21
110.9
 31
0.0
1001
ACAD
1000
TCW40_DEV_WIDTH
1002
{
1040
0.039370078593
1002
}
1001
TCAD
1000
TCW_CUSTOM_DATA
1002
{
1000
#$AUX@_TCDO_SOURCE_COLOR
1070
           3
1071
        0
1000
#$AUX@_TCDO_PARENT_ID
1070
           3
1071
    10283
1000
#$AUX@_TCDO_GTYPE
1070
           3
1071
        1
1000
#$AUX@_TCDO_VISIBILITY
1070
           3
1071
        0
1002
}
  0
LINE
  5
18A
100
AcDbEntity
  8
図
370
         100
  6
Continuous
 62
           7
100
AcDbLine
 10
180.15
 20
110.9
 30
0.0
 11
183.15
 21
110.9
 31
0.0
1001
ACAD
1000
TCW40_DEV_WIDTH
1002
{
1040
0.039370078593
1002
}
1001
TCAD
1000
TCW_CUSTOM_DATA
1002
{
1000
#$AUX@_TCDO_SOURCE_COLOR
1070
           3
1071
        0
1000
#$AUX@_TCDO_PARENT_ID
1070
           3
1071
    10283
1000
#$AUX@_TCDO_GTYPE
1070
           3
1071
        1
1000
#$AUX@_TCDO_VISIBILITY
1070
           3
1071
        0
1002
}
  0
LINE
  5
18B
100
AcDbEntity
  8
図
370
         100
  6
Continuous
 62
           7
100
AcDbLine
 10
183.15
 20
110.9
 30
0.0
 11
183.15
 21
116.4
 31
0.0
1001
ACAD
1000
TCW40_DEV_WIDTH
1002
{
1040
0.039370078593
1002
}
1001
TCAD
1000
TCW_CUSTOM_DATA
1002
{
1000
#$AUX@_TCDO_SOURCE_COLOR
1070
           3
1071
        0
1000
#$AUX@_TCDO_PARENT_ID
1070
           3
1071
    10283
1000
#$AUX@_TCDO_GTYPE
1070
           3
1071
        1
1000
#$AUX@_TCDO_VISIBILITY
1070
           3
1071
        0
1002
}
  0
LINE
  5
18C
100
AcDbEntity
  8
図
370
         100
  6
Continuous
 62
           7
100
AcDbLine
 10
180.15
 20
110.9
 30
0.0
 11
180.15
 21
116.4
 31
0.0
1001
ACAD
1000
TCW40_DEV_WIDTH
1002
{
1040
0.039370078593
1002
}
1001
TCAD
1000
TCW_CUSTOM_DATA
1002
{
1000
#$AUX@_TCDO_SOURCE_COLOR
1070
           3
1071
        0
1000
#$AUX@_TCDO_PARENT_ID
1070
           3
1071
    10283
1000
#$AUX@_TCDO_GTYPE
1070
           3
1071
        1
1000
#$AUX@_TCDO_VISIBILITY
1070
           3
1071
        0
1002
}
  0
ARC
  5
18D
100
AcDbEntity
  8
図
370
         100
  6
Continuous
 62
           7
100
AcDbCircle
 10
179.35
 20
112.4
 30
0.0
 40
1.5
100
AcDbArc
 50
180.0
 51
270.0
1001
ACAD
1000
TCW40_DEV_WIDTH
1002
{
1040
0.039370078593
1002
}
1001
TCAD
1000
TCW_CUSTOM_DATA
1002
{
1000
#$AUX@_TCDO_SOURCE_COLOR
1070
           3
1071
        0
1000
#$AUX@_TCDO_PARENT_ID
1070
           3
1071
    10283
1000
#$AUX@_TCDO_GTYPE
1070
           3
1071
        1
1000
#$AUX@_TCDO_VISIBILITY
1070
           3
1071
        0
1002
}
  0
LINE
  5
18E
100
AcDbEntity
  8
図
370
         100
  6
Continuous
 62
           7
100
AcDbLine
 10
178.032542329204
 20
119.4
 30
0.0
 11
178.032542329204
 21
121.0
 31
0.0
1001
ACAD
1000
TCW40_DEV_WIDTH
1002
{
1040
0.039370078593
1002
}
1001
TCAD
1000
TCW_CUSTOM_DATA
1002
{
1000
#$AUX@_TCDO_SOURCE_COLOR
1070
           3
1071
        0
1000
#$AUX@_TCDO_PARENT_ID
1070
           3
1071
    10283
1000
#$AUX@_TCDO_GTYPE
1070
           3
1071
        0
1000
#$AUX@_TCDO_VISIBILITY
1070
           3
1071
        0
1002
}
  0
LINE
  5
18F
100
AcDbEntity
  8
図
370
         100
  6
Continuous
 62
           7
100
AcDbLine
 10
178.032542329204
 20
125.2
 30
0.0
 11
178.032542329204
 21
126.599999999999
 31
0.0
1001
ACAD
1000
TCW40_DEV_WIDTH
1002
{
1040
0.039370078593
1002
}
1001
TCAD
1000
TCW_CUSTOM_DATA
1002
{
1000
#$AUX@_TCDO_SOURCE_COLOR
1070
           3
1071
        0
1000
#$AUX@_TCDO_PARENT_ID
1070
           3
1071
    10283
1000
#$AUX@_TCDO_GTYPE
1070
           3
1071
        0
1000
#$AUX@_TCDO_VISIBILITY
1070
           3
1071
        0
1002
}
  0
LINE
  5
190
100
AcDbEntity
  8
図
370
         100
  6
Continuous
 62
           7
100
AcDbLine
 10
178.032542329204
 20
137.8
 30
0.0
 11
178.032542329204
 21
139.0
 31
0.0
1001
ACAD
1000
TCW40_DEV_WIDTH
1002
{
1040
0.039370078593
1002
}
1001
TCAD
1000
TCW_CUSTOM_DATA
1002
{
1000
#$AUX@_TCDO_SOURCE_COLOR
1070
           3
1071
        0
1000
#$AUX@_TCDO_PARENT_ID
1070
           3
1071
    10283
1000
#$AUX@_TCDO_GTYPE
1070
           3
1071
        0
1000
#$AUX@_TCDO_VISIBILITY
1070
           3
1071
        0
1002
}
  0
LINE
  5
191
100
AcDbEntity
  8
図
370
         100
  6
Continuous
 62
           7
100
AcDbLine
 10
178.032542329204
 20
143.2
 30
0.0
 11
178.032542329204
 21
145.0
 31
0.0
1001
ACAD
1000
TCW40_DEV_WIDTH
1002
{
1040
0.039370078593
1002
}
1001
TCAD
1000
TCW_CUSTOM_DATA
1002
{
1000
#$AUX@_TCDO_SOURCE_COLOR
1070
           3
1071
        0
1000
#$AUX@_TCDO_PARENT_ID
1070
           3
1071
    10283
1000
#$AUX@_TCDO_GTYPE
1070
           3
1071
        0
1000
#$AUX@_TCDO_VISIBILITY
1070
           3
1071
        0
1002
}
  0
LINE
  5
192
100
AcDbEntity
  8
図
370
         100
  6
Continuous
 62
           7
100
AcDbLine
 10
185.267457670796
 20
145.0
 30
0.0
 11
185.267457670796
 21
143.2
 31
0.0
1001
ACAD
1000
TCW40_DEV_WIDTH
1002
{
1040
0.039370078593
1002
}
1001
TCAD
1000
TCW_CUSTOM_DATA
1002
{
1000
#$AUX@_TCDO_SOURCE_COLOR
1070
           3
1071
        0
1000
#$AUX@_TCDO_PARENT_ID
1070
           3
1071
    10283
1000
#$AUX@_TCDO_GTYPE
1070
           3
1071
        0
1000
#$AUX@_TCDO_VISIBILITY
1070
           3
1071
        0
1002
}
  0
LINE
  5
193
100
AcDbEntity
  8
図
370
         100
  6
Continuous
 62
           7
100
AcDbLine
 10
185.267457670796
 20
139.0
 30
0.0
 11
185.267457670796
 21
137.8
 31
0.0
1001
ACAD
1000
TCW40_DEV_WIDTH
1002
{
1040
0.039370078593
1002
}
1001
TCAD
1000
TCW_CUSTOM_DATA
1002
{
1000
#$AUX@_TCDO_SOURCE_COLOR
1070
           3
1071
        0
1000
#$AUX@_TCDO_PARENT_ID
1070
           3
1071
    10283
1000
#$AUX@_TCDO_GTYPE
1070
           3
1071
        0
1000
#$AUX@_TCDO_VISIBILITY
1070
           3
1071
        0
1002
}
  0
LINE
  5
194
100
AcDbEntity
  8
図
370
         100
  6
Continuous
 62
           7
100
AcDbLine
 10
185.267457670796
 20
125.6
 30
0.0
 11
185.267457670796
 21
125.2
 31
0.0
1001
ACAD
1000
TCW40_DEV_WIDTH
1002
{
1040
0.039370078593
1002
}
1001
TCAD
1000
TCW_CUSTOM_DATA
1002
{
1000
#$AUX@_TCDO_SOURCE_COLOR
1070
           3
1071
        0
1000
#$AUX@_TCDO_PARENT_ID
1070
           3
1071
    10283
1000
#$AUX@_TCDO_GTYPE
1070
           3
1071
        0
1000
#$AUX@_TCDO_VISIBILITY
1070
           3
1071
        0
1002
}
  0
LINE
  5
195
100
AcDbEntity
  8
図
370
         100
  6
Continuous
 62
           7
100
AcDbLine
 10
185.267457670796
 20
121.0
 30
0.0
 11
185.267457670796
 21
119.4
 31
0.0
1001
ACAD
1000
TCW40_DEV_WIDTH
1002
{
1040
0.039370078593
1002
}
1001
TCAD
1000
TCW_CUSTOM_DATA
1002
{
1000
#$AUX@_TCDO_SOURCE_COLOR
1070
           3
1071
        0
1000
#$AUX@_TCDO_PARENT_ID
1070
           3
1071
    10283
1000
#$AUX@_TCDO_GTYPE
1070
           3
1071
        0
1000
#$AUX@_TCDO_VISIBILITY
1070
           3
1071
        0
1002
}
  0
LINE
  5
196
100
AcDbEntity
  8
図
370
         100
  6
Continuous
 62
           7
100
AcDbLine
 10
174.883747106572
 20
125.0
 30
0.0
 11
174.883747106572
 21
121.0
 31
0.0
1001
ACAD
1000
TCW40_DEV_WIDTH
1002
{
1040
0.039370078593
1002
}
1001
TCAD
1000
TCW_CUSTOM_DATA
1002
{
1000
#$AUX@_TCDO_SOURCE_COLOR
1070
           3
1071
        0
1000
#$AUX@_TCDO_PARENT_ID
1070
           3
1071
      229
1000
#$AUX@_TCDO_GTYPE
1070
           3
1071
        1
1000
#$AUX@_TCDO_VISIBILITY
1070
           3
1071
        0
1002
}
  0
LINE
  5
197
100
AcDbEntity
  8
図
370
         100
  6
Continuous
 62
           7
100
AcDbLine
 10
181.65
 20
121.0
 30
0.0
 11
174.883747106572
 21
121.0
 31
0.0
1001
ACAD
1000
TCW40_DEV_WIDTH
1002
{
1040
0.039370078593
1002
}
1001
TCAD
1000
TCW_CUSTOM_DATA
1002
{
1000
#$AUX@_TCDO_SOURCE_COLOR
1070
           3
1071
        0
1000
#$AUX@_TCDO_PARENT_ID
1070
           3
1071
      229
1000
#$AUX@_TCDO_GTYPE
1070
           3
1071
        1
1000
#$AUX@_TCDO_VISIBILITY
1070
           3
1071
        0
1002
}
  0
LINE
  5
198
100
AcDbEntity
  8
図
370
         100
  6
Continuous
 62
           7
100
AcDbLine
 10
174.883747106572
 20
125.0
 30
0.0
 11
181.65
 21
125.0
 31
0.0
1001
ACAD
1000
TCW40_DEV_WIDTH
1002
{
1040
0.039370078593
1002
}
1001
TCAD
1000
TCW_CUSTOM_DATA
1002
{
1000
#$AUX@_TCDO_SOURCE_COLOR
1070
           3
1071
        0
1000
#$AUX@_TCDO_PARENT_ID
1070
           3
1071
      229
1000
#$AUX@_TCDO_GTYPE
1070
           3
1071
        1
1000
#$AUX@_TCDO_VISIBILITY
1070
           3
1071
        0
1002
}
  0
LINE
  5
199
100
AcDbEntity
  8
図
370
         100
  6
Continuous
 62
           7
100
AcDbLine
 10
188.416252893428
 20
121.0
 30
0.0
 11
181.65
 21
121.0
 31
0.0
1001
ACAD
1000
TCW40_DEV_WIDTH
1002
{
1040
0.039370078593
1002
}
1001
TCAD
1000
TCW_CUSTOM_DATA
1002
{
1000
#$AUX@_TCDO_SOURCE_COLOR
1070
           3
1071
        0
1000
#$AUX@_TCDO_PARENT_ID
1070
           3
1071
      229
1000
#$AUX@_TCDO_GTYPE
1070
           3
1071
        1
1000
#$AUX@_TCDO_VISIBILITY
1070
           3
1071
        0
1002
}
  0
LINE
  5
19A
100
AcDbEntity
  8
図
370
         100
  6
Continuous
 62
           7
100
AcDbLine
 10
181.65
 20
125.0
 30
0.0
 11
181.65
 21
121.0
 31
0.0
1001
ACAD
1000
TCW40_DEV_WIDTH
1002
{
1040
0.039370078593
1002
}
1001
TCAD
1000
TCW_CUSTOM_DATA
1002
{
1000
#$AUX@_TCDO_SOURCE_COLOR
1070
           3
1071
        0
1000
#$AUX@_TCDO_PARENT_ID
1070
           3
1071
      229
1000
#$AUX@_TCDO_GTYPE
1070
           3
1071
        0
1000
#$AUX@_TCDO_VISIBILITY
1070
           3
1071
        0
1002
}
  0
LINE
  5
19B
100
AcDbEntity
  8
図
370
         100
  6
Continuous
 62
           7
100
AcDbLine
 10
181.65
 20
125.0
 30
0.0
 11
188.416252893428
 21
125.0
 31
0.0
1001
ACAD
1000
TCW40_DEV_WIDTH
1002
{
1040
0.039370078593
1002
}
1001
TCAD
1000
TCW_CUSTOM_DATA
1002
{
1000
#$AUX@_TCDO_SOURCE_COLOR
1070
           3
1071
        0
1000
#$AUX@_TCDO_PARENT_ID
1070
           3
1071
      229
1000
#$AUX@_TCDO_GTYPE
1070
           3
1071
        1
1000
#$AUX@_TCDO_VISIBILITY
1070
           3
1071
        0
1002
}
  0
LINE
  5
19C
100
AcDbEntity
  8
図
370
         100
  6
Continuous
 62
           7
100
AcDbLine
 10
188.416252893428
 20
121.0
 30
0.0
 11
188.416252893428
 21
125.0
 31
0.0
1001
ACAD
1000
TCW40_DEV_WIDTH
1002
{
1040
0.039370078593
1002
}
1001
TCAD
1000
TCW_CUSTOM_DATA
1002
{
1000
#$AUX@_TCDO_SOURCE_COLOR
1070
           3
1071
        0
1000
#$AUX@_TCDO_PARENT_ID
1070
           3
1071
      229
1000
#$AUX@_TCDO_GTYPE
1070
           3
1071
        1
1000
#$AUX@_TCDO_VISIBILITY
1070
           3
1071
        0
1002
}
  0
LINE
  5
19D
100
AcDbEntity
  8
図
370
         100
  6
Continuous
 62
           7
100
AcDbLine
 10
174.883747106572
 20
143.0
 30
0.0
 11
174.883747106572
 21
139.0
 31
0.0
1001
ACAD
1000
TCW40_DEV_WIDTH
1002
{
1040
0.039370078593
1002
}
1001
TCAD
1000
TCW_CUSTOM_DATA
1002
{
1000
#$AUX@_TCDO_SOURCE_COLOR
1070
           3
1071
        0
1000
#$AUX@_TCDO_PARENT_ID
1070
           3
1071
      229
1000
#$AUX@_TCDO_GTYPE
1070
           3
1071
        1
1000
#$AUX@_TCDO_VISIBILITY
1070
           3
1071
        0
1002
}
  0
LINE
  5
19E
100
AcDbEntity
  8
図
370
         100
  6
Continuous
 62
           7
100
AcDbLine
 10
181.65
 20
139.0
 30
0.0
 11
174.883747106572
 21
139.0
 31
0.0
1001
ACAD
1000
TCW40_DEV_WIDTH
1002
{
1040
0.039370078593
1002
}
1001
TCAD
1000
TCW_CUSTOM_DATA
1002
{
1000
#$AUX@_TCDO_SOURCE_COLOR
1070
           3
1071
        0
1000
#$AUX@_TCDO_PARENT_ID
1070
           3
1071
      229
1000
#$AUX@_TCDO_GTYPE
1070
           3
1071
        1
1000
#$AUX@_TCDO_VISIBILITY
1070
           3
1071
        0
1002
}
  0
LINE
  5
19F
100
AcDbEntity
  8
図
370
         100
  6
Continuous
 62
           7
100
AcDbLine
 10
174.883747106572
 20
143.0
 30
0.0
 11
181.65
 21
143.0
 31
0.0
1001
ACAD
1000
TCW40_DEV_WIDTH
1002
{
1040
0.039370078593
1002
}
1001
TCAD
1000
TCW_CUSTOM_DATA
1002
{
1000
#$AUX@_TCDO_SOURCE_COLOR
1070
           3
1071
        0
1000
#$AUX@_TCDO_PARENT_ID
1070
           3
1071
      229
1000
#$AUX@_TCDO_GTYPE
1070
           3
1071
        1
1000
#$AUX@_TCDO_VISIBILITY
1070
           3
1071
        0
1002
}
  0
LINE
  5
1A0
100
AcDbEntity
  8
図
370
         100
  6
Continuous
 62
           7
100
AcDbLine
 10
188.416252893428
 20
139.0
 30
0.0
 11
181.65
 21
139.0
 31
0.0
1001
ACAD
1000
TCW40_DEV_WIDTH
1002
{
1040
0.039370078593
1002
}
1001
TCAD
1000
TCW_CUSTOM_DATA
1002
{
1000
#$AUX@_TCDO_SOURCE_COLOR
1070
           3
1071
        0
1000
#$AUX@_TCDO_PARENT_ID
1070
           3
1071
      229
1000
#$AUX@_TCDO_GTYPE
1070
           3
1071
        1
1000
#$AUX@_TCDO_VISIBILITY
1070
           3
1071
        0
1002
}
  0
LINE
  5
1A1
100
AcDbEntity
  8
図
370
         100
  6
Continuous
 62
           7
100
AcDbLine
 10
181.65
 20
143.0
 30
0.0
 11
181.65
 21
139.0
 31
0.0
1001
ACAD
1000
TCW40_DEV_WIDTH
1002
{
1040
0.039370078593
1002
}
1001
TCAD
1000
TCW_CUSTOM_DATA
1002
{
1000
#$AUX@_TCDO_SOURCE_COLOR
1070
           3
1071
        0
1000
#$AUX@_TCDO_PARENT_ID
1070
           3
1071
      229
1000
#$AUX@_TCDO_GTYPE
1070
           3
1071
        0
1000
#$AUX@_TCDO_VISIBILITY
1070
           3
1071
        0
1002
}
  0
LINE
  5
1A2
100
AcDbEntity
  8
図
370
         100
  6
Continuous
 62
           7
100
AcDbLine
 10
181.65
 20
143.0
 30
0.0
 11
188.416252893428
 21
143.0
 31
0.0
1001
ACAD
1000
TCW40_DEV_WIDTH
1002
{
1040
0.039370078593
1002
}
1001
TCAD
1000
TCW_CUSTOM_DATA
1002
{
1000
#$AUX@_TCDO_SOURCE_COLOR
1070
           3
1071
        0
1000
#$AUX@_TCDO_PARENT_ID
1070
           3
1071
      229
1000
#$AUX@_TCDO_GTYPE
1070
           3
1071
        1
1000
#$AUX@_TCDO_VISIBILITY
1070
           3
1071
        0
1002
}
  0
LINE
  5
1A3
100
AcDbEntity
  8
図
370
         100
  6
Continuous
 62
           7
100
AcDbLine
 10
188.416252893428
 20
139.0
 30
0.0
 11
188.416252893428
 21
143.0
 31
0.0
1001
ACAD
1000
TCW40_DEV_WIDTH
1002
{
1040
0.039370078593
1002
}
1001
TCAD
1000
TCW_CUSTOM_DATA
1002
{
1000
#$AUX@_TCDO_SOURCE_COLOR
1070
           3
1071
        0
1000
#$AUX@_TCDO_PARENT_ID
1070
           3
1071
      229
1000
#$AUX@_TCDO_GTYPE
1070
           3
1071
        1
1000
#$AUX@_TCDO_VISIBILITY
1070
           3
1071
        0
1002
}
  0
LINE
  5
1A4
100
AcDbEntity
  8
図
370
         100
  6
Continuous
 62
           7
100
AcDbLine
 10
174.883747106572
 20
125.2
 30
0.0
 11
174.883747106572
 21
121.2
 31
0.0
1001
ACAD
1000
TCW40_DEV_WIDTH
1002
{
1040
0.039370078593
1002
}
1001
TCAD
1000
TCW_CUSTOM_DATA
1002
{
1000
#$AUX@_TCDO_SOURCE_COLOR
1070
           3
1071
        0
1000
#$AUX@_TCDO_PARENT_ID
1070
           3
1071
      222
1000
#$AUX@_TCDO_GTYPE
1070
           3
1071
        1
1000
#$AUX@_TCDO_VISIBILITY
1070
           3
1071
        0
1002
}
  0
LINE
  5
1A5
100
AcDbEntity
  8
図
370
         100
  6
Continuous
 62
           7
100
AcDbLine
 10
181.550496280966
 20
121.2
 30
0.0
 11
174.883747106572
 21
121.2
 31
0.0
1001
ACAD
1000
TCW40_DEV_WIDTH
1002
{
1040
0.039370078593
1002
}
1001
TCAD
1000
TCW_CUSTOM_DATA
1002
{
1000
#$AUX@_TCDO_SOURCE_COLOR
1070
           3
1071
        0
1000
#$AUX@_TCDO_PARENT_ID
1070
           3
1071
      222
1000
#$AUX@_TCDO_GTYPE
1070
           3
1071
        1
1000
#$AUX@_TCDO_VISIBILITY
1070
           3
1071
        0
1002
}
  0
LINE
  5
1A6
100
AcDbEntity
  8
図
370
         100
  6
Continuous
 62
           7
100
AcDbLine
 10
188.416252893428
 20
121.2
 30
0.0
 11
188.416252893428
 21
125.2
 31
0.0
1001
ACAD
1000
TCW40_DEV_WIDTH
1002
{
1040
0.039370078593
1002
}
1001
TCAD
1000
TCW_CUSTOM_DATA
1002
{
1000
#$AUX@_TCDO_SOURCE_COLOR
1070
           3
1071
        0
1000
#$AUX@_TCDO_PARENT_ID
1070
           3
1071
      222
1000
#$AUX@_TCDO_GTYPE
1070
           3
1071
        1
1000
#$AUX@_TCDO_VISIBILITY
1070
           3
1071
        0
1002
}
  0
LINE
  5
1A7
100
AcDbEntity
  8
図
370
         100
  6
Continuous
 62
           7
100
AcDbLine
 10
188.416252893428
 20
121.2
 30
0.0
 11
181.749503719008
 21
121.2
 31
0.0
1001
ACAD
1000
TCW40_DEV_WIDTH
1002
{
1040
0.039370078593
1002
}
1001
TCAD
1000
TCW_CUSTOM_DATA
1002
{
1000
#$AUX@_TCDO_SOURCE_COLOR
1070
           3
1071
        0
1000
#$AUX@_TCDO_PARENT_ID
1070
           3
1071
      222
1000
#$AUX@_TCDO_GTYPE
1070
           3
1071
        1
1000
#$AUX@_TCDO_VISIBILITY
1070
           3
1071
        0
1002
}
  0
LINE
  5
1A8
100
AcDbEntity
  8
図
370
         100
  6
Continuous
 62
           7
100
AcDbLine
 10
174.883747106572
 20
125.2
 30
0.0
 11
181.550496280966
 21
125.2
 31
0.0
1001
ACAD
1000
TCW40_DEV_WIDTH
1002
{
1040
0.039370078593
1002
}
1001
TCAD
1000
TCW_CUSTOM_DATA
1002
{
1000
#$AUX@_TCDO_SOURCE_COLOR
1070
           3
1071
        0
1000
#$AUX@_TCDO_PARENT_ID
1070
           3
1071
      222
1000
#$AUX@_TCDO_GTYPE
1070
           3
1071
        1
1000
#$AUX@_TCDO_VISIBILITY
1070
           3
1071
        0
1002
}
  0
LINE
  5
1A9
100
AcDbEntity
  8
図
370
         100
  6
Continuous
 62
           7
100
AcDbLine
 10
181.749503719008
 20
125.2
 30
0.0
 11
188.416252893428
 21
125.2
 31
0.0
1001
ACAD
1000
TCW40_DEV_WIDTH
1002
{
1040
0.039370078593
1002
}
1001
TCAD
1000
TCW_CUSTOM_DATA
1002
{
1000
#$AUX@_TCDO_SOURCE_COLOR
1070
           3
1071
        0
1000
#$AUX@_TCDO_PARENT_ID
1070
           3
1071
      222
1000
#$AUX@_TCDO_GTYPE
1070
           3
1071
        1
1000
#$AUX@_TCDO_VISIBILITY
1070
           3
1071
        0
1002
}
  0
LINE
  5
1AA
100
AcDbEntity
  8
図
370
         100
  6
Continuous
 62
           7
100
AcDbLine
 10
181.550496280966
 20
125.2
 30
0.0
 11
181.550496280966
 21
121.2
 31
0.0
1001
ACAD
1000
TCW40_DEV_WIDTH
1002
{
1040
0.039370078593
1002
}
1001
TCAD
1000
TCW_CUSTOM_DATA
1002
{
1000
#$AUX@_TCDO_SOURCE_COLOR
1070
           3
1071
        0
1000
#$AUX@_TCDO_PARENT_ID
1070
           3
1071
      222
1000
#$AUX@_TCDO_GTYPE
1070
           3
1071
        0
1000
#$AUX@_TCDO_VISIBILITY
1070
           3
1071
        0
1002
}
  0
LINE
  5
1AB
100
AcDbEntity
  8
図
370
         100
  6
Continuous
 62
           7
100
AcDbLine
 10
181.550496280966
 20
125.2
 30
0.0
 11
181.749503719008
 21
125.2
 31
0.0
1001
ACAD
1000
TCW40_DEV_WIDTH
1002
{
1040
0.039370078593
1002
}
1001
TCAD
1000
TCW_CUSTOM_DATA
1002
{
1000
#$AUX@_TCDO_SOURCE_COLOR
1070
           3
1071
        0
1000
#$AUX@_TCDO_PARENT_ID
1070
           3
1071
      222
1000
#$AUX@_TCDO_GTYPE
1070
           3
1071
        1
1000
#$AUX@_TCDO_VISIBILITY
1070
           3
1071
        0
1002
}
  0
LINE
  5
1AC
100
AcDbEntity
  8
図
370
         100
  6
Continuous
 62
           7
100
AcDbLine
 10
181.749503719008
 20
121.2
 30
0.0
 11
181.749503719008
 21
125.2
 31
0.0
1001
ACAD
1000
TCW40_DEV_WIDTH
1002
{
1040
0.039370078593
1002
}
1001
TCAD
1000
TCW_CUSTOM_DATA
1002
{
1000
#$AUX@_TCDO_SOURCE_COLOR
1070
           3
1071
        0
1000
#$AUX@_TCDO_PARENT_ID
1070
           3
1071
      222
1000
#$AUX@_TCDO_GTYPE
1070
           3
1071
        0
1000
#$AUX@_TCDO_VISIBILITY
1070
           3
1071
        0
1002
}
  0
LINE
  5
1AD
100
AcDbEntity
  8
図
370
         100
  6
Continuous
 62
           7
100
AcDbLine
 10
181.749503719008
 20
121.2
 30
0.0
 11
181.550496280966
 21
121.2
 31
0.0
1001
ACAD
1000
TCW40_DEV_WIDTH
1002
{
1040
0.039370078593
1002
}
1001
TCAD
1000
TCW_CUSTOM_DATA
1002
{
1000
#$AUX@_TCDO_SOURCE_COLOR
1070
           3
1071
        0
1000
#$AUX@_TCDO_PARENT_ID
1070
           3
1071
      222
1000
#$AUX@_TCDO_GTYPE
1070
           3
1071
        1
1000
#$AUX@_TCDO_VISIBILITY
1070
           3
1071
        0
1002
}
  0
LINE
  5
1AE
100
AcDbEntity
  8
図
370
         100
  6
Continuous
 62
           7
100
AcDbLine
 10
174.883747106572
 20
143.2
 30
0.0
 11
174.883747106572
 21
139.2
 31
0.0
1001
ACAD
1000
TCW40_DEV_WIDTH
1002
{
1040
0.039370078593
1002
}
1001
TCAD
1000
TCW_CUSTOM_DATA
1002
{
1000
#$AUX@_TCDO_SOURCE_COLOR
1070
           3
1071
        0
1000
#$AUX@_TCDO_PARENT_ID
1070
           3
1071
      222
1000
#$AUX@_TCDO_GTYPE
1070
           3
1071
        1
1000
#$AUX@_TCDO_VISIBILITY
1070
           3
1071
        0
1002
}
  0
LINE
  5
1AF
100
AcDbEntity
  8
図
370
         100
  6
Continuous
 62
           7
100
AcDbLine
 10
181.550496280966
 20
139.2
 30
0.0
 11
174.883747106572
 21
139.2
 31
0.0
1001
ACAD
1000
TCW40_DEV_WIDTH
1002
{
1040
0.039370078593
1002
}
1001
TCAD
1000
TCW_CUSTOM_DATA
1002
{
1000
#$AUX@_TCDO_SOURCE_COLOR
1070
           3
1071
        0
1000
#$AUX@_TCDO_PARENT_ID
1070
           3
1071
      222
1000
#$AUX@_TCDO_GTYPE
1070
           3
1071
        1
1000
#$AUX@_TCDO_VISIBILITY
1070
           3
1071
        0
1002
}
  0
LINE
  5
1B0
100
AcDbEntity
  8
図
370
         100
  6
Continuous
 62
           7
100
AcDbLine
 10
188.416252893428
 20
139.2
 30
0.0
 11
188.416252893428
 21
143.2
 31
0.0
1001
ACAD
1000
TCW40_DEV_WIDTH
1002
{
1040
0.039370078593
1002
}
1001
TCAD
1000
TCW_CUSTOM_DATA
1002
{
1000
#$AUX@_TCDO_SOURCE_COLOR
1070
           3
1071
        0
1000
#$AUX@_TCDO_PARENT_ID
1070
           3
1071
      222
1000
#$AUX@_TCDO_GTYPE
1070
           3
1071
        1
1000
#$AUX@_TCDO_VISIBILITY
1070
           3
1071
        0
1002
}
  0
LINE
  5
1B1
100
AcDbEntity
  8
図
370
         100
  6
Continuous
 62
           7
100
AcDbLine
 10
188.416252893428
 20
139.2
 30
0.0
 11
181.749503719008
 21
139.2
 31
0.0
1001
ACAD
1000
TCW40_DEV_WIDTH
1002
{
1040
0.039370078593
1002
}
1001
TCAD
1000
TCW_CUSTOM_DATA
1002
{
1000
#$AUX@_TCDO_SOURCE_COLOR
1070
           3
1071
        0
1000
#$AUX@_TCDO_PARENT_ID
1070
           3
1071
      222
1000
#$AUX@_TCDO_GTYPE
1070
           3
1071
        1
1000
#$AUX@_TCDO_VISIBILITY
1070
           3
1071
        0
1002
}
  0
LINE
  5
1B2
100
AcDbEntity
  8
図
370
         100
  6
Continuous
 62
           7
100
AcDbLine
 10
174.883747106572
 20
143.2
 30
0.0
 11
181.550496280966
 21
143.2
 31
0.0
1001
ACAD
1000
TCW40_DEV_WIDTH
1002
{
1040
0.039370078593
1002
}
1001
TCAD
1000
TCW_CUSTOM_DATA
1002
{
1000
#$AUX@_TCDO_SOURCE_COLOR
1070
           3
1071
        0
1000
#$AUX@_TCDO_PARENT_ID
1070
           3
1071
      222
1000
#$AUX@_TCDO_GTYPE
1070
           3
1071
        1
1000
#$AUX@_TCDO_VISIBILITY
1070
           3
1071
        0
1002
}
  0
LINE
  5
1B3
100
AcDbEntity
  8
図
370
         100
  6
Continuous
 62
           7
100
AcDbLine
 10
181.749503719008
 20
143.2
 30
0.0
 11
188.416252893428
 21
143.2
 31
0.0
1001
ACAD
1000
TCW40_DEV_WIDTH
1002
{
1040
0.039370078593
1002
}
1001
TCAD
1000
TCW_CUSTOM_DATA
1002
{
1000
#$AUX@_TCDO_SOURCE_COLOR
1070
           3
1071
        0
1000
#$AUX@_TCDO_PARENT_ID
1070
           3
1071
      222
1000
#$AUX@_TCDO_GTYPE
1070
           3
1071
        1
1000
#$AUX@_TCDO_VISIBILITY
1070
           3
1071
        0
1002
}
  0
LINE
  5
1B4
100
AcDbEntity
  8
図
370
         100
  6
Continuous
 62
           7
100
AcDbLine
 10
181.550496280966
 20
143.2
 30
0.0
 11
181.550496280966
 21
139.2
 31
0.0
1001
ACAD
1000
TCW40_DEV_WIDTH
1002
{
1040
0.039370078593
1002
}
1001
TCAD
1000
TCW_CUSTOM_DATA
1002
{
1000
#$AUX@_TCDO_SOURCE_COLOR
1070
           3
1071
        0
1000
#$AUX@_TCDO_PARENT_ID
1070
           3
1071
      222
1000
#$AUX@_TCDO_GTYPE
1070
           3
1071
        0
1000
#$AUX@_TCDO_VISIBILITY
1070
           3
1071
        0
1002
}
  0
LINE
  5
1B5
100
AcDbEntity
  8
図
370
         100
  6
Continuous
 62
           7
100
AcDbLine
 10
181.550496280966
 20
143.2
 30
0.0
 11
181.749503719008
 21
143.2
 31
0.0
1001
ACAD
1000
TCW40_DEV_WIDTH
1002
{
1040
0.039370078593
1002
}
1001
TCAD
1000
TCW_CUSTOM_DATA
1002
{
1000
#$AUX@_TCDO_SOURCE_COLOR
1070
           3
1071
        0
1000
#$AUX@_TCDO_PARENT_ID
1070
           3
1071
      222
1000
#$AUX@_TCDO_GTYPE
1070
           3
1071
        1
1000
#$AUX@_TCDO_VISIBILITY
1070
           3
1071
        0
1002
}
  0
LINE
  5
1B6
100
AcDbEntity
  8
図
370
         100
  6
Continuous
 62
           7
100
AcDbLine
 10
181.749503719008
 20
139.2
 30
0.0
 11
181.749503719008
 21
143.2
 31
0.0
1001
ACAD
1000
TCW40_DEV_WIDTH
1002
{
1040
0.039370078593
1002
}
1001
TCAD
1000
TCW_CUSTOM_DATA
1002
{
1000
#$AUX@_TCDO_SOURCE_COLOR
1070
           3
1071
        0
1000
#$AUX@_TCDO_PARENT_ID
1070
           3
1071
      222
1000
#$AUX@_TCDO_GTYPE
1070
           3
1071
        0
1000
#$AUX@_TCDO_VISIBILITY
1070
           3
1071
        0
1002
}
  0
LINE
  5
1B7
100
AcDbEntity
  8
図
370
         100
  6
Continuous
 62
           7
100
AcDbLine
 10
181.749503719008
 20
139.2
 30
0.0
 11
181.550496280966
 21
139.2
 31
0.0
1001
ACAD
1000
TCW40_DEV_WIDTH
1002
{
1040
0.039370078593
1002
}
1001
TCAD
1000
TCW_CUSTOM_DATA
1002
{
1000
#$AUX@_TCDO_SOURCE_COLOR
1070
           3
1071
        0
1000
#$AUX@_TCDO_PARENT_ID
1070
           3
1071
      222
1000
#$AUX@_TCDO_GTYPE
1070
           3
1071
        1
1000
#$AUX@_TCDO_VISIBILITY
1070
           3
1071
        0
1002
}
  0
ARC
  5
1B8
100
AcDbEntity
  8
図
370
         100
  6
Continuous
 62
           7
100
AcDbCircle
 10
170.65
 20
138.3
 30
0.0
 40
0.5
100
AcDbArc
 50
90.0
 51
180.0
1001
ACAD
1000
TCW40_DEV_WIDTH
1002
{
1040
0.039370078593
1002
}
1001
TCAD
1000
TCW_CUSTOM_DATA
1002
{
1000
#$AUX@_TCDO_SOURCE_COLOR
1070
           3
1071
        0
1000
#$AUX@_TCDO_PARENT_ID
1070
           3
1071
      219
1000
#$AUX@_TCDO_GTYPE
1070
           3
1071
        0
1000
#$AUX@_TCDO_VISIBILITY
1070
           3
1071
        0
1002
}
  0
ARC
  5
1B9
100
AcDbEntity
  8
図
370
         100
  6
Continuous
 62
           7
100
AcDbCircle
 10
192.65
 20
138.3
 30
0.0
 40
0.5
100
AcDbArc
 50
0.0
 51
90.0
1001
ACAD
1000
TCW40_DEV_WIDTH
1002
{
1040
0.039370078593
1002
}
1001
TCAD
1000
TCW_CUSTOM_DATA
1002
{
1000
#$AUX@_TCDO_SOURCE_COLOR
1070
           3
1071
        0
1000
#$AUX@_TCDO_PARENT_ID
1070
           3
1071
      219
1000
#$AUX@_TCDO_GTYPE
1070
           3
1071
        0
1000
#$AUX@_TCDO_VISIBILITY
1070
           3
1071
        0
1002
}
  0
ARC
  5
1BA
100
AcDbEntity
  8
図
370
         100
  6
Continuous
 62
           7
100
AcDbCircle
 10
170.65
 20
126.1
 30
0.0
 40
0.5
100
AcDbArc
 50
180.0
 51
270.0
1001
ACAD
1000
TCW40_DEV_WIDTH
1002
{
1040
0.039370078593
1002
}
1001
TCAD
1000
TCW_CUSTOM_DATA
1002
{
1000
#$AUX@_TCDO_SOURCE_COLOR
1070
           3
1071
        0
1000
#$AUX@_TCDO_PARENT_ID
1070
           3
1071
      219
1000
#$AUX@_TCDO_GTYPE
1070
           3
1071
        0
1000
#$AUX@_TCDO_VISIBILITY
1070
           3
1071
        0
1002
}
  0
ARC
  5
1BB
100
AcDbEntity
  8
図
370
         100
  6
Continuous
 62
           7
100
AcDbCircle
 10
196.65
 20
143.5
 30
0.0
 40
1.5
100
AcDbArc
 50
0.0
 51
90.0
1001
ACAD
1000
TCW40_DEV_WIDTH
1002
{
1040
0.039370078593
1002
}
1001
TCAD
1000
TCW_CUSTOM_DATA
1002
{
1000
#$AUX@_TCDO_SOURCE_COLOR
1070
           3
1071
        0
1000
#$AUX@_TCDO_PARENT_ID
1070
           3
1071
      219
1000
#$AUX@_TCDO_GTYPE
1070
           3
1071
        0
1000
#$AUX@_TCDO_VISIBILITY
1070
           3
1071
        0
1002
}
  0
LINE
  5
1BC
100
AcDbEntity
  8
図
370
         100
  6
Continuous
 62
           7
100
AcDbLine
 10
199.014418745425
 20
139.7
 30
0.0
 11
199.014418745425
 21
124.7
 31
0.0
1001
ACAD
1000
TCW40_DEV_WIDTH
1002
{
1040
0.039370078593
1002
}
1001
TCAD
1000
TCW_CUSTOM_DATA
1002
{
1000
#$AUX@_TCDO_SOURCE_COLOR
1070
           3
1071
        0
1000
#$AUX@_TCDO_PARENT_ID
1070
           3
1071
      219
1000
#$AUX@_TCDO_GTYPE
1070
           3
1071
        0
1000
#$AUX@_TCDO_VISIBILITY
1070
           3
1071
        0
1002
}
  0
LINE
  5
1BD
100
AcDbEntity
  8
図
370
         100
  6
Continuous
 62
           7
100
AcDbLine
 10
199.014418745425
 20
124.7
 30
0.0
 11
198.15
 21
124.7
 31
0.0
1001
ACAD
1000
TCW40_DEV_WIDTH
1002
{
1040
0.039370078593
1002
}
1001
TCAD
1000
TCW_CUSTOM_DATA
1002
{
1000
#$AUX@_TCDO_SOURCE_COLOR
1070
           3
1071
        0
1000
#$AUX@_TCDO_PARENT_ID
1070
           3
1071
      219
1000
#$AUX@_TCDO_GTYPE
1070
           3
1071
        1
1000
#$AUX@_TCDO_VISIBILITY
1070
           3
1071
        0
1002
}
  0
LINE
  5
1BE
100
AcDbEntity
  8
図
370
         100
  6
Continuous
 62
           7
100
AcDbLine
 10
198.15
 20
139.7
 30
0.0
 11
199.014418745425
 21
139.7
 31
0.0
1001
ACAD
1000
TCW40_DEV_WIDTH
1002
{
1040
0.039370078593
1002
}
1001
TCAD
1000
TCW_CUSTOM_DATA
1002
{
1000
#$AUX@_TCDO_SOURCE_COLOR
1070
           3
1071
        0
1000
#$AUX@_TCDO_PARENT_ID
1070
           3
1071
      219
1000
#$AUX@_TCDO_GTYPE
1070
           3
1071
        1
1000
#$AUX@_TCDO_VISIBILITY
1070
           3
1071
        0
1002
}
  0
LINE
  5
1BF
100
AcDbEntity
  8
図
370
         100
  6
Continuous
 62
           7
100
AcDbLine
 10
170.65
 20
138.8
 30
0.0
 11
170.15
 21
138.8
 31
0.0
1001
ACAD
1000
TCW40_DEV_WIDTH
1002
{
1040
0.039370078593
1002
}
1001
TCAD
1000
TCW_CUSTOM_DATA
1002
{
1000
#$AUX@_TCDO_SOURCE_COLOR
1070
           3
1071
        0
1000
#$AUX@_TCDO_PARENT_ID
1070
           3
1071
      219
1000
#$AUX@_TCDO_GTYPE
1070
           3
1071
        1
1000
#$AUX@_TCDO_VISIBILITY
1070
           3
1071
        0
1002
}
  0
LINE
  5
1C0
100
AcDbEntity
  8
図
370
         100
  6
Continuous
 62
           7
100
AcDbLine
 10
170.65
 20
138.8
 30
0.0
 11
171.15
 21
138.8
 31
0.0
1001
ACAD
1000
TCW40_DEV_WIDTH
1002
{
1040
0.039370078593
1002
}
1001
TCAD
1000
TCW_CUSTOM_DATA
1002
{
1000
#$AUX@_TCDO_SOURCE_COLOR
1070
           3
1071
        0
1000
#$AUX@_TCDO_PARENT_ID
1070
           3
1071
      219
1000
#$AUX@_TCDO_GTYPE
1070
           3
1071
        1
1000
#$AUX@_TCDO_VISIBILITY
1070
           3
1071
        0
1002
}
  0
LINE
  5
1C1
100
AcDbEntity
  8
図
370
         100
  6
Continuous
 62
           7
100
AcDbLine
 10
171.15
 20
138.3
 30
0.0
 11
170.15
 21
138.3
 31
0.0
1001
ACAD
1000
TCW40_DEV_WIDTH
1002
{
1040
0.039370078593
1002
}
1001
TCAD
1000
TCW_CUSTOM_DATA
1002
{
1000
#$AUX@_TCDO_SOURCE_COLOR
1070
           3
1071
        0
1000
#$AUX@_TCDO_PARENT_ID
1070
           3
1071
      219
1000
#$AUX@_TCDO_GTYPE
1070
           3
1071
        0
1000
#$AUX@_TCDO_VISIBILITY
1070
           3
1071
        0
1002
}
  0
ARC
  5
1C2
100
AcDbEntity
  8
図
370
         100
  6
Continuous
 62
           7
100
AcDbCircle
 10
170.65
 20
138.3
 30
0.0
 40
0.5
100
AcDbArc
 50
90.0
 51
180.0
1001
ACAD
1000
TCW40_DEV_WIDTH
1002
{
1040
0.039370078593
1002
}
1001
TCAD
1000
TCW_CUSTOM_DATA
1002
{
1000
#$AUX@_TCDO_SOURCE_COLOR
1070
           3
1071
        0
1000
#$AUX@_TCDO_PARENT_ID
1070
           3
1071
      219
1000
#$AUX@_TCDO_GTYPE
1070
           3
1071
        0
1000
#$AUX@_TCDO_VISIBILITY
1070
           3
1071
        0
1002
}
  0
LINE
  5
1C3
100
AcDbEntity
  8
図
370
         100
  6
Continuous
 62
           7
100
AcDbLine
 10
192.15
 20
138.8
 30
0.0
 11
171.15
 21
138.8
 31
0.0
1001
ACAD
1000
TCW40_DEV_WIDTH
1002
{
1040
0.039370078593
1002
}
1001
TCAD
1000
TCW_CUSTOM_DATA
1002
{
1000
#$AUX@_TCDO_SOURCE_COLOR
1070
           3
1071
        0
1000
#$AUX@_TCDO_PARENT_ID
1070
           3
1071
      219
1000
#$AUX@_TCDO_GTYPE
1070
           3
1071
        1
1000
#$AUX@_TCDO_VISIBILITY
1070
           3
1071
        0
1002
}
  0
LINE
  5
1C4
100
AcDbEntity
  8
図
370
         100
  6
Continuous
 62
           7
100
AcDbLine
 10
171.15
 20
138.3
 30
0.0
 11
171.15
 21
138.8
 31
0.0
1001
ACAD
1000
TCW40_DEV_WIDTH
1002
{
1040
0.039370078593
1002
}
1001
TCAD
1000
TCW_CUSTOM_DATA
1002
{
1000
#$AUX@_TCDO_SOURCE_COLOR
1070
           3
1071
        0
1000
#$AUX@_TCDO_PARENT_ID
1070
           3
1071
      219
1000
#$AUX@_TCDO_GTYPE
1070
           3
1071
        0
1000
#$AUX@_TCDO_VISIBILITY
1070
           3
1071
        0
1002
}
  0
LINE
  5
1C5
100
AcDbEntity
  8
図
370
         100
  6
Continuous
 62
           7
100
AcDbLine
 10
193.15
 20
138.3
 30
0.0
 11
192.15
 21
138.3
 31
0.0
1001
ACAD
1000
TCW40_DEV_WIDTH
1002
{
1040
0.039370078593
1002
}
1001
TCAD
1000
TCW_CUSTOM_DATA
1002
{
1000
#$AUX@_TCDO_SOURCE_COLOR
1070
           3
1071
        0
1000
#$AUX@_TCDO_PARENT_ID
1070
           3
1071
      219
1000
#$AUX@_TCDO_GTYPE
1070
           3
1071
        0
1000
#$AUX@_TCDO_VISIBILITY
1070
           3
1071
        0
1002
}
  0
LINE
  5
1C6
100
AcDbEntity
  8
図
370
         100
  6
Continuous
 62
           7
100
AcDbLine
 10
192.15
 20
138.3
 30
0.0
 11
192.15
 21
138.8
 31
0.0
1001
ACAD
1000
TCW40_DEV_WIDTH
1002
{
1040
0.039370078593
1002
}
1001
TCAD
1000
TCW_CUSTOM_DATA
1002
{
1000
#$AUX@_TCDO_SOURCE_COLOR
1070
           3
1071
        0
1000
#$AUX@_TCDO_PARENT_ID
1070
           3
1071
      219
1000
#$AUX@_TCDO_GTYPE
1070
           3
1071
        0
1000
#$AUX@_TCDO_VISIBILITY
1070
           3
1071
        0
1002
}
  0
LINE
  5
1C7
100
AcDbEntity
  8
図
370
         100
  6
Continuous
 62
           7
100
AcDbLine
 10
192.15
 20
138.8
 30
0.0
 11
192.65
 21
138.8
 31
0.0
1001
ACAD
1000
TCW40_DEV_WIDTH
1002
{
1040
0.039370078593
1002
}
1001
TCAD
1000
TCW_CUSTOM_DATA
1002
{
1000
#$AUX@_TCDO_SOURCE_COLOR
1070
           3
1071
        0
1000
#$AUX@_TCDO_PARENT_ID
1070
           3
1071
      219
1000
#$AUX@_TCDO_GTYPE
1070
           3
1071
        1
1000
#$AUX@_TCDO_VISIBILITY
1070
           3
1071
        0
1002
}
  0
LINE
  5
1C8
100
AcDbEntity
  8
図
370
         100
  6
Continuous
 62
           7
100
AcDbLine
 10
170.15
 20
126.1
 30
0.0
 11
171.15
 21
126.1
 31
0.0
1001
ACAD
1000
TCW40_DEV_WIDTH
1002
{
1040
0.039370078593
1002
}
1001
TCAD
1000
TCW_CUSTOM_DATA
1002
{
1000
#$AUX@_TCDO_SOURCE_COLOR
1070
           3
1071
        0
1000
#$AUX@_TCDO_PARENT_ID
1070
           3
1071
      219
1000
#$AUX@_TCDO_GTYPE
1070
           3
1071
        0
1000
#$AUX@_TCDO_VISIBILITY
1070
           3
1071
        0
1002
}
  0
LINE
  5
1C9
100
AcDbEntity
  8
図
370
         100
  6
Continuous
 62
           7
100
AcDbLine
 10
171.15
 20
125.6
 30
0.0
 11
171.15
 21
126.1
 31
0.0
1001
ACAD
1000
TCW40_DEV_WIDTH
1002
{
1040
0.039370078593
1002
}
1001
TCAD
1000
TCW_CUSTOM_DATA
1002
{
1000
#$AUX@_TCDO_SOURCE_COLOR
1070
           3
1071
        0
1000
#$AUX@_TCDO_PARENT_ID
1070
           3
1071
      219
1000
#$AUX@_TCDO_GTYPE
1070
           3
1071
        0
1000
#$AUX@_TCDO_VISIBILITY
1070
           3
1071
        0
1002
}
  0
LINE
  5
1CA
100
AcDbEntity
  8
図
370
         100
  6
Continuous
 62
           7
100
AcDbLine
 10
192.15
 20
126.1
 30
0.0
 11
193.15
 21
126.1
 31
0.0
1001
ACAD
1000
TCW40_DEV_WIDTH
1002
{
1040
0.039370078593
1002
}
1001
TCAD
1000
TCW_CUSTOM_DATA
1002
{
1000
#$AUX@_TCDO_SOURCE_COLOR
1070
           3
1071
        0
1000
#$AUX@_TCDO_PARENT_ID
1070
           3
1071
      219
1000
#$AUX@_TCDO_GTYPE
1070
           3
1071
        0
1000
#$AUX@_TCDO_VISIBILITY
1070
           3
1071
        0
1002
}
  0
LINE
  5
1CB
100
AcDbEntity
  8
図
370
         100
  6
Continuous
 62
           7
100
AcDbLine
 10
192.15
 20
125.6
 30
0.0
 11
192.15
 21
126.1
 31
0.0
1001
ACAD
1000
TCW40_DEV_WIDTH
1002
{
1040
0.039370078593
1002
}
1001
TCAD
1000
TCW_CUSTOM_DATA
1002
{
1000
#$AUX@_TCDO_SOURCE_COLOR
1070
           3
1071
        0
1000
#$AUX@_TCDO_PARENT_ID
1070
           3
1071
      219
1000
#$AUX@_TCDO_GTYPE
1070
           3
1071
        0
1000
#$AUX@_TCDO_VISIBILITY
1070
           3
1071
        0
1002
}
  0
LINE
  5
1CC
100
AcDbEntity
  8
図
370
         100
  6
Continuous
 62
           7
100
AcDbLine
 10
171.15
 20
127.599999999997
 30
0.0
 11
171.15
 21
136.8
 31
0.0
1001
ACAD
1000
TCW40_DEV_WIDTH
1002
{
1040
0.039370078593
1002
}
1001
TCAD
1000
TCW_CUSTOM_DATA
1002
{
1000
#$AUX@_TCDO_SOURCE_COLOR
1070
           3
1071
        0
1000
#$AUX@_TCDO_PARENT_ID
1070
           3
1071
      219
1000
#$AUX@_TCDO_GTYPE
1070
           3
1071
        0
1000
#$AUX@_TCDO_VISIBILITY
1070
           3
1071
        0
1002
}
  0
LINE
  5
1CD
100
AcDbEntity
  8
図
370
         100
  6
Continuous
 62
           7
100
AcDbLine
 10
192.15
 20
126.600000000005
 30
0.0
 11
192.15
 21
126.1
 31
0.0
1001
ACAD
1000
TCW40_DEV_WIDTH
1002
{
1040
0.039370078593
1002
}
1001
TCAD
1000
TCW_CUSTOM_DATA
1002
{
1000
#$AUX@_TCDO_SOURCE_COLOR
1070
           3
1071
        0
1000
#$AUX@_TCDO_PARENT_ID
1070
           3
1071
      219
1000
#$AUX@_TCDO_GTYPE
1070
           3
1071
        0
1000
#$AUX@_TCDO_VISIBILITY
1070
           3
1071
        0
1002
}
  0
LINE
  5
1CE
100
AcDbEntity
  8
図
370
         100
  6
Continuous
 62
           7
100
AcDbLine
 10
192.15
 20
126.1
 30
0.0
 11
171.15
 21
126.1
 31
0.0
1001
ACAD
1000
TCW40_DEV_WIDTH
1002
{
1040
0.039370078593
1002
}
1001
TCAD
1000
TCW_CUSTOM_DATA
1002
{
1000
#$AUX@_TCDO_SOURCE_COLOR
1070
           3
1071
        0
1000
#$AUX@_TCDO_PARENT_ID
1070
           3
1071
      219
1000
#$AUX@_TCDO_GTYPE
1070
           3
1071
        0
1000
#$AUX@_TCDO_VISIBILITY
1070
           3
1071
        0
1002
}
  0
LINE
  5
1CF
100
AcDbEntity
  8
図
370
         100
  6
Continuous
 62
           7
100
AcDbLine
 10
171.15
 20
126.1
 30
0.0
 11
171.15
 21
126.599999999996
 31
0.0
1001
ACAD
1000
TCW40_DEV_WIDTH
1002
{
1040
0.039370078593
1002
}
1001
TCAD
1000
TCW_CUSTOM_DATA
1002
{
1000
#$AUX@_TCDO_SOURCE_COLOR
1070
           3
1071
        0
1000
#$AUX@_TCDO_PARENT_ID
1070
           3
1071
      219
1000
#$AUX@_TCDO_GTYPE
1070
           3
1071
        0
1000
#$AUX@_TCDO_VISIBILITY
1070
           3
1071
        0
1002
}
  0
LINE
  5
1D0
100
AcDbEntity
  8
図
370
         100
  6
Continuous
 62
           7
100
AcDbLine
 10
192.15
 20
136.8
 30
0.0
 11
192.15
 21
127.600000000006
 31
0.0
1001
ACAD
1000
TCW40_DEV_WIDTH
1002
{
1040
0.039370078593
1002
}
1001
TCAD
1000
TCW_CUSTOM_DATA
1002
{
1000
#$AUX@_TCDO_SOURCE_COLOR
1070
           3
1071
        0
1000
#$AUX@_TCDO_PARENT_ID
1070
           3
1071
      219
1000
#$AUX@_TCDO_GTYPE
1070
           3
1071
        0
1000
#$AUX@_TCDO_VISIBILITY
1070
           3
1071
        0
1002
}
  0
LINE
  5
1D1
100
AcDbEntity
  8
図
370
         100
  6
Continuous
 62
           7
100
AcDbLine
 10
171.15
 20
137.8
 30
0.0
 11
171.15
 21
138.3
 31
0.0
1001
ACAD
1000
TCW40_DEV_WIDTH
1002
{
1040
0.039370078593
1002
}
1001
TCAD
1000
TCW_CUSTOM_DATA
1002
{
1000
#$AUX@_TCDO_SOURCE_COLOR
1070
           3
1071
        0
1000
#$AUX@_TCDO_PARENT_ID
1070
           3
1071
      219
1000
#$AUX@_TCDO_GTYPE
1070
           3
1071
        0
1000
#$AUX@_TCDO_VISIBILITY
1070
           3
1071
        0
1002
}
  0
LINE
  5
1D2
100
AcDbEntity
  8
図
370
         100
  6
Continuous
 62
           7
100
AcDbLine
 10
171.15
 20
138.3
 30
0.0
 11
192.15
 21
138.3
 31
0.0
1001
ACAD
1000
TCW40_DEV_WIDTH
1002
{
1040
0.039370078593
1002
}
1001
TCAD
1000
TCW_CUSTOM_DATA
1002
{
1000
#$AUX@_TCDO_SOURCE_COLOR
1070
           3
1071
        0
1000
#$AUX@_TCDO_PARENT_ID
1070
           3
1071
      219
1000
#$AUX@_TCDO_GTYPE
1070
           3
1071
        0
1000
#$AUX@_TCDO_VISIBILITY
1070
           3
1071
        0
1002
}
  0
LINE
  5
1D3
100
AcDbEntity
  8
図
370
         100
  6
Continuous
 62
           7
100
AcDbLine
 10
192.15
 20
138.3
 30
0.0
 11
192.15
 21
137.8
 31
0.0
1001
ACAD
1000
TCW40_DEV_WIDTH
1002
{
1040
0.039370078593
1002
}
1001
TCAD
1000
TCW_CUSTOM_DATA
1002
{
1000
#$AUX@_TCDO_SOURCE_COLOR
1070
           3
1071
        0
1000
#$AUX@_TCDO_PARENT_ID
1070
           3
1071
      219
1000
#$AUX@_TCDO_GTYPE
1070
           3
1071
        0
1000
#$AUX@_TCDO_VISIBILITY
1070
           3
1071
        0
1002
}
  0
LINE
  5
1D4
100
AcDbEntity
  8
図
370
         100
  6
Continuous
 62
           7
100
AcDbLine
 10
182.15
 20
136.8
 30
0.0
 11
182.15
 21
127.600000000002
 31
0.0
1001
ACAD
1000
TCW40_DEV_WIDTH
1002
{
1040
0.039370078593
1002
}
1001
TCAD
1000
TCW_CUSTOM_DATA
1002
{
1000
#$AUX@_TCDO_SOURCE_COLOR
1070
           3
1071
        0
1000
#$AUX@_TCDO_PARENT_ID
1070
           3
1071
      219
1000
#$AUX@_TCDO_GTYPE
1070
           3
1071
        1
1000
#$AUX@_TCDO_VISIBILITY
1070
           3
1071
        0
1002
}
  0
LINE
  5
1D5
100
AcDbEntity
  8
図
370
         100
  6
Continuous
 62
           7
100
AcDbLine
 10
192.15
 20
136.8
 30
0.0
 11
182.15
 21
136.8
 31
0.0
1001
ACAD
1000
TCW40_DEV_WIDTH
1002
{
1040
0.039370078593
1002
}
1001
TCAD
1000
TCW_CUSTOM_DATA
1002
{
1000
#$AUX@_TCDO_SOURCE_COLOR
1070
           3
1071
        0
1000
#$AUX@_TCDO_PARENT_ID
1070
           3
1071
      219
1000
#$AUX@_TCDO_GTYPE
1070
           3
1071
        1
1000
#$AUX@_TCDO_VISIBILITY
1070
           3
1071
        0
1002
}
  0
LINE
  5
1D6
100
AcDbEntity
  8
図
370
         100
  6
Continuous
 62
           7
100
AcDbLine
 10
192.15
 20
127.600000000006
 30
0.0
 11
192.15
 21
126.600000000005
 31
0.0
1001
ACAD
1000
TCW40_DEV_WIDTH
1002
{
1040
0.039370078593
1002
}
1001
TCAD
1000
TCW_CUSTOM_DATA
1002
{
1000
#$AUX@_TCDO_SOURCE_COLOR
1070
           3
1071
        0
1000
#$AUX@_TCDO_PARENT_ID
1070
           3
1071
      219
1000
#$AUX@_TCDO_GTYPE
1070
           3
1071
        1
1000
#$AUX@_TCDO_VISIBILITY
1070
           3
1071
        0
1002
}
  0
LINE
  5
1D7
100
AcDbEntity
  8
図
370
         100
  6
Continuous
 62
           7
100
AcDbLine
 10
192.150000000005
 20
126.600000000005
 30
0.0
 11
171.150000000005
 21
126.599999999996
 31
0.0
1001
ACAD
1000
TCW40_DEV_WIDTH
1002
{
1040
0.039370078593
1002
}
1001
TCAD
1000
TCW_CUSTOM_DATA
1002
{
1000
#$AUX@_TCDO_SOURCE_COLOR
1070
           3
1071
        0
1000
#$AUX@_TCDO_PARENT_ID
1070
           3
1071
      219
1000
#$AUX@_TCDO_GTYPE
1070
           3
1071
        1
1000
#$AUX@_TCDO_VISIBILITY
1070
           3
1071
        0
1002
}
  0
LINE
  5
1D8
100
AcDbEntity
  8
図
370
         100
  6
Continuous
 62
           7
100
AcDbLine
 10
171.15
 20
126.599999999996
 30
0.0
 11
171.15
 21
127.599999999997
 31
0.0
1001
ACAD
1000
TCW40_DEV_WIDTH
1002
{
1040
0.039370078593
1002
}
1001
TCAD
1000
TCW_CUSTOM_DATA
1002
{
1000
#$AUX@_TCDO_SOURCE_COLOR
1070
           3
1071
        0
1000
#$AUX@_TCDO_PARENT_ID
1070
           3
1071
      219
1000
#$AUX@_TCDO_GTYPE
1070
           3
1071
        1
1000
#$AUX@_TCDO_VISIBILITY
1070
           3
1071
        0
1002
}
  0
LINE
  5
1D9
100
AcDbEntity
  8
図
370
         100
  6
Continuous
 62
           7
100
AcDbLine
 10
182.15
 20
127.600000000002
 30
0.0
 11
192.150000000005
 21
127.600000000006
 31
0.0
1001
ACAD
1000
TCW40_DEV_WIDTH
1002
{
1040
0.039370078593
1002
}
1001
TCAD
1000
TCW_CUSTOM_DATA
1002
{
1000
#$AUX@_TCDO_SOURCE_COLOR
1070
           3
1071
        0
1000
#$AUX@_TCDO_PARENT_ID
1070
           3
1071
      219
1000
#$AUX@_TCDO_GTYPE
1070
           3
1071
        1
1000
#$AUX@_TCDO_VISIBILITY
1070
           3
1071
        0
1002
}
  0
LINE
  5
1DA
100
AcDbEntity
  8
図
370
         100
  6
Continuous
 62
           7
100
AcDbLine
 10
192.15
 20
137.8
 30
0.0
 11
192.15
 21
136.8
 31
0.0
1001
ACAD
1000
TCW40_DEV_WIDTH
1002
{
1040
0.039370078593
1002
}
1001
TCAD
1000
TCW_CUSTOM_DATA
1002
{
1000
#$AUX@_TCDO_SOURCE_COLOR
1070
           3
1071
        0
1000
#$AUX@_TCDO_PARENT_ID
1070
           3
1071
      219
1000
#$AUX@_TCDO_GTYPE
1070
           3
1071
        1
1000
#$AUX@_TCDO_VISIBILITY
1070
           3
1071
        0
1002
}
  0
LINE
  5
1DB
100
AcDbEntity
  8
図
370
         100
  6
Continuous
 62
           7
100
AcDbLine
 10
171.15
 20
137.8
 30
0.0
 11
192.15
 21
137.8
 31
0.0
1001
ACAD
1000
TCW40_DEV_WIDTH
1002
{
1040
0.039370078593
1002
}
1001
TCAD
1000
TCW_CUSTOM_DATA
1002
{
1000
#$AUX@_TCDO_SOURCE_COLOR
1070
           3
1071
        0
1000
#$AUX@_TCDO_PARENT_ID
1070
           3
1071
      219
1000
#$AUX@_TCDO_GTYPE
1070
           3
1071
        1
1000
#$AUX@_TCDO_VISIBILITY
1070
           3
1071
        0
1002
}
  0
LINE
  5
1DC
100
AcDbEntity
  8
図
370
         100
  6
Continuous
 62
           7
100
AcDbLine
 10
171.15
 20
136.8
 30
0.0
 11
171.15
 21
137.8
 31
0.0
1001
ACAD
1000
TCW40_DEV_WIDTH
1002
{
1040
0.039370078593
1002
}
1001
TCAD
1000
TCW_CUSTOM_DATA
1002
{
1000
#$AUX@_TCDO_SOURCE_COLOR
1070
           3
1071
        0
1000
#$AUX@_TCDO_PARENT_ID
1070
           3
1071
      219
1000
#$AUX@_TCDO_GTYPE
1070
           3
1071
        1
1000
#$AUX@_TCDO_VISIBILITY
1070
           3
1071
        0
1002
}
  0
LINE
  5
1DD
100
AcDbEntity
  8
図
370
         100
  6
Continuous
 62
           7
100
AcDbLine
 10
181.15
 20
136.8
 30
0.0
 11
171.15
 21
136.8
 31
0.0
1001
ACAD
1000
TCW40_DEV_WIDTH
1002
{
1040
0.039370078593
1002
}
1001
TCAD
1000
TCW_CUSTOM_DATA
1002
{
1000
#$AUX@_TCDO_SOURCE_COLOR
1070
           3
1071
        0
1000
#$AUX@_TCDO_PARENT_ID
1070
           3
1071
      219
1000
#$AUX@_TCDO_GTYPE
1070
           3
1071
        1
1000
#$AUX@_TCDO_VISIBILITY
1070
           3
1071
        0
1002
}
  0
LINE
  5
1DE
100
AcDbEntity
  8
図
370
         100
  6
Continuous
 62
           7
100
AcDbLine
 10
181.15
 20
127.600000000001
 30
0.0
 11
181.15
 21
136.8
 31
0.0
1001
ACAD
1000
TCW40_DEV_WIDTH
1002
{
1040
0.039370078593
1002
}
1001
TCAD
1000
TCW_CUSTOM_DATA
1002
{
1000
#$AUX@_TCDO_SOURCE_COLOR
1070
           3
1071
        0
1000
#$AUX@_TCDO_PARENT_ID
1070
           3
1071
      219
1000
#$AUX@_TCDO_GTYPE
1070
           3
1071
        1
1000
#$AUX@_TCDO_VISIBILITY
1070
           3
1071
        0
1002
}
  0
LINE
  5
1DF
100
AcDbEntity
  8
図
370
         100
  6
Continuous
 62
           7
100
AcDbLine
 10
171.150000000005
 20
127.599999999997
 30
0.0
 11
181.15
 21
127.600000000001
 31
0.0
1001
ACAD
1000
TCW40_DEV_WIDTH
1002
{
1040
0.039370078593
1002
}
1001
TCAD
1000
TCW_CUSTOM_DATA
1002
{
1000
#$AUX@_TCDO_SOURCE_COLOR
1070
           3
1071
        0
1000
#$AUX@_TCDO_PARENT_ID
1070
           3
1071
      219
1000
#$AUX@_TCDO_GTYPE
1070
           3
1071
        1
1000
#$AUX@_TCDO_VISIBILITY
1070
           3
1071
        0
1002
}
  0
LINE
  5
1E0
100
AcDbEntity
  8
図
370
         100
  6
Continuous
 62
           7
100
AcDbLine
 10
170.15
 20
138.3
 30
0.0
 11
170.15
 21
138.8
 31
0.0
1001
ACAD
1000
TCW40_DEV_WIDTH
1002
{
1040
0.039370078593
1002
}
1001
TCAD
1000
TCW_CUSTOM_DATA
1002
{
1000
#$AUX@_TCDO_SOURCE_COLOR
1070
           3
1071
        0
1000
#$AUX@_TCDO_PARENT_ID
1070
           3
1071
      219
1000
#$AUX@_TCDO_GTYPE
1070
           3
1071
        1
1000
#$AUX@_TCDO_VISIBILITY
1070
           3
1071
        0
1002
}
  0
LINE
  5
1E1
100
AcDbEntity
  8
図
370
         100
  6
Continuous
 62
           7
100
AcDbLine
 10
170.15
 20
138.3
 30
0.0
 11
170.15
 21
126.1
 31
0.0
1001
ACAD
1000
TCW40_DEV_WIDTH
1002
{
1040
0.039370078593
1002
}
1001
TCAD
1000
TCW_CUSTOM_DATA
1002
{
1000
#$AUX@_TCDO_SOURCE_COLOR
1070
           3
1071
        0
1000
#$AUX@_TCDO_PARENT_ID
1070
           3
1071
      219
1000
#$AUX@_TCDO_GTYPE
1070
           3
1071
        1
1000
#$AUX@_TCDO_VISIBILITY
1070
           3
1071
        0
1002
}
  0
ARC
  5
1E2
100
AcDbEntity
  8
図
370
         100
  6
Continuous
 62
           7
100
AcDbCircle
 10
170.65
 20
126.1
 30
0.0
 40
0.5
100
AcDbArc
 50
180.0
 51
270.0
1001
ACAD
1000
TCW40_DEV_WIDTH
1002
{
1040
0.039370078593
1002
}
1001
TCAD
1000
TCW_CUSTOM_DATA
1002
{
1000
#$AUX@_TCDO_SOURCE_COLOR
1070
           3
1071
        0
1000
#$AUX@_TCDO_PARENT_ID
1070
           3
1071
      219
1000
#$AUX@_TCDO_GTYPE
1070
           3
1071
        0
1000
#$AUX@_TCDO_VISIBILITY
1070
           3
1071
        0
1002
}
  0
LINE
  5
1E3
100
AcDbEntity
  8
図
370
         100
  6
Continuous
 62
           7
100
AcDbLine
 10
170.15
 20
125.6
 30
0.0
 11
170.15
 21
126.1
 31
0.0
1001
ACAD
1000
TCW40_DEV_WIDTH
1002
{
1040
0.039370078593
1002
}
1001
TCAD
1000
TCW_CUSTOM_DATA
1002
{
1000
#$AUX@_TCDO_SOURCE_COLOR
1070
           3
1071
        0
1000
#$AUX@_TCDO_PARENT_ID
1070
           3
1071
      219
1000
#$AUX@_TCDO_GTYPE
1070
           3
1071
        1
1000
#$AUX@_TCDO_VISIBILITY
1070
           3
1071
        0
1002
}
  0
ARC
  5
1E4
100
AcDbEntity
  8
図
370
         100
  6
Continuous
 62
           7
100
AcDbCircle
 10
192.65
 20
138.3
 30
0.0
 40
0.5
100
AcDbArc
 50
0.0
 51
90.0
1001
ACAD
1000
TCW40_DEV_WIDTH
1002
{
1040
0.039370078593
1002
}
1001
TCAD
1000
TCW_CUSTOM_DATA
1002
{
1000
#$AUX@_TCDO_SOURCE_COLOR
1070
           3
1071
        0
1000
#$AUX@_TCDO_PARENT_ID
1070
           3
1071
      219
1000
#$AUX@_TCDO_GTYPE
1070
           3
1071
        1
1000
#$AUX@_TCDO_VISIBILITY
1070
           3
1071
        0
1002
}
  0
LINE
  5
1E5
100
AcDbEntity
  8
図
370
         100
  6
Continuous
 62
           7
100
AcDbLine
 10
193.15
 20
126.1
 30
0.0
 11
193.15
 21
138.3
 31
0.0
1001
ACAD
1000
TCW40_DEV_WIDTH
1002
{
1040
0.039370078593
1002
}
1001
TCAD
1000
TCW_CUSTOM_DATA
1002
{
1000
#$AUX@_TCDO_SOURCE_COLOR
1070
           3
1071
        0
1000
#$AUX@_TCDO_PARENT_ID
1070
           3
1071
      219
1000
#$AUX@_TCDO_GTYPE
1070
           3
1071
        1
1000
#$AUX@_TCDO_VISIBILITY
1070
           3
1071
        0
1002
}
  0
ARC
  5
1E6
100
AcDbEntity
  8
図
370
         100
  6
Continuous
 62
           7
100
AcDbCircle
 10
192.65
 20
126.1
 30
0.0
 40
0.5
100
AcDbArc
 50
-90.0
 51
0.0
1001
ACAD
1000
TCW40_DEV_WIDTH
1002
{
1040
0.039370078593
1002
}
1001
TCAD
1000
TCW_CUSTOM_DATA
1002
{
1000
#$AUX@_TCDO_SOURCE_COLOR
1070
           3
1071
        0
1000
#$AUX@_TCDO_PARENT_ID
1070
           3
1071
      219
1000
#$AUX@_TCDO_GTYPE
1070
           3
1071
        1
1000
#$AUX@_TCDO_VISIBILITY
1070
           3
1071
        0
1002
}
  0
ARC
  5
1E7
100
AcDbEntity
  8
図
370
         100
  6
Continuous
 62
           7
100
AcDbCircle
 10
196.65
 20
143.5
 30
0.0
 40
1.5
100
AcDbArc
 50
0.0
 51
90.0
1001
ACAD
1000
TCW40_DEV_WIDTH
1002
{
1040
0.039370078593
1002
}
1001
TCAD
1000
TCW_CUSTOM_DATA
1002
{
1000
#$AUX@_TCDO_SOURCE_COLOR
1070
           3
1071
        0
1000
#$AUX@_TCDO_PARENT_ID
1070
           3
1071
      219
1000
#$AUX@_TCDO_GTYPE
1070
           3
1071
        1
1000
#$AUX@_TCDO_VISIBILITY
1070
           3
1071
        0
1002
}
  0
LINE
  5
1E8
100
AcDbEntity
  8
図
370
         100
  6
Continuous
 62
           7
100
AcDbLine
 10
196.65
 20
119.9
 30
0.0
 11
196.65
 21
119.4
 31
0.0
1001
ACAD
1000
TCW40_DEV_WIDTH
1002
{
1040
0.039370078593
1002
}
1001
TCAD
1000
TCW_CUSTOM_DATA
1002
{
1000
#$AUX@_TCDO_SOURCE_COLOR
1070
           3
1071
        0
1000
#$AUX@_TCDO_PARENT_ID
1070
           3
1071
      219
1000
#$AUX@_TCDO_GTYPE
1070
           3
1071
        0
1000
#$AUX@_TCDO_VISIBILITY
1070
           3
1071
        0
1002
}
  0
LINE
  5
1E9
100
AcDbEntity
  8
図
370
         100
  6
Continuous
 62
           7
100
AcDbLine
 10
196.65
 20
144.5
 30
0.0
 11
196.65
 21
145.0
 31
0.0
1001
ACAD
1000
TCW40_DEV_WIDTH
1002
{
1040
0.039370078593
1002
}
1001
TCAD
1000
TCW_CUSTOM_DATA
1002
{
1000
#$AUX@_TCDO_SOURCE_COLOR
1070
           3
1071
        0
1000
#$AUX@_TCDO_PARENT_ID
1070
           3
1071
      219
1000
#$AUX@_TCDO_GTYPE
1070
           3
1071
        0
1000
#$AUX@_TCDO_VISIBILITY
1070
           3
1071
        0
1002
}
  0
LINE
  5
1EA
100
AcDbEntity
  8
図
370
         100
  6
Continuous
 62
           7
100
AcDbLine
 10
186.549999999997
 20
144.0
 30
0.0
 11
186.549999999997
 21
145.0
 31
0.0
1001
ACAD
1000
TCW40_DEV_WIDTH
1002
{
1040
0.039370078593
1002
}
1001
TCAD
1000
TCW_CUSTOM_DATA
1002
{
1000
#$AUX@_TCDO_SOURCE_COLOR
1070
           3
1071
        0
1000
#$AUX@_TCDO_PARENT_ID
1070
           3
1071
      219
1000
#$AUX@_TCDO_GTYPE
1070
           3
1071
        0
1000
#$AUX@_TCDO_VISIBILITY
1070
           3
1071
        0
1002
}
  0
LINE
  5
1EB
100
AcDbEntity
  8
図
370
         100
  6
Continuous
 62
           7
100
AcDbLine
 10
186.549999999997
 20
137.8
 30
0.0
 11
186.549999999997
 21
138.8
 31
0.0
1001
ACAD
1000
TCW40_DEV_WIDTH
1002
{
1040
0.039370078593
1002
}
1001
TCAD
1000
TCW_CUSTOM_DATA
1002
{
1000
#$AUX@_TCDO_SOURCE_COLOR
1070
           3
1071
        0
1000
#$AUX@_TCDO_PARENT_ID
1070
           3
1071
      219
1000
#$AUX@_TCDO_GTYPE
1070
           3
1071
        0
1000
#$AUX@_TCDO_VISIBILITY
1070
           3
1071
        0
1002
}
  0
LINE
  5
1EC
100
AcDbEntity
  8
図
370
         100
  6
Continuous
 62
           7
100
AcDbLine
 10
165.149999999895
 20
143.5
 30
0.0
 11
165.649999999895
 21
143.5
 31
0.0
1001
ACAD
1000
TCW40_DEV_WIDTH
1002
{
1040
0.039370078593
1002
}
1001
TCAD
1000
TCW_CUSTOM_DATA
1002
{
1000
#$AUX@_TCDO_SOURCE_COLOR
1070
           3
1071
        0
1000
#$AUX@_TCDO_PARENT_ID
1070
           3
1071
      219
1000
#$AUX@_TCDO_GTYPE
1070
           3
1071
        0
1000
#$AUX@_TCDO_VISIBILITY
1070
           3
1071
        0
1002
}
  0
LINE
  5
1ED
100
AcDbEntity
  8
図
370
         100
  6
Continuous
 62
           7
100
AcDbLine
 10
166.649999999895
 20
144.5
 30
0.0
 11
166.649999999895
 21
145.0
 31
0.0
1001
ACAD
1000
TCW40_DEV_WIDTH
1002
{
1040
0.039370078593
1002
}
1001
TCAD
1000
TCW_CUSTOM_DATA
1002
{
1000
#$AUX@_TCDO_SOURCE_COLOR
1070
           3
1071
        0
1000
#$AUX@_TCDO_PARENT_ID
1070
           3
1071
      219
1000
#$AUX@_TCDO_GTYPE
1070
           3
1071
        0
1000
#$AUX@_TCDO_VISIBILITY
1070
           3
1071
        0
1002
}
  0
LINE
  5
1EE
100
AcDbEntity
  8
図
370
         100
  6
Continuous
 62
           7
100
AcDbLine
 10
166.649999999895
 20
119.9
 30
0.0
 11
166.649999999895
 21
119.4
 31
0.0
1001
ACAD
1000
TCW40_DEV_WIDTH
1002
{
1040
0.039370078593
1002
}
1001
TCAD
1000
TCW_CUSTOM_DATA
1002
{
1000
#$AUX@_TCDO_SOURCE_COLOR
1070
           3
1071
        0
1000
#$AUX@_TCDO_PARENT_ID
1070
           3
1071
      219
1000
#$AUX@_TCDO_GTYPE
1070
           3
1071
        0
1000
#$AUX@_TCDO_VISIBILITY
1070
           3
1071
        0
1002
}
  0
LINE
  5
1EF
100
AcDbEntity
  8
図
370
         100
  6
Continuous
 62
           7
100
AcDbLine
 10
176.749999999898
 20
137.8
 30
0.0
 11
176.749999999898
 21
138.8
 31
0.0
1001
ACAD
1000
TCW40_DEV_WIDTH
1002
{
1040
0.039370078593
1002
}
1001
TCAD
1000
TCW_CUSTOM_DATA
1002
{
1000
#$AUX@_TCDO_SOURCE_COLOR
1070
           3
1071
        0
1000
#$AUX@_TCDO_PARENT_ID
1070
           3
1071
      219
1000
#$AUX@_TCDO_GTYPE
1070
           3
1071
        0
1000
#$AUX@_TCDO_VISIBILITY
1070
           3
1071
        0
1002
}
  0
ARC
  5
1F0
100
AcDbEntity
  8
図
370
         100
  6
Continuous
 62
           7
100
AcDbCircle
 10
196.65
 20
120.9
 30
0.0
 40
1.5
100
AcDbArc
 50
-90.0
 51
0.0
1001
ACAD
1000
TCW40_DEV_WIDTH
1002
{
1040
0.039370078593
1002
}
1001
TCAD
1000
TCW_CUSTOM_DATA
1002
{
1000
#$AUX@_TCDO_SOURCE_COLOR
1070
           3
1071
        0
1000
#$AUX@_TCDO_PARENT_ID
1070
           3
1071
      219
1000
#$AUX@_TCDO_GTYPE
1070
           3
1071
        1
1000
#$AUX@_TCDO_VISIBILITY
1070
           3
1071
        0
1002
}
  0
LINE
  5
1F1
100
AcDbEntity
  8
図
370
         100
  6
Continuous
 62
           7
100
AcDbLine
 10
196.65
 20
145.0
 30
0.0
 11
166.649999999895
 21
145.0
 31
0.0
1001
ACAD
1000
TCW40_DEV_WIDTH
1002
{
1040
0.039370078593
1002
}
1001
TCAD
1000
TCW_CUSTOM_DATA
1002
{
1000
#$AUX@_TCDO_SOURCE_COLOR
1070
           3
1071
        0
1000
#$AUX@_TCDO_PARENT_ID
1070
           3
1071
      219
1000
#$AUX@_TCDO_GTYPE
1070
           3
1071
        1
1000
#$AUX@_TCDO_VISIBILITY
1070
           3
1071
        0
1002
}
  0
LINE
  5
1F2
100
AcDbEntity
  8
図
370
         100
  6
Continuous
 62
           7
100
AcDbLine
 10
166.649999999895
 20
119.4
 30
0.0
 11
196.65
 21
119.4
 31
0.0
1001
ACAD
1000
TCW40_DEV_WIDTH
1002
{
1040
0.039370078593
1002
}
1001
TCAD
1000
TCW_CUSTOM_DATA
1002
{
1000
#$AUX@_TCDO_SOURCE_COLOR
1070
           3
1071
        0
1000
#$AUX@_TCDO_PARENT_ID
1070
           3
1071
      219
1000
#$AUX@_TCDO_GTYPE
1070
           3
1071
        1
1000
#$AUX@_TCDO_VISIBILITY
1070
           3
1071
        0
1002
}
  0
LINE
  5
1F3
100
AcDbEntity
  8
図
370
         100
  6
Continuous
 62
           7
100
AcDbLine
 10
186.549999999997
 20
119.4
 30
0.0
 11
186.549999999997
 21
120.4
 31
0.0
1001
ACAD
1000
TCW40_DEV_WIDTH
1002
{
1040
0.039370078593
1002
}
1001
TCAD
1000
TCW_CUSTOM_DATA
1002
{
1000
#$AUX@_TCDO_SOURCE_COLOR
1070
           3
1071
        0
1000
#$AUX@_TCDO_PARENT_ID
1070
           3
1071
      219
1000
#$AUX@_TCDO_GTYPE
1070
           3
1071
        0
1000
#$AUX@_TCDO_VISIBILITY
1070
           3
1071
        0
1002
}
  0
LINE
  5
1F4
100
AcDbEntity
  8
図
370
         100
  6
Continuous
 62
           7
100
AcDbLine
 10
176.749999999898
 20
119.4
 30
0.0
 11
176.749999999898
 21
120.4
 31
0.0
1001
ACAD
1000
TCW40_DEV_WIDTH
1002
{
1040
0.039370078593
1002
}
1001
TCAD
1000
TCW_CUSTOM_DATA
1002
{
1000
#$AUX@_TCDO_SOURCE_COLOR
1070
           3
1071
        0
1000
#$AUX@_TCDO_PARENT_ID
1070
           3
1071
      219
1000
#$AUX@_TCDO_GTYPE
1070
           3
1071
        0
1000
#$AUX@_TCDO_VISIBILITY
1070
           3
1071
        0
1002
}
  0
ARC
  5
1F5
100
AcDbEntity
  8
図
370
         100
  6
Continuous
 62
           7
100
AcDbCircle
 10
166.649999999895
 20
120.9
 30
0.0
 40
1.5
100
AcDbArc
 50
180.0
 51
270.0
1001
ACAD
1000
TCW40_DEV_WIDTH
1002
{
1040
0.039370078593
1002
}
1001
TCAD
1000
TCW_CUSTOM_DATA
1002
{
1000
#$AUX@_TCDO_SOURCE_COLOR
1070
           3
1071
        0
1000
#$AUX@_TCDO_PARENT_ID
1070
           3
1071
      219
1000
#$AUX@_TCDO_GTYPE
1070
           3
1071
        1
1000
#$AUX@_TCDO_VISIBILITY
1070
           3
1071
        0
1002
}
  0
LINE
  5
1F6
100
AcDbEntity
  8
図
370
         100
  6
Continuous
 62
           7
100
AcDbLine
 10
165.149999999895
 20
143.5
 30
0.0
 11
165.149999999895
 21
138.8
 31
0.0
1001
ACAD
1000
TCW40_DEV_WIDTH
1002
{
1040
0.039370078593
1002
}
1001
TCAD
1000
TCW_CUSTOM_DATA
1002
{
1000
#$AUX@_TCDO_SOURCE_COLOR
1070
           3
1071
        0
1000
#$AUX@_TCDO_PARENT_ID
1070
           3
1071
      219
1000
#$AUX@_TCDO_GTYPE
1070
           3
1071
        1
1000
#$AUX@_TCDO_VISIBILITY
1070
           3
1071
        0
1002
}
  0
ARC
  5
1F7
100
AcDbEntity
  8
図
370
         100
  6
Continuous
 62
           7
100
AcDbCircle
 10
166.649999999895
 20
143.5
 30
0.0
 40
1.5
100
AcDbArc
 50
90.0
 51
180.0
1001
ACAD
1000
TCW40_DEV_WIDTH
1002
{
1040
0.039370078593
1002
}
1001
TCAD
1000
TCW_CUSTOM_DATA
1002
{
1000
#$AUX@_TCDO_SOURCE_COLOR
1070
           3
1071
        0
1000
#$AUX@_TCDO_PARENT_ID
1070
           3
1071
      219
1000
#$AUX@_TCDO_GTYPE
1070
           3
1071
        1
1000
#$AUX@_TCDO_VISIBILITY
1070
           3
1071
        0
1002
}
  0
LINE
  5
1F8
100
AcDbEntity
  8
図
370
         100
  6
Continuous
 62
           7
100
AcDbLine
 10
176.749999999898
 20
144.0
 30
0.0
 11
176.749999999898
 21
145.0
 31
0.0
1001
ACAD
1000
TCW40_DEV_WIDTH
1002
{
1040
0.039370078593
1002
}
1001
TCAD
1000
TCW_CUSTOM_DATA
1002
{
1000
#$AUX@_TCDO_SOURCE_COLOR
1070
           3
1071
        0
1000
#$AUX@_TCDO_PARENT_ID
1070
           3
1071
      219
1000
#$AUX@_TCDO_GTYPE
1070
           3
1071
        0
1000
#$AUX@_TCDO_VISIBILITY
1070
           3
1071
        0
1002
}
  0
LINE
  5
1F9
100
AcDbEntity
  8
図
370
         100
  6
Continuous
 62
           7
100
AcDbLine
 10
159.15
 20
138.8
 30
0.0
 11
159.65
 21
138.8
 31
0.0
1001
ACAD
1000
TCW40_DEV_WIDTH
1002
{
1040
0.039370078593
1002
}
1001
TCAD
1000
TCW_CUSTOM_DATA
1002
{
1000
#$AUX@_TCDO_SOURCE_COLOR
1070
           3
1071
        0
1000
#$AUX@_TCDO_PARENT_ID
1070
           3
1071
      219
1000
#$AUX@_TCDO_GTYPE
1070
           3
1071
        1
1000
#$AUX@_TCDO_VISIBILITY
1070
           3
1071
        0
1002
}
  0
LINE
  5
1FA
100
AcDbEntity
  8
図
370
         100
  6
Continuous
 62
           7
100
AcDbLine
 10
159.65
 20
125.6
 30
0.0
 11
159.15
 21
125.6
 31
0.0
1001
ACAD
1000
TCW40_DEV_WIDTH
1002
{
1040
0.039370078593
1002
}
1001
TCAD
1000
TCW_CUSTOM_DATA
1002
{
1000
#$AUX@_TCDO_SOURCE_COLOR
1070
           3
1071
        0
1000
#$AUX@_TCDO_PARENT_ID
1070
           3
1071
      219
1000
#$AUX@_TCDO_GTYPE
1070
           3
1071
        1
1000
#$AUX@_TCDO_VISIBILITY
1070
           3
1071
        0
1002
}
  0
LINE
  5
1FB
100
AcDbEntity
  8
図
370
         100
  6
Continuous
 62
           7
100
AcDbLine
 10
159.15
 20
138.8
 30
0.0
 11
159.15
 21
125.6
 31
0.0
1001
ACAD
1000
TCW40_DEV_WIDTH
1002
{
1040
0.039370078593
1002
}
1001
TCAD
1000
TCW_CUSTOM_DATA
1002
{
1000
#$AUX@_TCDO_SOURCE_COLOR
1070
           3
1071
        0
1000
#$AUX@_TCDO_PARENT_ID
1070
           3
1071
      219
1000
#$AUX@_TCDO_GTYPE
1070
           3
1071
        1
1000
#$AUX@_TCDO_VISIBILITY
1070
           3
1071
        0
1002
}
  0
LINE
  5
1FC
100
AcDbEntity
  8
図
370
         100
  6
Continuous
 62
           7
100
AcDbLine
 10
163.65
 20
129.7
 30
0.0
 11
163.65
 21
129.9
 31
0.0
1001
ACAD
1000
TCW40_DEV_WIDTH
1002
{
1040
0.039370078593
1002
}
1001
TCAD
1000
TCW_CUSTOM_DATA
1002
{
1000
#$AUX@_TCDO_SOURCE_COLOR
1070
           3
1071
        0
1000
#$AUX@_TCDO_PARENT_ID
1070
           3
1071
      219
1000
#$AUX@_TCDO_GTYPE
1070
           3
1071
        0
1000
#$AUX@_TCDO_VISIBILITY
1070
           3
1071
        0
1002
}
  0
LINE
  5
1FD
100
AcDbEntity
  8
図
370
         100
  6
Continuous
 62
           7
100
AcDbLine
 10
163.65
 20
134.5
 30
0.0
 11
163.65
 21
134.7
 31
0.0
1001
ACAD
1000
TCW40_DEV_WIDTH
1002
{
1040
0.039370078593
1002
}
1001
TCAD
1000
TCW_CUSTOM_DATA
1002
{
1000
#$AUX@_TCDO_SOURCE_COLOR
1070
           3
1071
        0
1000
#$AUX@_TCDO_PARENT_ID
1070
           3
1071
      219
1000
#$AUX@_TCDO_GTYPE
1070
           3
1071
        0
1000
#$AUX@_TCDO_VISIBILITY
1070
           3
1071
        0
1002
}
  0
LINE
  5
1FE
100
AcDbEntity
  8
図
370
         100
  6
Continuous
 62
           7
100
AcDbLine
 10
162.15
 20
127.4
 30
0.0
 11
163.65
 21
127.361240310078
 31
0.0
1001
ACAD
1000
TCW40_DEV_WIDTH
1002
{
1040
0.039370078593
1002
}
1001
TCAD
1000
TCW_CUSTOM_DATA
1002
{
1000
#$AUX@_TCDO_SOURCE_COLOR
1070
           3
1071
        0
1000
#$AUX@_TCDO_PARENT_ID
1070
           3
1071
      219
1000
#$AUX@_TCDO_GTYPE
1070
           3
1071
        1
1000
#$AUX@_TCDO_VISIBILITY
1070
           3
1071
        0
1002
}
  0
LINE
  5
1FF
100
AcDbEntity
  8
図
370
         100
  6
Continuous
 62
           7
100
AcDbLine
 10
163.65
 20
137.038461538462
 30
0.0
 11
162.15
 21
137.0
 31
0.0
1001
ACAD
1000
TCW40_DEV_WIDTH
1002
{
1040
0.039370078593
1002
}
1001
TCAD
1000
TCW_CUSTOM_DATA
1002
{
1000
#$AUX@_TCDO_SOURCE_COLOR
1070
           3
1071
        0
1000
#$AUX@_TCDO_PARENT_ID
1070
           3
1071
      219
1000
#$AUX@_TCDO_GTYPE
1070
           3
1071
        1
1000
#$AUX@_TCDO_VISIBILITY
1070
           3
1071
        0
1002
}
  0
LINE
  5
200
100
AcDbEntity
  8
図
370
         100
  6
Continuous
 62
           7
100
AcDbLine
 10
162.15
 20
137.0
 30
0.0
 11
162.15
 21
127.4
 31
0.0
1001
ACAD
1000
TCW40_DEV_WIDTH
1002
{
1040
0.039370078593
1002
}
1001
TCAD
1000
TCW_CUSTOM_DATA
1002
{
1000
#$AUX@_TCDO_SOURCE_COLOR
1070
           3
1071
        0
1000
#$AUX@_TCDO_PARENT_ID
1070
           3
1071
      219
1000
#$AUX@_TCDO_GTYPE
1070
           3
1071
        1
1000
#$AUX@_TCDO_VISIBILITY
1070
           3
1071
        0
1002
}
  0
ELLIPSE
  5
201
100
AcDbEntity
  8
図
370
         100
  6
Continuous
 62
           7
100
AcDbEllipse
 10
165.15
 20
127.221705426357
 30
0.0
 11
1.5000000000000568
 21
0.0
 31
0.0
210
0.0
220
0.0
230
1.0
 40
0.015503875969
 41
3.1415926535897931
 42
4.3451809598335842
1001
ACAD
1000
TCW40_DEV_WIDTH
1002
{
1040
0.039370078593
1002
}
1001
TCAD
1000
TCW_CUSTOM_DATA
1002
{
1000
#$AUX@_TCDO_SOURCE_COLOR
1070
           3
1071
        0
1000
#$AUX@_TCDO_PARENT_ID
1070
           3
1071
      219
1000
#$AUX@_TCDO_GTYPE
1070
           3
1071
        1
1000
#$AUX@_TCDO_VISIBILITY
1070
           3
1071
        0
1002
}
  0
LINE
  5
202
100
AcDbEntity
  8
図
370
         100
  6
Continuous
 62
           7
100
AcDbLine
 10
163.65
 20
129.7
 30
0.0
 11
163.65
 21
127.221705426357
 31
0.0
1001
ACAD
1000
TCW40_DEV_WIDTH
1002
{
1040
0.039370078593
1002
}
1001
TCAD
1000
TCW_CUSTOM_DATA
1002
{
1000
#$AUX@_TCDO_SOURCE_COLOR
1070
           3
1071
        0
1000
#$AUX@_TCDO_PARENT_ID
1070
           3
1071
      219
1000
#$AUX@_TCDO_GTYPE
1070
           3
1071
        1
1000
#$AUX@_TCDO_VISIBILITY
1070
           3
1071
        0
1002
}
  0
LINE
  5
203
100
AcDbEntity
  8
図
370
         100
  6
Continuous
 62
           7
100
AcDbLine
 10
165.15
 20
127.2
 30
0.0
 11
164.611483519295
 21
127.2
 31
0.0
1001
ACAD
1000
TCW40_DEV_WIDTH
1002
{
1040
0.039370078593
1002
}
1001
TCAD
1000
TCW_CUSTOM_DATA
1002
{
1000
#$AUX@_TCDO_SOURCE_COLOR
1070
           3
1071
        0
1000
#$AUX@_TCDO_PARENT_ID
1070
           3
1071
      219
1000
#$AUX@_TCDO_GTYPE
1070
           3
1071
        1
1000
#$AUX@_TCDO_VISIBILITY
1070
           3
1071
        0
1002
}
  0
LINE
  5
204
100
AcDbEntity
  8
図
370
         100
  6
Continuous
 62
           7
100
AcDbLine
 10
163.65
 20
129.7
 30
0.0
 11
165.15
 21
129.7
 31
0.0
1001
ACAD
1000
TCW40_DEV_WIDTH
1002
{
1040
0.039370078593
1002
}
1001
TCAD
1000
TCW_CUSTOM_DATA
1002
{
1000
#$AUX@_TCDO_SOURCE_COLOR
1070
           3
1071
        0
1000
#$AUX@_TCDO_PARENT_ID
1070
           3
1071
      219
1000
#$AUX@_TCDO_GTYPE
1070
           3
1071
        1
1000
#$AUX@_TCDO_VISIBILITY
1070
           3
1071
        0
1002
}
  0
LINE
  5
205
100
AcDbEntity
  8
図
370
         100
  6
Continuous
 62
           7
100
AcDbLine
 10
165.15
 20
134.7
 30
0.0
 11
163.65
 21
134.7
 31
0.0
1001
ACAD
1000
TCW40_DEV_WIDTH
1002
{
1040
0.039370078593
1002
}
1001
TCAD
1000
TCW_CUSTOM_DATA
1002
{
1000
#$AUX@_TCDO_SOURCE_COLOR
1070
           3
1071
        0
1000
#$AUX@_TCDO_PARENT_ID
1070
           3
1071
      219
1000
#$AUX@_TCDO_GTYPE
1070
           3
1071
        1
1000
#$AUX@_TCDO_VISIBILITY
1070
           3
1071
        0
1002
}
  0
ELLIPSE
  5
206
100
AcDbEntity
  8
図
370
         100
  6
Continuous
 62
           7
100
AcDbEllipse
 10
165.15
 20
137.176923076923
 30
0.0
 11
1.4999999999999432
 21
0.0
 31
0.0
210
0.0
220
0.0
230
1.0
 40
0.015384615385
 41
1.5707963267948966
 42
3.1415926535897931
1001
ACAD
1000
TCW40_DEV_WIDTH
1002
{
1040
0.039370078593
1002
}
1001
TCAD
1000
TCW_CUSTOM_DATA
1002
{
1000
#$AUX@_TCDO_SOURCE_COLOR
1070
           3
1071
        0
1000
#$AUX@_TCDO_PARENT_ID
1070
           3
1071
      219
1000
#$AUX@_TCDO_GTYPE
1070
           3
1071
        1
1000
#$AUX@_TCDO_VISIBILITY
1070
           3
1071
        0
1002
}
  0
LINE
  5
207
100
AcDbEntity
  8
図
370
         100
  6
Continuous
 62
           7
100
AcDbLine
 10
163.65
 20
137.176923076923
 30
0.0
 11
163.65
 21
134.7
 31
0.0
1001
ACAD
1000
TCW40_DEV_WIDTH
1002
{
1040
0.039370078593
1002
}
1001
TCAD
1000
TCW_CUSTOM_DATA
1002
{
1000
#$AUX@_TCDO_SOURCE_COLOR
1070
           3
1071
        0
1000
#$AUX@_TCDO_PARENT_ID
1070
           3
1071
      219
1000
#$AUX@_TCDO_GTYPE
1070
           3
1071
        1
1000
#$AUX@_TCDO_VISIBILITY
1070
           3
1071
        0
1002
}
  0
LINE
  5
208
100
AcDbEntity
  8
図
370
         100
  6
Continuous
 62
           7
100
AcDbLine
 10
170.15
 20
125.6
 30
0.0
 11
170.65
 21
125.6
 31
0.0
1001
ACAD
1000
TCW40_DEV_WIDTH
1002
{
1040
0.039370078593
1002
}
1001
TCAD
1000
TCW_CUSTOM_DATA
1002
{
1000
#$AUX@_TCDO_SOURCE_COLOR
1070
           3
1071
        0
1000
#$AUX@_TCDO_PARENT_ID
1070
           3
1071
      219
1000
#$AUX@_TCDO_GTYPE
1070
           3
1071
        1
1000
#$AUX@_TCDO_VISIBILITY
1070
           3
1071
        0
1002
}
  0
LINE
  5
209
100
AcDbEntity
  8
図
370
         100
  6
Continuous
 62
           7
100
AcDbLine
 10
171.15
 20
125.6
 30
0.0
 11
170.65
 21
125.6
 31
0.0
1001
ACAD
1000
TCW40_DEV_WIDTH
1002
{
1040
0.039370078593
1002
}
1001
TCAD
1000
TCW_CUSTOM_DATA
1002
{
1000
#$AUX@_TCDO_SOURCE_COLOR
1070
           3
1071
        0
1000
#$AUX@_TCDO_PARENT_ID
1070
           3
1071
      219
1000
#$AUX@_TCDO_GTYPE
1070
           3
1071
        1
1000
#$AUX@_TCDO_VISIBILITY
1070
           3
1071
        0
1002
}
  0
LINE
  5
20A
100
AcDbEntity
  8
図
370
         100
  6
Continuous
 62
           7
100
AcDbLine
 10
171.15
 20
125.6
 30
0.0
 11
192.15
 21
125.6
 31
0.0
1001
ACAD
1000
TCW40_DEV_WIDTH
1002
{
1040
0.039370078593
1002
}
1001
TCAD
1000
TCW_CUSTOM_DATA
1002
{
1000
#$AUX@_TCDO_SOURCE_COLOR
1070
           3
1071
        0
1000
#$AUX@_TCDO_PARENT_ID
1070
           3
1071
      219
1000
#$AUX@_TCDO_GTYPE
1070
           3
1071
        1
1000
#$AUX@_TCDO_VISIBILITY
1070
           3
1071
        0
1002
}
  0
LINE
  5
20B
100
AcDbEntity
  8
図
370
         100
  6
Continuous
 62
           7
100
AcDbLine
 10
192.65
 20
125.6
 30
0.0
 11
192.15
 21
125.6
 31
0.0
1001
ACAD
1000
TCW40_DEV_WIDTH
1002
{
1040
0.039370078593
1002
}
1001
TCAD
1000
TCW_CUSTOM_DATA
1002
{
1000
#$AUX@_TCDO_SOURCE_COLOR
1070
           3
1071
        0
1000
#$AUX@_TCDO_PARENT_ID
1070
           3
1071
      219
1000
#$AUX@_TCDO_GTYPE
1070
           3
1071
        1
1000
#$AUX@_TCDO_VISIBILITY
1070
           3
1071
        0
1002
}
  0
LINE
  5
20C
100
AcDbEntity
  8
図
370
         100
  6
Continuous
 62
           7
100
AcDbLine
 10
165.649999999895
 20
120.9
 30
0.0
 11
165.149999999895
 21
120.9
 31
0.0
1001
ACAD
1000
TCW40_DEV_WIDTH
1002
{
1040
0.039370078593
1002
}
1001
TCAD
1000
TCW_CUSTOM_DATA
1002
{
1000
#$AUX@_TCDO_SOURCE_COLOR
1070
           3
1071
        0
1000
#$AUX@_TCDO_PARENT_ID
1070
           3
1071
      219
1000
#$AUX@_TCDO_GTYPE
1070
           3
1071
        0
1000
#$AUX@_TCDO_VISIBILITY
1070
           3
1071
        0
1002
}
  0
LINE
  5
20D
100
AcDbEntity
  8
図
370
         100
  6
Continuous
 62
           7
100
AcDbLine
 10
165.149999999895
 20
125.6
 30
0.0
 11
165.149999999895
 21
120.9
 31
0.0
1001
ACAD
1000
TCW40_DEV_WIDTH
1002
{
1040
0.039370078593
1002
}
1001
TCAD
1000
TCW_CUSTOM_DATA
1002
{
1000
#$AUX@_TCDO_SOURCE_COLOR
1070
           3
1071
        0
1000
#$AUX@_TCDO_PARENT_ID
1070
           3
1071
      219
1000
#$AUX@_TCDO_GTYPE
1070
           3
1071
        1
1000
#$AUX@_TCDO_VISIBILITY
1070
           3
1071
        0
1002
}
  0
LINE
  5
20E
100
AcDbEntity
  8
図
370
         100
  6
Continuous
 62
           7
100
AcDbLine
 10
170.57175173849
 20
138.8
 30
0.0
 11
170.57175173849
 21
144.0
 31
0.0
1001
ACAD
1000
TCW40_DEV_WIDTH
1002
{
1040
0.039370078593
1002
}
1001
TCAD
1000
TCW_CUSTOM_DATA
1002
{
1000
#$AUX@_TCDO_SOURCE_COLOR
1070
           3
1071
        0
1000
#$AUX@_TCDO_PARENT_ID
1070
           3
1071
      219
1000
#$AUX@_TCDO_GTYPE
1070
           3
1071
        1
1000
#$AUX@_TCDO_VISIBILITY
1070
           3
1071
        0
1002
}
  0
LINE
  5
20F
100
AcDbEntity
  8
図
370
         100
  6
Continuous
 62
           7
100
AcDbLine
 10
170.57175173849
 20
120.4
 30
0.0
 11
170.57175173849
 21
125.6
 31
0.0
1001
ACAD
1000
TCW40_DEV_WIDTH
1002
{
1040
0.039370078593
1002
}
1001
TCAD
1000
TCW_CUSTOM_DATA
1002
{
1000
#$AUX@_TCDO_SOURCE_COLOR
1070
           3
1071
        0
1000
#$AUX@_TCDO_PARENT_ID
1070
           3
1071
      219
1000
#$AUX@_TCDO_GTYPE
1070
           3
1071
        1
1000
#$AUX@_TCDO_VISIBILITY
1070
           3
1071
        0
1002
}
  0
LINE
  5
210
100
AcDbEntity
  8
図
370
         100
  6
Continuous
 62
           7
100
AcDbLine
 10
192.65
 20
120.400000000001
 30
0.0
 11
170.57175173849
 21
120.399999999992
 31
0.0
1001
ACAD
1000
TCW40_DEV_WIDTH
1002
{
1040
0.039370078593
1002
}
1001
TCAD
1000
TCW_CUSTOM_DATA
1002
{
1000
#$AUX@_TCDO_SOURCE_COLOR
1070
           3
1071
        0
1000
#$AUX@_TCDO_PARENT_ID
1070
           3
1071
      219
1000
#$AUX@_TCDO_GTYPE
1070
           3
1071
        1
1000
#$AUX@_TCDO_VISIBILITY
1070
           3
1071
        0
1002
}
  0
LINE
  5
211
100
AcDbEntity
  8
図
370
         100
  6
Continuous
 62
           7
100
AcDbLine
 10
192.65
 20
125.6
 30
0.0
 11
192.65
 21
120.4
 31
0.0
1001
ACAD
1000
TCW40_DEV_WIDTH
1002
{
1040
0.039370078593
1002
}
1001
TCAD
1000
TCW_CUSTOM_DATA
1002
{
1000
#$AUX@_TCDO_SOURCE_COLOR
1070
           3
1071
        0
1000
#$AUX@_TCDO_PARENT_ID
1070
           3
1071
      219
1000
#$AUX@_TCDO_GTYPE
1070
           3
1071
        1
1000
#$AUX@_TCDO_VISIBILITY
1070
           3
1071
        0
1002
}
  0
LINE
  5
212
100
AcDbEntity
  8
図
370
         100
  6
Continuous
 62
           7
100
AcDbLine
 10
192.65
 20
144.0
 30
0.0
 11
192.65
 21
138.8
 31
0.0
1001
ACAD
1000
TCW40_DEV_WIDTH
1002
{
1040
0.039370078593
1002
}
1001
TCAD
1000
TCW_CUSTOM_DATA
1002
{
1000
#$AUX@_TCDO_SOURCE_COLOR
1070
           3
1071
        0
1000
#$AUX@_TCDO_PARENT_ID
1070
           3
1071
      219
1000
#$AUX@_TCDO_GTYPE
1070
           3
1071
        1
1000
#$AUX@_TCDO_VISIBILITY
1070
           3
1071
        0
1002
}
  0
LINE
  5
213
100
AcDbEntity
  8
図
370
         100
  6
Continuous
 62
           7
100
AcDbLine
 10
170.57175173849
 20
144.0
 30
0.0
 11
192.65
 21
144.0
 31
0.0
1001
ACAD
1000
TCW40_DEV_WIDTH
1002
{
1040
0.039370078593
1002
}
1001
TCAD
1000
TCW_CUSTOM_DATA
1002
{
1000
#$AUX@_TCDO_SOURCE_COLOR
1070
           3
1071
        0
1000
#$AUX@_TCDO_PARENT_ID
1070
           3
1071
      219
1000
#$AUX@_TCDO_GTYPE
1070
           3
1071
        1
1000
#$AUX@_TCDO_VISIBILITY
1070
           3
1071
        0
1002
}
  0
LINE
  5
214
100
AcDbEntity
  8
図
370
         100
  6
Continuous
 62
           7
100
AcDbLine
 10
165.149999999895
 20
127.1
 30
0.0
 11
165.149999999895
 21
137.3
 31
0.0
1001
ACAD
1000
TCW40_DEV_WIDTH
1002
{
1040
0.039370078593
1002
}
1001
TCAD
1000
TCW_CUSTOM_DATA
1002
{
1000
#$AUX@_TCDO_SOURCE_COLOR
1070
           3
1071
        0
1000
#$AUX@_TCDO_PARENT_ID
1070
           3
1071
      219
1000
#$AUX@_TCDO_GTYPE
1070
           3
1071
        1
1000
#$AUX@_TCDO_VISIBILITY
1070
           3
1071
        0
1002
}
  0
LINE
  5
215
100
AcDbEntity
  8
図
370
         100
  6
Continuous
 62
           7
100
AcDbLine
 10
161.95
 20
137.3
 30
0.0
 11
165.15
 21
137.3
 31
0.0
1001
ACAD
1000
TCW40_DEV_WIDTH
1002
{
1040
0.039370078593
1002
}
1001
TCAD
1000
TCW_CUSTOM_DATA
1002
{
1000
#$AUX@_TCDO_SOURCE_COLOR
1070
           3
1071
        0
1000
#$AUX@_TCDO_PARENT_ID
1070
           3
1071
      219
1000
#$AUX@_TCDO_GTYPE
1070
           3
1071
        1
1000
#$AUX@_TCDO_VISIBILITY
1070
           3
1071
        0
1002
}
  0
LINE
  5
216
100
AcDbEntity
  8
図
370
         100
  6
Continuous
 62
           7
100
AcDbLine
 10
161.95
 20
127.1
 30
0.0
 11
161.95
 21
137.3
 31
0.0
1001
ACAD
1000
TCW40_DEV_WIDTH
1002
{
1040
0.039370078593
1002
}
1001
TCAD
1000
TCW_CUSTOM_DATA
1002
{
1000
#$AUX@_TCDO_SOURCE_COLOR
1070
           3
1071
        0
1000
#$AUX@_TCDO_PARENT_ID
1070
           3
1071
      219
1000
#$AUX@_TCDO_GTYPE
1070
           3
1071
        1
1000
#$AUX@_TCDO_VISIBILITY
1070
           3
1071
        0
1002
}
  0
LINE
  5
217
100
AcDbEntity
  8
図
370
         100
  6
Continuous
 62
           7
100
AcDbLine
 10
165.15
 20
127.1
 30
0.0
 11
161.95
 21
127.1
 31
0.0
1001
ACAD
1000
TCW40_DEV_WIDTH
1002
{
1040
0.039370078593
1002
}
1001
TCAD
1000
TCW_CUSTOM_DATA
1002
{
1000
#$AUX@_TCDO_SOURCE_COLOR
1070
           3
1071
        0
1000
#$AUX@_TCDO_PARENT_ID
1070
           3
1071
      219
1000
#$AUX@_TCDO_GTYPE
1070
           3
1071
        1
1000
#$AUX@_TCDO_VISIBILITY
1070
           3
1071
        0
1002
}
  0
ARC
  5
218
100
AcDbEntity
  8
図
370
         100
  6
Continuous
 62
           7
100
AcDbCircle
 10
196.65
 20
120.9
 30
0.0
 40
1.0
100
AcDbArc
 50
-90.0
 51
0.0
1001
ACAD
1000
TCW40_DEV_WIDTH
1002
{
1040
0.039370078593
1002
}
1001
TCAD
1000
TCW_CUSTOM_DATA
1002
{
1000
#$AUX@_TCDO_SOURCE_COLOR
1070
           3
1071
        0
1000
#$AUX@_TCDO_PARENT_ID
1070
           3
1071
      219
1000
#$AUX@_TCDO_GTYPE
1070
           3
1071
        0
1000
#$AUX@_TCDO_VISIBILITY
1070
           3
1071
        0
1002
}
  0
LINE
  5
219
100
AcDbEntity
  8
図
370
         100
  6
Continuous
 62
           7
100
AcDbLine
 10
196.65
 20
119.9
 30
0.0
 11
166.649999999895
 21
119.9
 31
0.0
1001
ACAD
1000
TCW40_DEV_WIDTH
1002
{
1040
0.039370078593
1002
}
1001
TCAD
1000
TCW_CUSTOM_DATA
1002
{
1000
#$AUX@_TCDO_SOURCE_COLOR
1070
           3
1071
        0
1000
#$AUX@_TCDO_PARENT_ID
1070
           3
1071
      219
1000
#$AUX@_TCDO_GTYPE
1070
           3
1071
        0
1000
#$AUX@_TCDO_VISIBILITY
1070
           3
1071
        0
1002
}
  0
ARC
  5
21A
100
AcDbEntity
  8
図
370
         100
  6
Continuous
 62
           7
100
AcDbCircle
 10
166.649999999895
 20
120.9
 30
0.0
 40
1.0
100
AcDbArc
 50
180.0
 51
270.0
1001
ACAD
1000
TCW40_DEV_WIDTH
1002
{
1040
0.039370078593
1002
}
1001
TCAD
1000
TCW_CUSTOM_DATA
1002
{
1000
#$AUX@_TCDO_SOURCE_COLOR
1070
           3
1071
        0
1000
#$AUX@_TCDO_PARENT_ID
1070
           3
1071
      219
1000
#$AUX@_TCDO_GTYPE
1070
           3
1071
        0
1000
#$AUX@_TCDO_VISIBILITY
1070
           3
1071
        0
1002
}
  0
LINE
  5
21B
100
AcDbEntity
  8
図
370
         100
  6
Continuous
 62
           7
100
AcDbLine
 10
165.649999999895
 20
125.6
 30
0.0
 11
165.649999999895
 21
120.9
 31
0.0
1001
ACAD
1000
TCW40_DEV_WIDTH
1002
{
1040
0.039370078593
1002
}
1001
TCAD
1000
TCW_CUSTOM_DATA
1002
{
1000
#$AUX@_TCDO_SOURCE_COLOR
1070
           3
1071
        0
1000
#$AUX@_TCDO_PARENT_ID
1070
           3
1071
      219
1000
#$AUX@_TCDO_GTYPE
1070
           3
1071
        0
1000
#$AUX@_TCDO_VISIBILITY
1070
           3
1071
        0
1002
}
  0
LINE
  5
21C
100
AcDbEntity
  8
図
370
         100
  6
Continuous
 62
           7
100
AcDbLine
 10
159.65
 20
125.6
 30
0.0
 11
165.649999999895
 21
125.6
 31
0.0
1001
ACAD
1000
TCW40_DEV_WIDTH
1002
{
1040
0.039370078593
1002
}
1001
TCAD
1000
TCW_CUSTOM_DATA
1002
{
1000
#$AUX@_TCDO_SOURCE_COLOR
1070
           3
1071
        0
1000
#$AUX@_TCDO_PARENT_ID
1070
           3
1071
      219
1000
#$AUX@_TCDO_GTYPE
1070
           3
1071
        1
1000
#$AUX@_TCDO_VISIBILITY
1070
           3
1071
        0
1002
}
  0
LINE
  5
21D
100
AcDbEntity
  8
図
370
         100
  6
Continuous
 62
           7
100
AcDbLine
 10
159.65
 20
125.6
 30
0.0
 11
159.65
 21
138.8
 31
0.0
1001
ACAD
1000
TCW40_DEV_WIDTH
1002
{
1040
0.039370078593
1002
}
1001
TCAD
1000
TCW_CUSTOM_DATA
1002
{
1000
#$AUX@_TCDO_SOURCE_COLOR
1070
           3
1071
        0
1000
#$AUX@_TCDO_PARENT_ID
1070
           3
1071
      219
1000
#$AUX@_TCDO_GTYPE
1070
           3
1071
        0
1000
#$AUX@_TCDO_VISIBILITY
1070
           3
1071
        0
1002
}
  0
LINE
  5
21E
100
AcDbEntity
  8
図
370
         100
  6
Continuous
 62
           7
100
AcDbLine
 10
165.649999999895
 20
138.8
 30
0.0
 11
159.65
 21
138.8
 31
0.0
1001
ACAD
1000
TCW40_DEV_WIDTH
1002
{
1040
0.039370078593
1002
}
1001
TCAD
1000
TCW_CUSTOM_DATA
1002
{
1000
#$AUX@_TCDO_SOURCE_COLOR
1070
           3
1071
        0
1000
#$AUX@_TCDO_PARENT_ID
1070
           3
1071
      219
1000
#$AUX@_TCDO_GTYPE
1070
           3
1071
        1
1000
#$AUX@_TCDO_VISIBILITY
1070
           3
1071
        0
1002
}
  0
LINE
  5
21F
100
AcDbEntity
  8
図
370
         100
  6
Continuous
 62
           7
100
AcDbLine
 10
165.649999999895
 20
143.5
 30
0.0
 11
165.649999999895
 21
138.8
 31
0.0
1001
ACAD
1000
TCW40_DEV_WIDTH
1002
{
1040
0.039370078593
1002
}
1001
TCAD
1000
TCW_CUSTOM_DATA
1002
{
1000
#$AUX@_TCDO_SOURCE_COLOR
1070
           3
1071
        0
1000
#$AUX@_TCDO_PARENT_ID
1070
           3
1071
      219
1000
#$AUX@_TCDO_GTYPE
1070
           3
1071
        0
1000
#$AUX@_TCDO_VISIBILITY
1070
           3
1071
        0
1002
}
  0
ARC
  5
220
100
AcDbEntity
  8
図
370
         100
  6
Continuous
 62
           7
100
AcDbCircle
 10
166.649999999895
 20
143.5
 30
0.0
 40
1.0
100
AcDbArc
 50
90.0
 51
180.0
1001
ACAD
1000
TCW40_DEV_WIDTH
1002
{
1040
0.039370078593
1002
}
1001
TCAD
1000
TCW_CUSTOM_DATA
1002
{
1000
#$AUX@_TCDO_SOURCE_COLOR
1070
           3
1071
        0
1000
#$AUX@_TCDO_PARENT_ID
1070
           3
1071
      219
1000
#$AUX@_TCDO_GTYPE
1070
           3
1071
        0
1000
#$AUX@_TCDO_VISIBILITY
1070
           3
1071
        0
1002
}
  0
LINE
  5
221
100
AcDbEntity
  8
図
370
         100
  6
Continuous
 62
           7
100
AcDbLine
 10
166.649999999895
 20
144.5
 30
0.0
 11
196.65
 21
144.5
 31
0.0
1001
ACAD
1000
TCW40_DEV_WIDTH
1002
{
1040
0.039370078593
1002
}
1001
TCAD
1000
TCW_CUSTOM_DATA
1002
{
1000
#$AUX@_TCDO_SOURCE_COLOR
1070
           3
1071
        0
1000
#$AUX@_TCDO_PARENT_ID
1070
           3
1071
      219
1000
#$AUX@_TCDO_GTYPE
1070
           3
1071
        0
1000
#$AUX@_TCDO_VISIBILITY
1070
           3
1071
        0
1002
}
  0
ARC
  5
222
100
AcDbEntity
  8
図
370
         100
  6
Continuous
 62
           7
100
AcDbCircle
 10
196.65
 20
143.5
 30
0.0
 40
1.0
100
AcDbArc
 50
0.0
 51
90.0
1001
ACAD
1000
TCW40_DEV_WIDTH
1002
{
1040
0.039370078593
1002
}
1001
TCAD
1000
TCW_CUSTOM_DATA
1002
{
1000
#$AUX@_TCDO_SOURCE_COLOR
1070
           3
1071
        0
1000
#$AUX@_TCDO_PARENT_ID
1070
           3
1071
      219
1000
#$AUX@_TCDO_GTYPE
1070
           3
1071
        0
1000
#$AUX@_TCDO_VISIBILITY
1070
           3
1071
        0
1002
}
  0
LINE
  5
223
100
AcDbEntity
  8
図
370
         100
  6
Continuous
 62
           7
100
AcDbLine
 10
197.75
 20
143.5
 30
0.0
 11
197.65
 21
143.5
 31
0.0
1001
ACAD
1000
TCW40_DEV_WIDTH
1002
{
1040
0.039370078593
1002
}
1001
TCAD
1000
TCW_CUSTOM_DATA
1002
{
1000
#$AUX@_TCDO_SOURCE_COLOR
1070
           3
1071
        0
1000
#$AUX@_TCDO_PARENT_ID
1070
           3
1071
      219
1000
#$AUX@_TCDO_GTYPE
1070
           3
1071
        1
1000
#$AUX@_TCDO_VISIBILITY
1070
           3
1071
        0
1002
}
  0
LINE
  5
224
100
AcDbEntity
  8
図
370
         100
  6
Continuous
 62
           7
100
AcDbLine
 10
197.65
 20
120.900000000001
 30
0.0
 11
197.75
 21
120.900000000001
 31
0.0
1001
ACAD
1000
TCW40_DEV_WIDTH
1002
{
1040
0.039370078593
1002
}
1001
TCAD
1000
TCW_CUSTOM_DATA
1002
{
1000
#$AUX@_TCDO_SOURCE_COLOR
1070
           3
1071
        0
1000
#$AUX@_TCDO_PARENT_ID
1070
           3
1071
      219
1000
#$AUX@_TCDO_GTYPE
1070
           3
1071
        1
1000
#$AUX@_TCDO_VISIBILITY
1070
           3
1071
        0
1002
}
  0
LINE
  5
225
100
AcDbEntity
  8
図
370
         100
  6
Continuous
 62
           7
100
AcDbLine
 10
198.15
 20
120.900000000001
 30
0.0
 11
198.15
 21
143.5
 31
0.0
1001
ACAD
1000
TCW40_DEV_WIDTH
1002
{
1040
0.039370078593
1002
}
1001
TCAD
1000
TCW_CUSTOM_DATA
1002
{
1000
#$AUX@_TCDO_SOURCE_COLOR
1070
           3
1071
        0
1000
#$AUX@_TCDO_PARENT_ID
1070
           3
1071
      219
1000
#$AUX@_TCDO_GTYPE
1070
           3
1071
        1
1000
#$AUX@_TCDO_VISIBILITY
1070
           3
1071
        0
1002
}
  0
LINE
  5
226
100
AcDbEntity
  8
図
370
         100
  6
Continuous
 62
           7
100
AcDbLine
 10
198.15
 20
120.900000000001
 30
0.0
 11
197.75
 21
120.900000000001
 31
0.0
1001
ACAD
1000
TCW40_DEV_WIDTH
1002
{
1040
0.039370078593
1002
}
1001
TCAD
1000
TCW_CUSTOM_DATA
1002
{
1000
#$AUX@_TCDO_SOURCE_COLOR
1070
           3
1071
        0
1000
#$AUX@_TCDO_PARENT_ID
1070
           3
1071
      219
1000
#$AUX@_TCDO_GTYPE
1070
           3
1071
        1
1000
#$AUX@_TCDO_VISIBILITY
1070
           3
1071
        0
1002
}
  0
LINE
  5
227
100
AcDbEntity
  8
図
370
         100
  6
Continuous
 62
           7
100
AcDbLine
 10
197.75
 20
143.5
 30
0.0
 11
197.75
 21
120.900000000001
 31
0.0
1001
ACAD
1000
TCW40_DEV_WIDTH
1002
{
1040
0.039370078593
1002
}
1001
TCAD
1000
TCW_CUSTOM_DATA
1002
{
1000
#$AUX@_TCDO_SOURCE_COLOR
1070
           3
1071
        0
1000
#$AUX@_TCDO_PARENT_ID
1070
           3
1071
      219
1000
#$AUX@_TCDO_GTYPE
1070
           3
1071
        0
1000
#$AUX@_TCDO_VISIBILITY
1070
           3
1071
        0
1002
}
  0
LINE
  5
228
100
AcDbEntity
  8
図
370
         100
  6
Continuous
 62
           7
100
AcDbLine
 10
197.75
 20
143.5
 30
0.0
 11
198.15
 21
143.5
 31
0.0
1001
ACAD
1000
TCW40_DEV_WIDTH
1002
{
1040
0.039370078593
1002
}
1001
TCAD
1000
TCW_CUSTOM_DATA
1002
{
1000
#$AUX@_TCDO_SOURCE_COLOR
1070
           3
1071
        0
1000
#$AUX@_TCDO_PARENT_ID
1070
           3
1071
      219
1000
#$AUX@_TCDO_GTYPE
1070
           3
1071
        1
1000
#$AUX@_TCDO_VISIBILITY
1070
           3
1071
        0
1002
}
  0
LINE
  5
229
100
AcDbEntity
  8
図
370
         100
  6
Continuous
 62
           7
100
AcDbLine
 10
176.65
 20
146.2
 30
0.0
 11
176.65
 21
145.0
 31
0.0
1001
ACAD
1000
TCW40_DEV_WIDTH
1002
{
1040
0.039370078593
1002
}
1001
TCAD
1000
TCW_CUSTOM_DATA
1002
{
1000
#$AUX@_TCDO_SOURCE_COLOR
1070
           3
1071
        0
1000
#$AUX@_TCDO_PARENT_ID
1070
           3
1071
      218
1000
#$AUX@_TCDO_GTYPE
1070
           3
1071
        1
1000
#$AUX@_TCDO_VISIBILITY
1070
           3
1071
        0
1002
}
  0
LINE
  5
22A
100
AcDbEntity
  8
図
370
         100
  6
Continuous
 62
           7
100
AcDbLine
 10
177.65
 20
145.0
 30
0.0
 11
177.65
 21
146.2
 31
0.0
1001
ACAD
1000
TCW40_DEV_WIDTH
1002
{
1040
0.039370078593
1002
}
1001
TCAD
1000
TCW_CUSTOM_DATA
1002
{
1000
#$AUX@_TCDO_SOURCE_COLOR
1070
           3
1071
        0
1000
#$AUX@_TCDO_PARENT_ID
1070
           3
1071
      218
1000
#$AUX@_TCDO_GTYPE
1070
           3
1071
        0
1000
#$AUX@_TCDO_VISIBILITY
1070
           3
1071
        0
1002
}
  0
LINE
  5
22B
100
AcDbEntity
  8
図
370
         100
  6
Continuous
 62
           7
100
AcDbLine
 10
185.65
 20
146.2
 30
0.0
 11
185.65
 21
145.0
 31
0.0
1001
ACAD
1000
TCW40_DEV_WIDTH
1002
{
1040
0.039370078593
1002
}
1001
TCAD
1000
TCW_CUSTOM_DATA
1002
{
1000
#$AUX@_TCDO_SOURCE_COLOR
1070
           3
1071
        0
1000
#$AUX@_TCDO_PARENT_ID
1070
           3
1071
      218
1000
#$AUX@_TCDO_GTYPE
1070
           3
1071
        0
1000
#$AUX@_TCDO_VISIBILITY
1070
           3
1071
        0
1002
}
  0
LINE
  5
22C
100
AcDbEntity
  8
図
370
         100
  6
Continuous
 62
           7
100
AcDbLine
 10
185.65
 20
146.2
 30
0.0
 11
186.65
 21
146.2
 31
0.0
1001
ACAD
1000
TCW40_DEV_WIDTH
1002
{
1040
0.039370078593
1002
}
1001
TCAD
1000
TCW_CUSTOM_DATA
1002
{
1000
#$AUX@_TCDO_SOURCE_COLOR
1070
           3
1071
        0
1000
#$AUX@_TCDO_PARENT_ID
1070
           3
1071
      218
1000
#$AUX@_TCDO_GTYPE
1070
           3
1071
        1
1000
#$AUX@_TCDO_VISIBILITY
1070
           3
1071
        0
1002
}
  0
LINE
  5
22D
100
AcDbEntity
  8
図
370
         100
  6
Continuous
 62
           7
100
AcDbLine
 10
177.65
 20
146.2
 30
0.0
 11
177.85
 21
146.2
 31
0.0
1001
ACAD
1000
TCW40_DEV_WIDTH
1002
{
1040
0.039370078593
1002
}
1001
TCAD
1000
TCW_CUSTOM_DATA
1002
{
1000
#$AUX@_TCDO_SOURCE_COLOR
1070
           3
1071
        0
1000
#$AUX@_TCDO_PARENT_ID
1070
           3
1071
      218
1000
#$AUX@_TCDO_GTYPE
1070
           3
1071
        1
1000
#$AUX@_TCDO_VISIBILITY
1070
           3
1071
        0
1002
}
  0
LINE
  5
22E
100
AcDbEntity
  8
図
370
         100
  6
Continuous
 62
           7
100
AcDbLine
 10
178.85
 20
146.2
 30
0.0
 11
184.45
 21
146.2
 31
0.0
1001
ACAD
1000
TCW40_DEV_WIDTH
1002
{
1040
0.039370078593
1002
}
1001
TCAD
1000
TCW_CUSTOM_DATA
1002
{
1000
#$AUX@_TCDO_SOURCE_COLOR
1070
           3
1071
        0
1000
#$AUX@_TCDO_PARENT_ID
1070
           3
1071
      218
1000
#$AUX@_TCDO_GTYPE
1070
           3
1071
        1
1000
#$AUX@_TCDO_VISIBILITY
1070
           3
1071
        0
1002
}
  0
LINE
  5
22F
100
AcDbEntity
  8
図
370
         100
  6
Continuous
 62
           7
100
AcDbLine
 10
185.45
 20
146.2
 30
0.0
 11
185.65
 21
146.2
 31
0.0
1001
ACAD
1000
TCW40_DEV_WIDTH
1002
{
1040
0.039370078593
1002
}
1001
TCAD
1000
TCW_CUSTOM_DATA
1002
{
1000
#$AUX@_TCDO_SOURCE_COLOR
1070
           3
1071
        0
1000
#$AUX@_TCDO_PARENT_ID
1070
           3
1071
      218
1000
#$AUX@_TCDO_GTYPE
1070
           3
1071
        1
1000
#$AUX@_TCDO_VISIBILITY
1070
           3
1071
        0
1002
}
  0
LINE
  5
230
100
AcDbEntity
  8
図
370
         100
  6
Continuous
 62
           7
100
AcDbLine
 10
176.65
 20
146.2
 30
0.0
 11
177.65
 21
146.2
 31
0.0
1001
ACAD
1000
TCW40_DEV_WIDTH
1002
{
1040
0.039370078593
1002
}
1001
TCAD
1000
TCW_CUSTOM_DATA
1002
{
1000
#$AUX@_TCDO_SOURCE_COLOR
1070
           3
1071
        0
1000
#$AUX@_TCDO_PARENT_ID
1070
           3
1071
      218
1000
#$AUX@_TCDO_GTYPE
1070
           3
1071
        1
1000
#$AUX@_TCDO_VISIBILITY
1070
           3
1071
        0
1002
}
  0
LINE
  5
231
100
AcDbEntity
  8
図
370
         100
  6
Continuous
 62
           7
100
AcDbLine
 10
186.65
 20
145.0
 30
0.0
 11
186.65
 21
146.2
 31
0.0
1001
ACAD
1000
TCW40_DEV_WIDTH
1002
{
1040
0.039370078593
1002
}
1001
TCAD
1000
TCW_CUSTOM_DATA
1002
{
1000
#$AUX@_TCDO_SOURCE_COLOR
1070
           3
1071
        0
1000
#$AUX@_TCDO_PARENT_ID
1070
           3
1071
      218
1000
#$AUX@_TCDO_GTYPE
1070
           3
1071
        1
1000
#$AUX@_TCDO_VISIBILITY
1070
           3
1071
        0
1002
}
  0
LINE
  5
232
100
AcDbEntity
  8
図
370
         100
  6
Continuous
 62
           7
100
AcDbLine
 10
177.65
 20
119.4
 30
0.0
 11
177.65
 21
118.2
 31
0.0
1001
ACAD
1000
TCW40_DEV_WIDTH
1002
{
1040
0.039370078593
1002
}
1001
TCAD
1000
TCW_CUSTOM_DATA
1002
{
1000
#$AUX@_TCDO_SOURCE_COLOR
1070
           3
1071
        0
1000
#$AUX@_TCDO_PARENT_ID
1070
           3
1071
      218
1000
#$AUX@_TCDO_GTYPE
1070
           3
1071
        0
1000
#$AUX@_TCDO_VISIBILITY
1070
           3
1071
        0
1002
}
  0
LINE
  5
233
100
AcDbEntity
  8
図
370
         100
  6
Continuous
 62
           7
100
AcDbLine
 10
176.65
 20
118.2
 30
0.0
 11
176.65
 21
119.4
 31
0.0
1001
ACAD
1000
TCW40_DEV_WIDTH
1002
{
1040
0.039370078593
1002
}
1001
TCAD
1000
TCW_CUSTOM_DATA
1002
{
1000
#$AUX@_TCDO_SOURCE_COLOR
1070
           3
1071
        0
1000
#$AUX@_TCDO_PARENT_ID
1070
           3
1071
      218
1000
#$AUX@_TCDO_GTYPE
1070
           3
1071
        1
1000
#$AUX@_TCDO_VISIBILITY
1070
           3
1071
        0
1002
}
  0
LINE
  5
234
100
AcDbEntity
  8
図
370
         100
  6
Continuous
 62
           7
100
AcDbLine
 10
185.65
 20
118.2
 30
0.0
 11
185.65
 21
119.4
 31
0.0
1001
ACAD
1000
TCW40_DEV_WIDTH
1002
{
1040
0.039370078593
1002
}
1001
TCAD
1000
TCW_CUSTOM_DATA
1002
{
1000
#$AUX@_TCDO_SOURCE_COLOR
1070
           3
1071
        0
1000
#$AUX@_TCDO_PARENT_ID
1070
           3
1071
      218
1000
#$AUX@_TCDO_GTYPE
1070
           3
1071
        0
1000
#$AUX@_TCDO_VISIBILITY
1070
           3
1071
        0
1002
}
  0
LINE
  5
235
100
AcDbEntity
  8
図
370
         100
  6
Continuous
 62
           7
100
AcDbLine
 10
176.65
 20
118.2
 30
0.0
 11
177.65
 21
118.2
 31
0.0
1001
ACAD
1000
TCW40_DEV_WIDTH
1002
{
1040
0.039370078593
1002
}
1001
TCAD
1000
TCW_CUSTOM_DATA
1002
{
1000
#$AUX@_TCDO_SOURCE_COLOR
1070
           3
1071
        0
1000
#$AUX@_TCDO_PARENT_ID
1070
           3
1071
      218
1000
#$AUX@_TCDO_GTYPE
1070
           3
1071
        1
1000
#$AUX@_TCDO_VISIBILITY
1070
           3
1071
        0
1002
}
  0
LINE
  5
236
100
AcDbEntity
  8
図
370
         100
  6
Continuous
 62
           7
100
AcDbLine
 10
177.65
 20
118.2
 30
0.0
 11
177.85
 21
118.2
 31
0.0
1001
ACAD
1000
TCW40_DEV_WIDTH
1002
{
1040
0.039370078593
1002
}
1001
TCAD
1000
TCW_CUSTOM_DATA
1002
{
1000
#$AUX@_TCDO_SOURCE_COLOR
1070
           3
1071
        0
1000
#$AUX@_TCDO_PARENT_ID
1070
           3
1071
      218
1000
#$AUX@_TCDO_GTYPE
1070
           3
1071
        1
1000
#$AUX@_TCDO_VISIBILITY
1070
           3
1071
        0
1002
}
  0
LINE
  5
237
100
AcDbEntity
  8
図
370
         100
  6
Continuous
 62
           7
100
AcDbLine
 10
178.85
 20
118.2
 30
0.0
 11
184.45
 21
118.2
 31
0.0
1001
ACAD
1000
TCW40_DEV_WIDTH
1002
{
1040
0.039370078593
1002
}
1001
TCAD
1000
TCW_CUSTOM_DATA
1002
{
1000
#$AUX@_TCDO_SOURCE_COLOR
1070
           3
1071
        0
1000
#$AUX@_TCDO_PARENT_ID
1070
           3
1071
      218
1000
#$AUX@_TCDO_GTYPE
1070
           3
1071
        1
1000
#$AUX@_TCDO_VISIBILITY
1070
           3
1071
        0
1002
}
  0
LINE
  5
238
100
AcDbEntity
  8
図
370
         100
  6
Continuous
 62
           7
100
AcDbLine
 10
185.45
 20
118.2
 30
0.0
 11
185.65
 21
118.2
 31
0.0
1001
ACAD
1000
TCW40_DEV_WIDTH
1002
{
1040
0.039370078593
1002
}
1001
TCAD
1000
TCW_CUSTOM_DATA
1002
{
1000
#$AUX@_TCDO_SOURCE_COLOR
1070
           3
1071
        0
1000
#$AUX@_TCDO_PARENT_ID
1070
           3
1071
      218
1000
#$AUX@_TCDO_GTYPE
1070
           3
1071
        1
1000
#$AUX@_TCDO_VISIBILITY
1070
           3
1071
        0
1002
}
  0
LINE
  5
239
100
AcDbEntity
  8
図
370
         100
  6
Continuous
 62
           7
100
AcDbLine
 10
185.65
 20
118.2
 30
0.0
 11
186.65
 21
118.2
 31
0.0
1001
ACAD
1000
TCW40_DEV_WIDTH
1002
{
1040
0.039370078593
1002
}
1001
TCAD
1000
TCW_CUSTOM_DATA
1002
{
1000
#$AUX@_TCDO_SOURCE_COLOR
1070
           3
1071
        0
1000
#$AUX@_TCDO_PARENT_ID
1070
           3
1071
      218
1000
#$AUX@_TCDO_GTYPE
1070
           3
1071
        1
1000
#$AUX@_TCDO_VISIBILITY
1070
           3
1071
        0
1002
}
  0
LINE
  5
23A
100
AcDbEntity
  8
図
370
         100
  6
Continuous
 62
           7
100
AcDbLine
 10
186.65
 20
119.4
 30
0.0
 11
186.65
 21
118.2
 31
0.0
1001
ACAD
1000
TCW40_DEV_WIDTH
1002
{
1040
0.039370078593
1002
}
1001
TCAD
1000
TCW_CUSTOM_DATA
1002
{
1000
#$AUX@_TCDO_SOURCE_COLOR
1070
           3
1071
        0
1000
#$AUX@_TCDO_PARENT_ID
1070
           3
1071
      218
1000
#$AUX@_TCDO_GTYPE
1070
           3
1071
        1
1000
#$AUX@_TCDO_VISIBILITY
1070
           3
1071
        0
1002
}
  0
ENDSEC
  0
SECTION
  2
OBJECTS
  0
DICTIONARY
  5
19
100
AcDbDictionary
280
           0
281
           1
  3
ACAD_GROUP
350
1A
  3
ACAD_MLINESTYLE
350
1B
  3
ACAD_LAYOUT
350
1E
  3
ACAD_PLOTSETTINGS
350
22
  3
ACAD_PLOTSTYLENAME
350
1F
  0
DICTIONARY
  5
1A
102
{ACAD_REACTORS
330
19
102
}
100
AcDbDictionary
280
           0
281
           1
  0
DICTIONARY
  5
1B
102
{ACAD_REACTORS
330
19
102
}
100
AcDbDictionary
280
           0
281
           1
  3
Standard
350
1C
  0
MLINESTYLE
  5
1C
100
AcDbMlineStyle
  2
STANDARD
 70
           0
  3

 62
         256
 51
90.0
 52
90.0
 71
           3
 49
5.0
 62
           7
  6
ByLayer
 49
0.0
 62
           7
  6
ByLayer
 49
-5.0
 62
           7
  6
ByLayer
  0
ACDBDICTIONARYWDFLT
  5
1F
102
{ACAD_REACTORS
330
19
102
}
100
AcDbDictionary
281
           1
  3
Normal
350
1D
100
AcDbDictionaryWithDefault
340
1D
  0
ACDBPLACEHOLDER
  5
1D
102
{ACAD_REACTORS
330
1F
102
}
  0
LAYOUT
  5
21
102
{ACAD_REACTORS
330
1E
102
}
100
AcDbPlotSettings
  1

  2

  4

  6

 40
0.0
 41
0.0
 42
0.0
 43
0.0
 44
0.0
 45
0.0
 46
0.0
 47
0.0
 48
0.0
 49
0.0
140
0.0
141
0.0
142
1.0
143
1.0
 70
           0
 72
           0
 73
           0
 74
           0
  7

 75
           0
147
1.0
148
0.0
149
0.0
100
AcDbLayout
  1
Layout1
 70
           0
 71
           0
 10
0.0
 20
0.0
 11
0.0
 21
0.0
 12
0.0
 22
0.0
 32
0.0
 14
0.0
 24
0.0
 34
0.0
 15
0.0
 25
0.0
 35
0.0
146
0.0
 13
0.0
 23
0.0
 33
0.0
 16
0.0
 26
0.0
 36
0.0
 17
0.0
 27
0.0
 37
0.0
 76
           0
330
B
331
0
345
0
346
0
  0
DICTIONARY
  5
1E
102
{ACAD_REACTORS
330
19
102
}
100
AcDbDictionary
280
           0
281
           1
  3
Model
350
23B
  3
ペーパー 1
350
23C
  0
DICTIONARY
  5
22
102
{ACAD_REACTORS
330
19
102
}
100
AcDbDictionary
280
           0
281
           1
  0
LAYOUT
  5
23B
100
AcDbPlotSettings
  1

  2

  4

  6

 40
0.0
 41
0.0
 42
0.0
 43
0.0
 44
0.0
 45
0.0
 46
0.0
 47
0.0
 48
0.0
 49
0.0
140
0.0
141
0.0
142
1.0
143
1.0
 70
           0
 72
           1
 73
           0
 74
           0
  7

 75
           0
147
1.0
148
0.0
149
0.0
100
AcDbLayout
  1
Model
 70
           0
 71
           0
 10
0.0
 20
0.0
 11
0.0
 21
0.0
 12
0.0
 22
0.0
 32
0.0
 14
0.0
 24
0.0
 34
0.0
 15
0.0
 25
0.0
 35
0.0
146
0.0
 13
0.0
 23
0.0
 33
0.0
 16
0.0
 26
0.0
 36
0.0
 17
0.0
 27
0.0
 37
0.0
 76
           0
330
A
331
0
345
0
346
0
  0
LAYOUT
  5
23C
100
AcDbPlotSettings
  1

  2
none_device
  4

  6

 40
0.0
 41
0.0
 42
0.0
 43
0.0
 44
0.0
 45
0.0
 46
0.0
 47
0.0
 48
0.0
 49
0.0
140
0.0
141
0.0
142
1.0
143
1.0
 70
           0
 72
           1
 73
           0
 74
           0
  7

 75
           0
147
1.0
148
0.0
149
0.0
100
AcDbLayout
  1
ペーパー 1
 70
           1
 71
           1
 10
0.0
 20
0.0
 11
0.0
 21
0.0
 12
0.0
 22
0.0
 32
0.0
 14
0.0
 24
0.0
 34
0.0
 15
0.0
 25
0.0
 35
0.0
146
0.0
 13
0.0
 23
0.0
 33
0.0
 16
0.0
 26
0.0
 36
0.0
 17
0.0
 27
0.0
 37
0.0
 76
           0
330
B
331
0
345
0
346
0
  0
ENDSEC
  0
EOF
